999
dxfrw 0.6.3
  0
SECTION
  2
HEADER
  9
$ACADVER
  1
AC1021
  9
$DWGCODEPAGE
  3
ANSI_1252
  9
$INSBASE
 10
0
 20
0
 30
0
  9
$EXTMIN
 10
-62
 20
2.068025872873176
 30
0
  9
$EXTMAX
 10
62
 20
144
 30
0
  9
$LIMMIN
 10
0
 20
0
  9
$LIMMAX
 10
420
 20
297
  9
$ORTHOMODE
 70
    0
  9
$REGENMODE
 70
    1
  9
$FILLMODE
 70
    1
  9
$QTEXTMODE
 70
    0
  9
$MIRRTEXT
 70
    0
  9
$LTSCALE
 40
1
  9
$ATTMODE
 70
    0
  9
$TEXTSIZE
 40
2.5
  9
$TRACEWID
 40
15.68
  9
$TEXTSTYLE
  7
STANDARD
  9
$CLAYER
  8
0
  9
$CELTYPE
  6
BYLAYER
  9
$CECOLOR
 62
  256
  9
$CELTSCALE
 40
1
  9
$DISPSILH
 70
    0
  9
$DIMSCALE
 40
1
  9
$DIMASZ
 40
0.1
  9
$DIMEXO
 40
0.025
  9
$DIMDLI
 40
3.75
  9
$DIMRND
 40
0
  9
$DIMDLE
 40
0
  9
$DIMEXE
 40
0.05
  9
$DIMTP
 40
0
  9
$DIMTM
 40
0
  9
$DIMTXT
 40
0.1
  9
$DIMCEN
 40
2.5
  9
$DIMTSZ
 40
0
  9
$DIMTOL
 70
    0
  9
$DIMLIM
 70
    0
  9
$DIMTIH
 70
    0
  9
$DIMTOH
 70
    0
  9
$DIMSE1
 70
    0
  9
$DIMSE2
 70
    0
  9
$DIMTAD
 70
    1
  9
$DIMZIN
 70
    1
  9
$DIMBLK
  1

  9
$DIMASO
 70
    1
  9
$DIMSHO
 70
    1
  9
$DIMPOST
  1

  9
$DIMAPOST
  1

  9
$DIMALT
 70
    0
  9
$DIMALTD
 70
    3
  9
$DIMALTF
 40
0.03937
  9
$DIMLFAC
 40
1
  9
$DIMTOFL
 70
    1
  9
$DIMTVP
 40
0
  9
$DIMTIX
 70
    0
  9
$DIMSOXD
 70
    0
  9
$DIMSAH
 70
    0
  9
$DIMBLK1
  1

  9
$DIMBLK2
  1

  9
$DIMSTYLE
  2
STANDARD
  9
$DIMCLRD
 70
    0
  9
$DIMCLRE
 70
    0
  9
$DIMCLRT
 70
    0
  9
$DIMTFAC
 40
1
  9
$DIMGAP
 40
0.025
  9
$DIMJUST
 70
    0
  9
$DIMSD1
 70
    0
  9
$DIMSD2
 70
    0
  9
$DIMTOLJ
 70
    0
  9
$DIMTZIN
 70
    8
  9
$DIMALTZ
 70
    0
  9
$DIMALTTZ
 70
    0
  9
$DIMUPT
 70
    0
  9
$DIMDEC
 70
    4
  9
$DIMTDEC
 70
    2
  9
$DIMALTU
 70
    2
  9
$DIMALTTD
 70
    3
  9
$DIMTXSTY
  7
standard
  9
$DIMAUNIT
 70
    0
  9
$DIMADEC
 70
    2
  9
$DIMALTRND
 40
0
  9
$DIMAZIN
 70
    0
  9
$DIMDSEP
 70
    0
  9
$DIMATFIT
 70
    3
  9
$DIMFRAC
 70
    0
  9
$DIMLDRBLK
  1
STANDARD
  9
$DIMLUNIT
 70
    2
  9
$DIMLWD
 70
   -2
  9
$DIMLWE
 70
   -2
  9
$DIMTMOVE
 70
    0
  9
$DIMFXL
 40
0.04
  9
$DIMFXLON
 70
    0
  9
$DIMJOGANG
 40
0.7854
  9
$DIMTFILL
 70
    0
  9
$DIMTFILLCLR
 70
    0
  9
$DIMARCSYM
 70
    0
  9
$DIMLTYPE
  6

  9
$DIMLTEX1
  6

  9
$DIMLTEX2
  6

  9
$LUNITS
 70
    2
  9
$LUPREC
 70
    4
  9
$SKETCHINC
 40
1
  9
$FILLETRAD
 40
0
  9
$AUNITS
 70
    0
  9
$AUPREC
 70
    2
  9
$MENU
  1
.
  9
$ELEVATION
 40
0
  9
$PELEVATION
 40
0
  9
$THICKNESS
 40
0
  9
$LIMCHECK
 70
    0
  9
$CHAMFERA
 40
0
  9
$CHAMFERB
 40
0
  9
$CHAMFERC
 40
0
  9
$CHAMFERD
 40
0
  9
$SKPOLY
 70
    0
  9
$USRTIMER
 70
    1
  9
$ANGBASE
 50
0
  9
$ANGDIR
 70
    0
  9
$PDMODE
 70
   34
  9
$PDSIZE
 40
0
  9
$PLINEWID
 40
0
  9
$SPLFRAME
 70
    0
  9
$SPLINETYPE
 70
    2
  9
$SPLINESEGS
 70
    8
  9
$HANDSEED
  5
20000
  9
$SURFTAB1
 70
    6
  9
$SURFTAB2
 70
    6
  9
$SURFTYPE
 70
    6
  9
$SURFU
 70
    6
  9
$SURFV
 70
    6
  9
$UCSBASE
  2

  9
$UCSNAME
  2

  9
$UCSORG
 10
0
 20
0
 30
0
  9
$UCSXDIR
 10
1
 20
0
 30
0
  9
$UCSYDIR
 10
0
 20
1
 30
0
  9
$UCSORTHOREF
  2

  9
$UCSORTHOVIEW
 70
    0
  9
$UCSORGTOP
 10
0
 20
0
 30
0
  9
$UCSORGBOTTOM
 10
0
 20
0
 30
0
  9
$UCSORGLEFT
 10
0
 20
0
 30
0
  9
$UCSORGRIGHT
 10
0
 20
0
 30
0
  9
$UCSORGFRONT
 10
0
 20
0
 30
0
  9
$UCSORGBACK
 10
0
 20
0
 30
0
  9
$PUCSBASE
  2

  9
$PUCSNAME
  2

  9
$PUCSORG
 10
0
 20
0
 30
0
  9
$PUCSXDIR
 10
1
 20
0
 30
0
  9
$PUCSYDIR
 10
0
 20
1
 30
0
  9
$PUCSORTHOREF
  2

  9
$PUCSORTHOVIEW
 70
    0
  9
$PUCSORGTOP
 10
0
 20
0
 30
0
  9
$PUCSORGBOTTOM
 10
0
 20
0
 30
0
  9
$PUCSORGLEFT
 10
0
 20
0
 30
0
  9
$PUCSORGRIGHT
 10
0
 20
0
 30
0
  9
$PUCSORGFRONT
 10
0
 20
0
 30
0
  9
$PUCSORGBACK
 10
0
 20
0
 30
0
  9
$USERI1
 70
    0
  9
$USERI2
 70
    0
  9
$USERI3
 70
    0
  9
$USERI4
 70
    0
  9
$USERI5
 70
    0
  9
$USERR1
 40
0
  9
$USERR2
 40
0
  9
$USERR3
 40
0
  9
$USERR4
 40
0
  9
$USERR5
 40
0
  9
$WORLDVIEW
 70
    1
  9
$SHADEDGE
 70
    3
  9
$SHADEDIF
 70
   70
  9
$TILEMODE
 70
    1
  9
$MAXACTVP
 70
   64
  9
$PINSBASE
 10
74.5448596238756
 20
-27.00569078046608
 30
0
  9
$PLIMCHECK
 70
    0
  9
$PEXTMIN
 10
0
 20
0
 30
0
  9
$PEXTMAX
 10
0
 20
0
 30
0
  9
$GRIDMODE
 70
    1
  9
$SNAPSTYLE
 70
    0
  9
$GRIDUNIT
 10
0
 20
0
  9
$PLIMMIN
 10
0
 20
0
  9
$PLIMMAX
 10
91.40000000000001
 20
61
  9
$UNITMODE
 70
    0
  9
$VISRETAIN
 70
    1
  9
$PLINEGEN
 70
    0
  9
$PSLTSCALE
 70
    1
  9
$TREEDEPTH
 70
 3020
  9
$CMLSTYLE
  2
Standard
  9
$CMLJUST
 70
    0
  9
$CMLSCALE
 40
20
  9
$PROXYGRAPHICS
 70
    1
  9
$MEASUREMENT
 70
    1
  9
$CELWEIGHT
370
   -1
  9
$ENDCAPS
280
    0
  9
$JOINSTYLE
280
    0
  9
$LWDISPLAY
290
    0
  9
$INSUNITS
 70
    5
  9
$HYPERLINKBASE
  1

  9
$STYLESHEET
  1

  9
$XEDIT
290
    1
  9
$CEPSNTYPE
380
    0
  9
$PSTYLEMODE
290
    1
  9
$EXTNAMES
290
    1
  9
$PSVPSCALE
 40
1
  9
$OLESTARTUP
290
    0
  9
$SORTENTS
280
  127
  9
$INDEXCTL
280
    0
  9
$HIDETEXT
280
    1
  9
$XCLIPFRAME
290
    0
  9
$HALOGAP
280
    0
  9
$OBSCOLOR
 70
  257
  9
$OBSLTYPE
280
    0
  9
$INTERSECTIONDISPLAY
280
    0
  9
$INTERSECTIONCOLOR
 70
  257
  9
$DIMASSOC
280
    1
  9
$PROJECTNAME
  1

  9
$CAMERADISPLAY
290
    0
  9
$LENSLENGTH
 40
50
  9
$CAMERAHEIGHT
 40
0
  9
$STEPSPERSEC
 40
2
  9
$STEPSIZE
 40
50
  9
$3DDWFPREC
 40
2
  9
$PSOLWIDTH
 40
5
  9
$PSOLHEIGHT
 40
80
  9
$LOFTANG1
 40
1.570796326794897
  9
$LOFTANG2
 40
1.570796326794897
  9
$LOFTMAG1
 40
0
  9
$LOFTMAG2
 40
0
  9
$LOFTPARAM
 70
    7
  9
$LOFTNORMALS
280
    1
  9
$LATITUDE
 40
1
  9
$LONGITUDE
 40
1
  9
$NORTHDIRECTION
 40
0
  9
$TIMEZONE
 70
-8000
  9
$LIGHTGLYPHDISPLAY
280
    1
  9
$TILEMODELIGHTSYNCH
280
    1
  9
$SOLIDHIST
280
    1
  9
$SHOWHIST
280
    1
  9
$DWFFRAME
280
    2
  9
$DGNFRAME
280
    0
  9
$REALWORLDSCALE
290
    1
  9
$INTERFERECOLOR
 62
    1
  9
$CSHADOW
280
    0
  9
$SHADOWPLANELOCATION
 40
0
  0
ENDSEC
  0
SECTION
  2
CLASSES
  0
ENDSEC
  0
SECTION
  2
TABLES
  0
TABLE
  2
VPORT
  5
8
330
0
100
AcDbSymbolTable
 70
    1
  0
VPORT
  5
31
330
2
100
AcDbSymbolTableRecord
100
AcDbViewportTableRecord
  2
*ACTIVE
 70
    0
 10
0
 20
0
 11
1
 21
1
 12
74.81316572982686
 22
63.88367032485216
 13
0
 23
0
 14
10
 24
10
 15
10
 25
10
 16
0
 26
0
 36
1
 17
0
 27
0
 37
0
 40
146.2397272496616
 41
2.138947368421053
 42
50
 43
0
 44
0
 50
0
 51
0
 71
    0
 72
  100
 73
    1
 74
    3
 75
    0
 76
    1
 77
    0
 78
    0
281
    0
 65
    1
110
0
120
0
130
0
111
1
121
0
131
0
112
0
122
1
132
0
 79
    0
146
0
348
10020
 60
    7
 61
    5
292
1
282
    1
141
0
142
0
 63
  250
421
3358443
  0
ENDTAB
  0
TABLE
  2
LTYPE
  5
5
330
0
100
AcDbSymbolTable
 70
    4
  0
LTYPE
  5
14
330
5
100
AcDbSymbolTableRecord
100
AcDbLinetypeTableRecord
  2
ByBlock
 70
    0
  3

 72
   65
 73
    0
 40
0
  0
LTYPE
  5
15
330
5
100
AcDbSymbolTableRecord
100
AcDbLinetypeTableRecord
  2
ByLayer
 70
    0
  3

 72
   65
 73
    0
 40
0
  0
LTYPE
  5
16
330
5
100
AcDbSymbolTableRecord
100
AcDbLinetypeTableRecord
  2
Continuous
 70
    0
  3
Solid line
 72
   65
 73
    0
 40
0
  0
LTYPE
  5
32
330
5
100
AcDbSymbolTableRecord
100
AcDbLinetypeTableRecord
  2
DOT
 70
    0
  3
Dot . . . . . . . . . . . . . . . . . . . . . .
 72
   65
 73
    2
 40
6.35
 49
0
 74
    0
 49
-6.35
 74
    0
  0
LTYPE
  5
33
330
5
100
AcDbSymbolTableRecord
100
AcDbLinetypeTableRecord
  2
DOTTINY
 70
    0
  3
Dot (.15x) .....................................
 72
   65
 73
    2
 40
0.9525
 49
0
 74
    0
 49
-0.9525
 74
    0
  0
LTYPE
  5
34
330
5
100
AcDbSymbolTableRecord
100
AcDbLinetypeTableRecord
  2
DOT2
 70
    0
  3
Dot (.5x) .....................................
 72
   65
 73
    2
 40
3.175
 49
0
 74
    0
 49
-3.175
 74
    0
  0
LTYPE
  5
35
330
5
100
AcDbSymbolTableRecord
100
AcDbLinetypeTableRecord
  2
DOTX2
 70
    0
  3
Dot (2x) .  .  .  .  .  .  .  .  .  .  .  .  .
 72
   65
 73
    2
 40
12.7
 49
0
 74
    0
 49
-12.7
 74
    0
  0
LTYPE
  5
36
330
5
100
AcDbSymbolTableRecord
100
AcDbLinetypeTableRecord
  2
DASHED
 70
    0
  3
Dashed _ _ _ _ _ _ _ _ _ _ _ _ _ _ _ _ _
 72
   65
 73
    2
 40
19.05
 49
12.7
 74
    0
 49
-6.35
 74
    0
  0
LTYPE
  5
37
330
5
100
AcDbSymbolTableRecord
100
AcDbLinetypeTableRecord
  2
DASHEDTINY
 70
    0
  3
Dashed (.15x) _ _ _ _ _ _ _ _ _ _ _ _ _ _ _ _ _
 72
   65
 73
    2
 40
2.8575
 49
1.905
 74
    0
 49
-0.9525
 74
    0
  0
LTYPE
  5
38
330
5
100
AcDbSymbolTableRecord
100
AcDbLinetypeTableRecord
  2
DASHED2
 70
    0
  3
Dashed (.5x) _ _ _ _ _ _ _ _ _ _ _ _ _ _ _ _ _
 72
   65
 73
    2
 40
9.524999999999999
 49
6.35
 74
    0
 49
-3.175
 74
    0
  0
LTYPE
  5
39
330
5
100
AcDbSymbolTableRecord
100
AcDbLinetypeTableRecord
  2
DASHEDX2
 70
    0
  3
Dashed (2x) ____  ____  ____  ____  ____  ___
 72
   65
 73
    2
 40
38.09999999999999
 49
25.4
 74
    0
 49
-12.7
 74
    0
  0
LTYPE
  5
3A
330
5
100
AcDbSymbolTableRecord
100
AcDbLinetypeTableRecord
  2
DASHDOT
 70
    0
  3
Dash dot __ . __ . __ . __ . __ . __ . __ . __
 72
   65
 73
    4
 40
25.4
 49
12.7
 74
    0
 49
-6.35
 74
    0
 49
0
 74
    0
 49
-6.35
 74
    0
  0
LTYPE
  5
3B
330
5
100
AcDbSymbolTableRecord
100
AcDbLinetypeTableRecord
  2
DASHDOTTINY
 70
    0
  3
Dash dot (.15x) _._._._._._._._._._._._._._._.
 72
   65
 73
    4
 40
3.81
 49
1.905
 74
    0
 49
-0.9525
 74
    0
 49
0
 74
    0
 49
-0.9525
 74
    0
  0
LTYPE
  5
3C
330
5
100
AcDbSymbolTableRecord
100
AcDbLinetypeTableRecord
  2
DASHDOT2
 70
    0
  3
Dash dot (.5x) _._._._._._._._._._._._._._._.
 72
   65
 73
    4
 40
12.7
 49
6.35
 74
    0
 49
-3.175
 74
    0
 49
0
 74
    0
 49
-3.175
 74
    0
  0
LTYPE
  5
3D
330
5
100
AcDbSymbolTableRecord
100
AcDbLinetypeTableRecord
  2
DASHDOTX2
 70
    0
  3
Dash dot (2x) ____  .  ____  .  ____  .  ___
 72
   65
 73
    4
 40
50.8
 49
25.4
 74
    0
 49
-12.7
 74
    0
 49
0
 74
    0
 49
-12.7
 74
    0
  0
LTYPE
  5
3E
330
5
100
AcDbSymbolTableRecord
100
AcDbLinetypeTableRecord
  2
DIVIDE
 70
    0
  3
Divide ____ . . ____ . . ____ . . ____ . . ____
 72
   65
 73
    6
 40
31.75
 49
12.7
 74
    0
 49
-6.35
 74
    0
 49
0
 74
    0
 49
-6.35
 74
    0
 49
0
 74
    0
 49
-6.35
 74
    0
  0
LTYPE
  5
3F
330
5
100
AcDbSymbolTableRecord
100
AcDbLinetypeTableRecord
  2
DIVIDETINY
 70
    0
  3
Divide (.15x) __..__..__..__..__..__..__..__.._
 72
   65
 73
    6
 40
4.7625
 49
1.905
 74
    0
 49
-0.9525
 74
    0
 49
0
 74
    0
 49
-0.9525
 74
    0
 49
0
 74
    0
 49
-0.9525
 74
    0
  0
LTYPE
  5
40
330
5
100
AcDbSymbolTableRecord
100
AcDbLinetypeTableRecord
  2
DIVIDE2
 70
    0
  3
Divide (.5x) __..__..__..__..__..__..__..__.._
 72
   65
 73
    6
 40
15.875
 49
6.35
 74
    0
 49
-3.175
 74
    0
 49
0
 74
    0
 49
-3.175
 74
    0
 49
0
 74
    0
 49
-3.175
 74
    0
  0
LTYPE
  5
41
330
5
100
AcDbSymbolTableRecord
100
AcDbLinetypeTableRecord
  2
DIVIDEX2
 70
    0
  3
Divide (2x) ________  .  .  ________  .  .  _
 72
   65
 73
    6
 40
63.5
 49
25.4
 74
    0
 49
-12.7
 74
    0
 49
0
 74
    0
 49
-12.7
 74
    0
 49
0
 74
    0
 49
-12.7
 74
    0
  0
LTYPE
  5
42
330
5
100
AcDbSymbolTableRecord
100
AcDbLinetypeTableRecord
  2
BORDER
 70
    0
  3
Border __ __ . __ __ . __ __ . __ __ . __ __ .
 72
   65
 73
    6
 40
44.45
 49
12.7
 74
    0
 49
-6.35
 74
    0
 49
12.7
 74
    0
 49
-6.35
 74
    0
 49
0
 74
    0
 49
-6.35
 74
    0
  0
LTYPE
  5
43
330
5
100
AcDbSymbolTableRecord
100
AcDbLinetypeTableRecord
  2
BORDERTINY
 70
    0
  3
Border (.15x) __.__.__.__.__.__.__.__.__.__.__.
 72
   65
 73
    6
 40
6.6675
 49
1.905
 74
    0
 49
-0.9525
 74
    0
 49
1.905
 74
    0
 49
-0.9525
 74
    0
 49
0
 74
    0
 49
-0.9525
 74
    0
  0
LTYPE
  5
44
330
5
100
AcDbSymbolTableRecord
100
AcDbLinetypeTableRecord
  2
BORDER2
 70
    0
  3
Border (.5x) __.__.__.__.__.__.__.__.__.__.__.
 72
   65
 73
    6
 40
22.225
 49
6.35
 74
    0
 49
-3.175
 74
    0
 49
6.35
 74
    0
 49
-3.175
 74
    0
 49
0
 74
    0
 49
-3.175
 74
    0
  0
LTYPE
  5
45
330
5
100
AcDbSymbolTableRecord
100
AcDbLinetypeTableRecord
  2
BORDERX2
 70
    0
  3
Border (2x) ____  ____  .  ____  ____  .  ___
 72
   65
 73
    6
 40
88.89999999999999
 49
25.4
 74
    0
 49
-12.7
 74
    0
 49
25.4
 74
    0
 49
-12.7
 74
    0
 49
0
 74
    0
 49
-12.7
 74
    0
  0
LTYPE
  5
46
330
5
100
AcDbSymbolTableRecord
100
AcDbLinetypeTableRecord
  2
CENTER
 70
    0
  3
Center ____ _ ____ _ ____ _ ____ _ ____ _ ____
 72
   65
 73
    4
 40
50.8
 49
31.75
 74
    0
 49
-6.35
 74
    0
 49
6.35
 74
    0
 49
-6.35
 74
    0
  0
LTYPE
  5
47
330
5
100
AcDbSymbolTableRecord
100
AcDbLinetypeTableRecord
  2
CENTERTINY
 70
    0
  3
Center (.15x) ___ _ ___ _ ___ _ ___ _ ___ _ ___
 72
   65
 73
    4
 40
7.619999999999999
 49
4.7625
 74
    0
 49
-0.9525
 74
    0
 49
0.9525
 74
    0
 49
-0.9525
 74
    0
  0
LTYPE
  5
48
330
5
100
AcDbSymbolTableRecord
100
AcDbLinetypeTableRecord
  2
CENTER2
 70
    0
  3
Center (.5x) ___ _ ___ _ ___ _ ___ _ ___ _ ___
 72
   65
 73
    4
 40
28.575
 49
19.05
 74
    0
 49
-3.175
 74
    0
 49
3.175
 74
    0
 49
-3.175
 74
    0
  0
LTYPE
  5
49
330
5
100
AcDbSymbolTableRecord
100
AcDbLinetypeTableRecord
  2
CENTERX2
 70
    0
  3
Center (2x) ________  __  ________  __  _____
 72
   65
 73
    4
 40
101.6
 49
63.5
 74
    0
 49
-12.7
 74
    0
 49
12.7
 74
    0
 49
-12.7
 74
    0
  0
ENDTAB
  0
TABLE
  2
LAYER
  5
2
330
0
100
AcDbSymbolTable
 70
    1
  0
LAYER
  5
10
330
2
100
AcDbSymbolTableRecord
100
AcDbLayerTableRecord
  2
0
 70
    0
 62
    7
  6
CONTINUOUS
370
    0
390
F
  0
ENDTAB
  0
TABLE
  2
STYLE
  5
3
330
0
100
AcDbSymbolTable
 70
    3
  0
STYLE
  5
4A
330
2
100
AcDbSymbolTableRecord
100
AcDbTextStyleTableRecord
  2
unicode
 70
    0
 40
0
 41
1
 50
0
 71
    0
 42
1
  3
unicode
  4

  0
STYLE
  5
4B
330
2
100
AcDbSymbolTableRecord
100
AcDbTextStyleTableRecord
  2
Standard
 70
    0
 40
0
 41
1
 50
0
 71
    0
 42
1
  3
txt
  4

  0
ENDTAB
  0
TABLE
  2
VIEW
  5
6
330
0
100
AcDbSymbolTable
 70
    0
  0
ENDTAB
  0
TABLE
  2
UCS
  5
7
330
0
100
AcDbSymbolTable
 70
    0
  0
ENDTAB
  0
TABLE
  2
APPID
  5
9
330
0
100
AcDbSymbolTable
 70
    1
  0
APPID
  5
12
330
9
100
AcDbSymbolTableRecord
100
AcDbRegAppTableRecord
  2
ACAD
 70
    0
  0
APPID
  5
4C
330
9
100
AcDbSymbolTableRecord
100
AcDbRegAppTableRecord
  2
LibreCad
 70
    0
  0
ENDTAB
  0
TABLE
  2
DIMSTYLE
  5
A
330
0
100
AcDbSymbolTable
 70
    1
100
AcDbDimStyleTable
 71
    1
  0
DIMSTYLE
105
4D
330
A
100
AcDbSymbolTableRecord
100
AcDbDimStyleTableRecord
  2
Standard
 70
    0
 40
1
 41
0.1
 42
0.025
 43
0.38
 44
0.05
 45
0
 46
0
 47
0
 48
0
 49
0.04
140
0.1
141
0.09
142
0
143
25.4
144
1
145
0
146
1
147
0.025
148
0
 71
    0
 72
    0
 73
    0
 74
    1
 75
    0
 76
    0
 77
    0
 78
    1
 79
    0
170
    0
171
    2
172
    0
173
    0
174
    0
175
    0
176
    0
177
    0
178
    0
179
    2
271
    4
272
    4
273
    2
274
    2
275
    0
276
    0
277
    2
278
    0
279
    0
280
    0
281
    0
282
    0
283
    1
284
    0
285
    0
286
    0
288
    0
289
    3
340
standard
341

371
   -2
372
   -2
  0
ENDTAB
  0
TABLE
  2
BLOCK_RECORD
  5
1
330
0
100
AcDbSymbolTable
 70
    2
  0
BLOCK_RECORD
  5
1F
330
1
100
AcDbSymbolTableRecord
100
AcDbBlockTableRecord
  2
*Model_Space
 70
    0
280
    1
281
    0
  0
BLOCK_RECORD
  5
1E
330
1
100
AcDbSymbolTableRecord
100
AcDbBlockTableRecord
  2
*Paper_Space
 70
    0
280
    1
281
    0
  0
ENDTAB
  0
ENDSEC
  0
SECTION
  2
BLOCKS
  0
BLOCK
  5
20
330
1F
100
AcDbEntity
  8
0
100
AcDbBlockBegin
  2
*Model_Space
 70
    0
 10
0
 20
0
 30
0
  3
*Model_Space
  1

  0
ENDBLK
  5
21
330
1F
100
AcDbEntity
  8
0
100
AcDbBlockEnd
  0
BLOCK
  5
1C
330
1B
100
AcDbEntity
  8
0
100
AcDbBlockBegin
  2
*Paper_Space
 70
    0
 10
0
 20
0
 30
0
  3
*Paper_Space
  1

  0
ENDBLK
  5
1D
330
1F
100
AcDbEntity
  8
0
100
AcDbBlockEnd
  0
ENDSEC
  0
SECTION
  2
ENTITIES
  0
LINE
  5
4E
100
AcDbEntity
  8
0
  6
ByLayer
 62
  256
370
   -1
100
AcDbLine
 10
-1.397262636
 20
35.228403
 11
-10.298343132
 21
6.844375439999997
  0
LINE
  5
4F
100
AcDbEntity
  8
0
  6
ByLayer
 62
  256
370
   -1
100
AcDbLine
 10
-10.841723046
 20
6.154186320000005
 11
-14.826509082
 21
4.14113472
  0
ELLIPSE
  5
50
100
AcDbEntity
  8
0
  6
ByLayer
 62
  256
370
   -1
100
AcDbEllipse
 10
53.53447297275
 20
145.891292907712
 30
0
 11
7.105427357601002e-15
 21
125.824973934258
 31
0
 40
0.899761526233
 41
2.579477425069999
 42
2.63185085712
  0
ELLIPSE
  5
51
100
AcDbEntity
  8
0
  6
ByLayer
 62
  256
370
   -1
100
AcDbEllipse
 10
-31.18356083951
 20
-8.496877808826593
 30
0
 11
3.552713678800501e-15
 21
55.03525649898999
 31
0
 40
0.899761526233
 41
5.78755498623
 42
5.909196723879999
  0
ELLIPSE
  5
52
100
AcDbEntity
  8
0
  6
ByLayer
 62
  256
370
   -1
100
AcDbEllipse
 10
-11.596417371
 20
7.497418965
 30
0
 11
0
 21
1.583607138088
 31
0
 40
0.899761526233
 41
3.699790942330001
 42
4.287327019209997
  0
LINE
  5
53
100
AcDbEntity
  8
0
  6
ByLayer
 62
  256
370
   -1
100
AcDbLine
 10
-16.379023122
 20
3.508461359999997
 11
-19.66517784
 21
2.185598880000001
  0
ELLIPSE
  5
54
100
AcDbEntity
  8
0
  6
ByLayer
 62
  256
370
   -1
100
AcDbEllipse
 10
-32.0024894112
 20
-8.44331356800001
 30
0
 11
0
 21
55.30660573404
 31
0
 40
0.899761526233
 41
5.916892504089999
 42
6.04658055919
  0
ELLIPSE
  5
55
100
AcDbEntity
  8
0
  6
ByLayer
 62
  256
370
   -1
100
AcDbEllipse
 10
-22.783143537
 20
23.10695658000001
 30
0
 11
0
 21
22.44552994568039
 31
0
 40
0.8997615262330001
 41
6.232555105039999
 42
0.05063020214149994
  0
ELLIPSE
  5
56
100
AcDbEntity
  8
0
  6
ByLayer
 62
  256
370
   -1
100
AcDbEllipse
 10
-27.621812295
 20
21.56361701999999
 30
0
 11
0
 21
24.01952086279261
 31
0
 40
0.8997615262330001
 41
6.19747551685
 42
0.01257167850270058
  0
ELLIPSE
  5
57
100
AcDbEntity
  8
0
  6
ByLayer
 62
  256
370
   -1
100
AcDbEllipse
 10
-25.1694646864208
 20
16.40537888897341
 30
0
 11
0
 21
29.48983821375398
 31
0
 40
0.899761526233
 41
0.1391935166230005
 42
0.3820112668680005
  0
ELLIPSE
  5
58
100
AcDbEntity
  8
0
  6
ByLayer
 62
  256
370
   -1
100
AcDbEllipse
 10
-24.8857149707108
 20
53.722966697616
 30
0
 11
0
 21
8.286716907076588
 31
0
 40
0.8997615262330001
 41
3.022479392540001
 42
3.287020185579999
  0
ELLIPSE
  5
59
100
AcDbEntity
  8
0
  6
ByLayer
 62
  256
370
   -1
100
AcDbEllipse
 10
-25.360023223845
 20
5.667035991076798
 30
0
 11
0
 21
1.488296763024607
 31
0
 40
0.8997615262329999
 41
5.564116811760002
 42
0.6892199654419997
  0
LINE
  5
5A
100
AcDbEntity
  8
0
  6
ByLayer
 62
  256
370
   -1
100
AcDbLine
 10
-31.645411182
 20
2.645724959999998
 11
-34.41406122
 21
4.026103199999998
  0
LINE
  5
5B
100
AcDbEntity
  8
0
  6
ByLayer
 62
  256
370
   -1
100
AcDbLine
 10
-35.759573388
 20
4.658776560000003
 11
-39.485607084
 21
6.614312399999998
  0
ELLIPSE
  5
5C
100
AcDbEntity
  8
0
  6
ByLayer
 62
  256
370
   -1
100
AcDbEllipse
 10
-37.580866421302
 20
-4.987874549250003
 30
0
 11
0
 21
13.1263597132936
 31
0
 40
0.8997615262329999
 41
0.4163863595840009
 42
0.5733885252659996
  0
ELLIPSE
  5
5D
100
AcDbEntity
  8
0
  6
ByLayer
 62
  256
370
   -1
100
AcDbEllipse
 10
-44.570090565
 20
6.973785899999995
 30
0
 11
0
 21
1.136755018471702
 31
0
 40
0.899761526233
 41
1.892546881189996
 42
3.747137317189999
  0
LINE
  5
5E
100
AcDbEntity
  8
0
  6
ByLayer
 62
  256
370
   -1
100
AcDbLine
 10
-36.509955174
 20
43.25185152
 11
-41.91787908
 21
40.72115808000002
  0
ELLIPSE
  5
5F
100
AcDbEntity
  8
0
  6
ByLayer
 62
  256
370
   -1
100
AcDbEllipse
 10
-61.85024683647
 20
71.41019223902003
 30
0
 11
0
 21
37.65596373059398
 31
0
 40
0.8997615262329999
 41
3.575351301769999
 42
3.73418607725
  0
ELLIPSE
  5
60
100
AcDbEntity
  8
0
  6
ByLayer
 62
  256
370
   -1
100
AcDbEllipse
 10
-57.369706317
 20
59.57194842
 30
0
 11
0
 21
24.78850761833901
 31
0
 40
0.8997615262329999
 41
3.30492945085
 42
3.518400796149999
  0
ELLIPSE
  5
61
100
AcDbEntity
  8
0
  6
ByLayer
 62
  256
370
   -1
100
AcDbEllipse
 10
-53.662542715594
 20
34.549527259202
 30
0
 11
0
 21
0.5708666760444032
 31
0
 40
0.8997615262329999
 41
0.1570139904360093
 42
1.845952280949998
  0
LINE
  5
62
100
AcDbEntity
  8
0
  6
ByLayer
 62
  256
370
   -1
100
AcDbLine
 10
-45.54041184
 20
6.614312399999998
 11
-54.156864762
 21
34.39442448
  0
LINE
  5
63
100
AcDbEntity
  8
0
  6
ByLayer
 62
  256
370
   -1
100
AcDbLine
 10
-49.1629446
 20
36.5225076
 11
-47.61043056
 21
37.2414546
  0
LINE
  5
64
100
AcDbEntity
  8
0
  6
ByLayer
 62
  256
370
   -1
100
AcDbLine
 10
-36.509955174
 20
43.25185152
 11
-35.06094207
 21
43.76949336
  0
LINE
  5
65
100
AcDbEntity
  8
0
  6
ByLayer
 62
  256
370
   -1
100
AcDbLine
 10
-27.893502252
 20
45.58123979999998
 11
-28.85088591
 21
45.60999767999999
  0
LINE
  5
66
100
AcDbEntity
  8
0
  6
ByLayer
 62
  256
370
   -1
100
AcDbLine
 10
-20.337933924
 20
45.32241887999999
 11
-21.761071794
 21
45.52372404
  0
LINE
  5
67
100
AcDbEntity
  8
0
  6
ByLayer
 62
  256
370
   -1
100
AcDbLine
 10
-13.092868404
 20
42.73420967999999
 11
-14.179628232
 21
43.19433576
  0
LINE
  5
68
100
AcDbEntity
  8
0
  6
ByLayer
 62
  256
370
   -1
100
AcDbLine
 10
-6.805186542
 20
39.42705348
 11
-7.63319403
 21
39.91593743999999
  0
LINE
  5
69
100
AcDbEntity
  8
0
  6
ByLayer
 62
  256
370
   -1
100
AcDbLine
 10
-35.759573388
 20
4.658776560000003
 11
-34.41406122
 21
4.026103199999998
  0
LINE
  5
6A
100
AcDbEntity
  8
0
  6
ByLayer
 62
  256
370
   -1
100
AcDbLine
 10
-14.826509082
 20
4.14113472
 11
-16.379023122
 21
3.508461359999997
  0
ELLIPSE
  5
6B
100
AcDbEntity
  8
0
  6
ByLayer
 62
  256
370
   -1
100
AcDbEllipse
 10
-30.713985957986
 20
4.795029730978002
 30
0
 11
0
 21
2.385609322965365
 31
0
 40
0.8997615262330001
 41
2.692740608539999
 42
3.61747008067
  0
ELLIPSE
  5
6C
100
AcDbEntity
  8
0
  6
ByLayer
 62
  256
370
   -1
100
AcDbEllipse
 10
-20.18268252
 20
3.533624504999997
 30
0
 11
0
 21
1.465598632126821
 31
0
 40
0.899761526233
 41
2.738311171880001
 42
3.544874135299999
  0
ELLIPSE
  5
6D
100
AcDbEntity
  8
0
  6
ByLayer
 62
  256
370
   -1
100
AcDbEllipse
 10
-41.28764745832201
 20
3.590786684503201
 30
0
 11
0
 21
3.626693624042998
 31
0
 40
0.8997615262329999
 41
5.698139074899997
 42
0.3341189491909997
  0
LINE
  5
6E
100
AcDbEntity
  8
0
  6
ByLayer
 62
  256
370
   -1
100
AcDbLine
 10
-42.92701282454079
 20
40.17475765549158
 11
-41.91787908
 21
40.72115808000002
  0
CIRCLE
  5
6F
100
AcDbEntity
  8
0
  6
ByLayer
 62
  256
370
   -1
100
AcDbCircle
 10
-27.96647283115381
 20
8.999447632201029
 40
0.1699999999999999
  0
CIRCLE
  5
70
100
AcDbEntity
  8
0
  6
ByLayer
 62
  256
370
   -1
100
AcDbCircle
 10
-28.03294566230762
 20
12.99889526440205
 40
0.1699999999999999
  0
CIRCLE
  5
71
100
AcDbEntity
  8
0
  6
ByLayer
 62
  256
370
   -1
100
AcDbCircle
 10
-28.09941849346143
 20
16.99834289660308
 40
0.1699999999999999
  0
CIRCLE
  5
72
100
AcDbEntity
  8
0
  6
ByLayer
 62
  256
370
   -1
100
AcDbCircle
 10
-28.16589132461523
 20
20.9977905288041
 40
0.1699999999999999
  0
CIRCLE
  5
73
100
AcDbEntity
  8
0
  6
ByLayer
 62
  256
370
   -1
100
AcDbCircle
 10
-28.23236415576904
 20
24.99723816100513
 40
0.1699999999999999
  0
CIRCLE
  5
74
100
AcDbEntity
  8
0
  6
ByLayer
 62
  256
370
   -1
100
AcDbCircle
 10
-28.29883698692285
 20
28.99668579320614
 40
0.1699999999999999
  0
CIRCLE
  5
75
100
AcDbEntity
  8
0
  6
ByLayer
 62
  256
370
   -1
100
AcDbCircle
 10
-28.36530981807666
 20
32.99613342540717
 40
0.1699999999999999
  0
CIRCLE
  5
76
100
AcDbEntity
  8
0
  6
ByLayer
 62
  256
370
   -1
100
AcDbCircle
 10
-28.43178264923046
 20
36.99558105760821
 40
0.1699999999999999
  0
CIRCLE
  5
77
100
AcDbEntity
  8
0
  6
ByLayer
 62
  256
370
   -1
100
AcDbCircle
 10
-28.49825548038427
 20
40.99502868980922
 40
0.1699999999999999
  0
CIRCLE
  5
78
100
AcDbEntity
  8
0
  6
ByLayer
 62
  256
370
   -1
100
AcDbCircle
 10
-45.28432768799523
 20
7.895730237468342
 40
0.1699999999999999
  0
CIRCLE
  5
79
100
AcDbEntity
  8
0
  6
ByLayer
 62
  256
370
   -1
100
AcDbCircle
 10
-46.18345348975699
 20
11.79336705900602
 40
0.1699999999999999
  0
CIRCLE
  5
7A
100
AcDbEntity
  8
0
  6
ByLayer
 62
  256
370
   -1
100
AcDbCircle
 10
-47.08257929151875
 20
15.69100388054369
 40
0.1699999999999999
  0
CIRCLE
  5
7B
100
AcDbEntity
  8
0
  6
ByLayer
 62
  256
370
   -1
100
AcDbCircle
 10
-47.98170509328051
 20
19.58864070208135
 40
0.1699999999999999
  0
CIRCLE
  5
7C
100
AcDbEntity
  8
0
  6
ByLayer
 62
  256
370
   -1
100
AcDbCircle
 10
-48.88083089504226
 20
23.48627752361901
 40
0.1699999999999999
  0
CIRCLE
  5
7D
100
AcDbEntity
  8
0
  6
ByLayer
 62
  256
370
   -1
100
AcDbCircle
 10
-49.77995669680401
 20
27.38391434515669
 40
0.1699999999999999
  0
CIRCLE
  5
7E
100
AcDbEntity
  8
0
  6
ByLayer
 62
  256
370
   -1
100
AcDbCircle
 10
-50.67908249856577
 20
31.28155116669436
 40
0.1699999999999999
  0
CIRCLE
  5
7F
100
AcDbEntity
  8
0
  6
ByLayer
 62
  256
370
   -1
100
AcDbCircle
 10
-41.12190079565038
 20
8.369226933658581
 40
0.1699999999999999
  0
CIRCLE
  5
80
100
AcDbEntity
  8
0
  6
ByLayer
 62
  256
370
   -1
100
AcDbCircle
 10
-41.74915469369367
 20
12.31973988103509
 40
0.1699999999999999
  0
CIRCLE
  5
81
100
AcDbEntity
  8
0
  6
ByLayer
 62
  256
370
   -1
100
AcDbCircle
 10
-42.37640859173698
 20
16.27025282841162
 40
0.1699999999999999
  0
CIRCLE
  5
82
100
AcDbEntity
  8
0
  6
ByLayer
 62
  256
370
   -1
100
AcDbCircle
 10
-43.00366248978028
 20
20.22076577578812
 40
0.1699999999999999
  0
CIRCLE
  5
83
100
AcDbEntity
  8
0
  6
ByLayer
 62
  256
370
   -1
100
AcDbCircle
 10
-43.63091638782358
 20
24.17127872316464
 40
0.1699999999999999
  0
CIRCLE
  5
84
100
AcDbEntity
  8
0
  6
ByLayer
 62
  256
370
   -1
100
AcDbCircle
 10
-44.25817028586689
 20
28.12179167054115
 40
0.1699999999999999
  0
CIRCLE
  5
85
100
AcDbEntity
  8
0
  6
ByLayer
 62
  256
370
   -1
100
AcDbCircle
 10
-44.88542418391018
 20
32.07230461791767
 40
0.1699999999999999
  0
CIRCLE
  5
86
100
AcDbEntity
  8
0
  6
ByLayer
 62
  256
370
   -1
100
AcDbCircle
 10
-45.51267808195349
 20
36.02281756529417
 40
0.1699999999999999
  0
CIRCLE
  5
87
100
AcDbEntity
  8
0
  6
ByLayer
 62
  256
370
   -1
100
AcDbCircle
 10
-36.77821235770016
 20
8.720032862939604
 40
0.1699999999999999
  0
CIRCLE
  5
88
100
AcDbEntity
  8
0
  6
ByLayer
 62
  256
370
   -1
100
AcDbCircle
 10
-37.19258239085463
 20
12.69851215478261
 40
0.1699999999999999
  0
CIRCLE
  5
89
100
AcDbEntity
  8
0
  6
ByLayer
 62
  256
370
   -1
100
AcDbCircle
 10
-37.6069524240091
 20
16.67699144662561
 40
0.1699999999999999
  0
CIRCLE
  5
8A
100
AcDbEntity
  8
0
  6
ByLayer
 62
  256
370
   -1
100
AcDbCircle
 10
-38.02132245716358
 20
20.6554707384686
 40
0.1699999999999999
  0
CIRCLE
  5
8B
100
AcDbEntity
  8
0
  6
ByLayer
 62
  256
370
   -1
100
AcDbCircle
 10
-38.43569249031806
 20
24.63395003031159
 40
0.1699999999999999
  0
CIRCLE
  5
8C
100
AcDbEntity
  8
0
  6
ByLayer
 62
  256
370
   -1
100
AcDbCircle
 10
-38.85006252347254
 20
28.61242932215457
 40
0.1699999999999999
  0
CIRCLE
  5
8D
100
AcDbEntity
  8
0
  6
ByLayer
 62
  256
370
   -1
100
AcDbCircle
 10
-39.26443255662701
 20
32.59090861399759
 40
0.1699999999999999
  0
CIRCLE
  5
8E
100
AcDbEntity
  8
0
  6
ByLayer
 62
  256
370
   -1
100
AcDbCircle
 10
-39.6788025897815
 20
36.56938790584058
 40
0.1699999999999999
  0
CIRCLE
  5
8F
100
AcDbEntity
  8
0
  6
ByLayer
 62
  256
370
   -1
100
AcDbCircle
 10
-40.09317262293597
 20
40.54786719768358
 40
0.1699999999999999
  0
CIRCLE
  5
90
100
AcDbEntity
  8
0
  6
ByLayer
 62
  256
370
   -1
100
AcDbCircle
 10
-32.15148587049609
 20
4.93797067045148
 40
0.1699999999999999
  0
CIRCLE
  5
91
100
AcDbEntity
  8
0
  6
ByLayer
 62
  256
370
   -1
100
AcDbCircle
 10
-32.38467652522048
 20
8.931167650134455
 40
0.1699999999999999
  0
CIRCLE
  5
92
100
AcDbEntity
  8
0
  6
ByLayer
 62
  256
370
   -1
100
AcDbCircle
 10
-32.61786717994488
 20
12.92436462981743
 40
0.1699999999999999
  0
CIRCLE
  5
93
100
AcDbEntity
  8
0
  6
ByLayer
 62
  256
370
   -1
100
AcDbCircle
 10
-32.85105783466928
 20
16.9175616095004
 40
0.1699999999999999
  0
CIRCLE
  5
94
100
AcDbEntity
  8
0
  6
ByLayer
 62
  256
370
   -1
100
AcDbCircle
 10
-33.08424848939368
 20
20.91075858918337
 40
0.1699999999999999
  0
CIRCLE
  5
95
100
AcDbEntity
  8
0
  6
ByLayer
 62
  256
370
   -1
100
AcDbCircle
 10
-33.31743914411808
 20
24.90395556886633
 40
0.1699999999999999
  0
CIRCLE
  5
96
100
AcDbEntity
  8
0
  6
ByLayer
 62
  256
370
   -1
100
AcDbCircle
 10
-33.55062979884248
 20
28.89715254854929
 40
0.1699999999999999
  0
CIRCLE
  5
97
100
AcDbEntity
  8
0
  6
ByLayer
 62
  256
370
   -1
100
AcDbCircle
 10
-33.78382045356688
 20
32.89034952823227
 40
0.1699999999999999
  0
CIRCLE
  5
98
100
AcDbEntity
  8
0
  6
ByLayer
 62
  256
370
   -1
100
AcDbCircle
 10
-34.01701110829128
 20
36.88354650791524
 40
0.1699999999999999
  0
CIRCLE
  5
99
100
AcDbEntity
  8
0
  6
ByLayer
 62
  256
370
   -1
100
AcDbCircle
 10
-34.25020176301567
 20
40.87674348759823
 40
0.1699999999999999
  0
ARC
  5
9A
100
AcDbEntity
  8
0
  6
ByLayer
 62
  256
370
   -1
100
AcDbCircle
 10
-33.05845529258863
 20
43.31443192114308
 40
0.7177133829043584
100
AcDbArc
 50
23.44608602729624
 51
110.6517239727038
  0
LINE
  5
9B
100
AcDbEntity
  8
0
  6
ByLayer
 62
  256
370
   -1
100
AcDbLine
 10
-33.31158313948956
 20
43.98602613875018
 11
-34.51650604071217
 21
43.49800892377785
  0
LINE
  5
9C
100
AcDbEntity
  8
0
  6
ByLayer
 62
  256
370
   -1
100
AcDbLine
 10
-35.72142894193478
 20
43.00999170880556
 11
-34.51650604071217
 21
43.49800892377785
  0
ARC
  5
9D
100
AcDbEntity
  8
0
  6
ByLayer
 62
  256
370
   -1
100
AcDbCircle
 10
-34.91230216303918
 20
41.88246043260783
 40
1.38780867670225
100
AcDbArc
 50
125.6635684637927
 51
179.2758584395498
  0
ARC
  5
9E
100
AcDbEntity
  8
0
  6
ByLayer
 62
  256
370
   -1
100
AcDbCircle
 10
-38.99714205297396
 20
40.87286357620838
 40
0.8808391451562804
100
AcDbArc
 50
11.82966919407075
 51
110.110323350358
  0
LINE
  5
9F
100
AcDbEntity
  8
0
  6
ByLayer
 62
  256
370
   -1
100
AcDbLine
 10
-41.35059793768928
 20
40.79796391164059
 11
-39.3
 21
41.7
  0
ARC
  5
A0
100
AcDbEntity
  8
0
  6
ByLayer
 62
  256
370
   -1
100
AcDbCircle
 10
-40.45624837421144
 20
39.53906209355286
 40
1.544245747696124
100
AcDbArc
 50
125.3907639075699
 51
181.4494660876391
  0
ARC
  5
A1
100
AcDbEntity
  8
0
  6
ByLayer
 62
  256
370
   -1
100
AcDbCircle
 10
-27.26684941631942
 20
44.56479468332017
 40
0.7177133829043584
100
AcDbArc
 50
2.811604027296192
 51
90.01724197270376
  0
LINE
  5
A2
100
AcDbEntity
  8
0
  6
ByLayer
 62
  256
370
   -1
100
AcDbLine
 10
-27.26706539722543
 20
45.28250803372705
 11
-28.56666929739558
 21
45.2504190533357
  0
ARC
  5
A3
100
AcDbEntity
  8
0
  6
ByLayer
 62
  256
370
   -1
100
AcDbCircle
 10
-29.83106788088589
 20
44.50148065662493
 40
0.7177133829043584
100
AcDbArc
 50
92.81160402729624
 51
180.0172419727038
  0
LINE
  5
A4
100
AcDbEntity
  8
0
  6
ByLayer
 62
  256
370
   -1
100
AcDbLine
 10
-29.86627319756573
 20
45.21833007294433
 11
-28.56666929739558
 21
45.2504190533357
  0
CIRCLE
  5
A5
100
AcDbEntity
  8
0
  6
ByLayer
 62
  256
370
   -1
100
AcDbCircle
 10
-28.54825548038427
 20
43.99502868980922
 40
0.1699999999999999
  0
CIRCLE
  5
A6
100
AcDbEntity
  8
0
  6
ByLayer
 62
  256
370
   -1
100
AcDbCircle
 10
-23.56925840475059
 20
9.016036265391811
 40
0.1699999999999999
  0
CIRCLE
  5
A7
100
AcDbEntity
  8
0
  6
ByLayer
 62
  256
370
   -1
100
AcDbCircle
 10
-23.45849358565618
 20
13.01450236564213
 40
0.1699999999999999
  0
CIRCLE
  5
A8
100
AcDbEntity
  8
0
  6
ByLayer
 62
  256
370
   -1
100
AcDbCircle
 10
-23.34772876656178
 20
17.01296846589245
 40
0.1699999999999999
  0
CIRCLE
  5
A9
100
AcDbEntity
  8
0
  6
ByLayer
 62
  256
370
   -1
100
AcDbCircle
 10
-23.23696394746738
 20
21.01143456614277
 40
0.1699999999999999
  0
CIRCLE
  5
AA
100
AcDbEntity
  8
0
  6
ByLayer
 62
  256
370
   -1
100
AcDbCircle
 10
-23.12619912837298
 20
25.00990066639307
 40
0.1699999999999999
  0
CIRCLE
  5
AB
100
AcDbEntity
  8
0
  6
ByLayer
 62
  256
370
   -1
100
AcDbCircle
 10
-23.01543430927858
 20
29.0083667666434
 40
0.1699999999999999
  0
CIRCLE
  5
AC
100
AcDbEntity
  8
0
  6
ByLayer
 62
  256
370
   -1
100
AcDbCircle
 10
-22.90466949018418
 20
33.00683286689371
 40
0.1699999999999999
  0
CIRCLE
  5
AD
100
AcDbEntity
  8
0
  6
ByLayer
 62
  256
370
   -1
100
AcDbCircle
 10
-22.79390467108977
 20
37.00529896714404
 40
0.1699999999999999
  0
CIRCLE
  5
AE
100
AcDbEntity
  8
0
  6
ByLayer
 62
  256
370
   -1
100
AcDbCircle
 10
-22.68313985199537
 20
41.00376506739434
 40
0.1699999999999999
  0
CIRCLE
  5
AF
100
AcDbEntity
  8
0
  6
ByLayer
 62
  256
370
   -1
100
AcDbCircle
 10
-10.42161737629034
 20
8.240150678028463
 40
0.1699999999999999
  0
CIRCLE
  5
B0
100
AcDbEntity
  8
0
  6
ByLayer
 62
  256
370
   -1
100
AcDbCircle
 10
-9.750647864565789
 20
12.18347413855463
 40
0.1699999999999999
  0
CIRCLE
  5
B1
100
AcDbEntity
  8
0
  6
ByLayer
 62
  256
370
   -1
100
AcDbCircle
 10
-9.079678352841217
 20
16.12679759908081
 40
0.1699999999999999
  0
CIRCLE
  5
B2
100
AcDbEntity
  8
0
  6
ByLayer
 62
  256
370
   -1
100
AcDbCircle
 10
-8.408708841116663
 20
20.07012105960698
 40
0.1699999999999999
  0
CIRCLE
  5
B3
100
AcDbEntity
  8
0
  6
ByLayer
 62
  256
370
   -1
100
AcDbCircle
 10
-7.737739329392106
 20
24.01344452013313
 40
0.1699999999999999
  0
CIRCLE
  5
B4
100
AcDbEntity
  8
0
  6
ByLayer
 62
  256
370
   -1
100
AcDbCircle
 10
-7.066769817667542
 20
27.95676798065931
 40
0.1699999999999999
  0
CIRCLE
  5
B5
100
AcDbEntity
  8
0
  6
ByLayer
 62
  256
370
   -1
100
AcDbCircle
 10
-6.395800305942995
 20
31.90009144118549
 40
0.1699999999999999
  0
CIRCLE
  5
B6
100
AcDbEntity
  8
0
  6
ByLayer
 62
  256
370
   -1
100
AcDbCircle
 10
-5.72483079421843
 20
35.84341490171165
 40
0.1699999999999999
  0
CIRCLE
  5
B7
100
AcDbEntity
  8
0
  6
ByLayer
 62
  256
370
   -1
100
AcDbCircle
 10
-14.76115402379844
 20
8.63904381025219
 40
0.1699999999999999
  0
CIRCLE
  5
B8
100
AcDbEntity
  8
0
  6
ByLayer
 62
  256
370
   -1
100
AcDbCircle
 10
-14.30274557704712
 20
12.61268970488688
 40
0.1699999999999999
  0
CIRCLE
  5
B9
100
AcDbEntity
  8
0
  6
ByLayer
 62
  256
370
   -1
100
AcDbCircle
 10
-13.84433713029581
 20
16.58633559952154
 40
0.1699999999999999
  0
CIRCLE
  5
BA
100
AcDbEntity
  8
0
  6
ByLayer
 62
  256
370
   -1
100
AcDbCircle
 10
-13.38592868354448
 20
20.55998149415623
 40
0.1699999999999999
  0
CIRCLE
  5
BB
100
AcDbEntity
  8
0
  6
ByLayer
 62
  256
370
   -1
100
AcDbCircle
 10
-12.92752023679316
 20
24.5336273887909
 40
0.1699999999999999
  0
CIRCLE
  5
BC
100
AcDbEntity
  8
0
  6
ByLayer
 62
  256
370
   -1
100
AcDbCircle
 10
-12.46911179004184
 20
28.50727328342557
 40
0.1699999999999999
  0
CIRCLE
  5
BD
100
AcDbEntity
  8
0
  6
ByLayer
 62
  256
370
   -1
100
AcDbCircle
 10
-12.01070334329052
 20
32.48091917806025
 40
0.1699999999999999
  0
CIRCLE
  5
BE
100
AcDbEntity
  8
0
  6
ByLayer
 62
  256
370
   -1
100
AcDbCircle
 10
-11.55229489653919
 20
36.45456507269494
 40
0.1699999999999999
  0
ARC
  5
BF
100
AcDbEntity
  8
0
  6
ByLayer
 62
  256
370
   -1
100
AcDbCircle
 10
-16.52598778206882
 20
4.531736382548566
 40
0.7177133829043584
100
AcDbArc
 50
174.8165050272962
 51
262.0221429727038
  0
CIRCLE
  5
C0
100
AcDbEntity
  8
0
  6
ByLayer
 62
  256
370
   -1
100
AcDbCircle
 10
-11.09388644978788
 20
40.42821096732963
 40
0.1699999999999999
  0
LINE
  5
C1
100
AcDbEntity
  8
0
  6
ByLayer
 62
  256
370
   -1
100
AcDbLine
 10
-17.24076605137346
 20
4.596578696895563
 11
-13.04632876359887
 21
40.95543863280287
  0
CIRCLE
  5
C2
100
AcDbEntity
  8
0
  6
ByLayer
 62
  256
370
   -1
100
AcDbCircle
 10
-19.42948513004567
 20
4.90845711407579
 40
0.1699999999999999
  0
CIRCLE
  5
C3
100
AcDbEntity
  8
0
  6
ByLayer
 62
  256
370
   -1
100
AcDbCircle
 10
-19.15208194252908
 20
8.898826454319327
 40
0.1699999999999999
  0
CIRCLE
  5
C4
100
AcDbEntity
  8
0
  6
ByLayer
 62
  256
370
   -1
100
AcDbCircle
 10
-18.87467875501249
 20
12.88919579456286
 40
0.1699999999999999
  0
CIRCLE
  5
C5
100
AcDbEntity
  8
0
  6
ByLayer
 62
  256
370
   -1
100
AcDbCircle
 10
-18.5972755674959
 20
16.87956513480641
 40
0.1699999999999999
  0
CIRCLE
  5
C6
100
AcDbEntity
  8
0
  6
ByLayer
 62
  256
370
   -1
100
AcDbCircle
 10
-18.31987237997931
 20
20.86993447504993
 40
0.1699999999999999
  0
CIRCLE
  5
C7
100
AcDbEntity
  8
0
  6
ByLayer
 62
  256
370
   -1
100
AcDbCircle
 10
-18.04246919246272
 20
24.86030381529346
 40
0.1699999999999999
  0
CIRCLE
  5
C8
100
AcDbEntity
  8
0
  6
ByLayer
 62
  256
370
   -1
100
AcDbCircle
 10
-17.76506600494612
 20
28.85067315553699
 40
0.1699999999999999
  0
CIRCLE
  5
C9
100
AcDbEntity
  8
0
  6
ByLayer
 62
  256
370
   -1
100
AcDbCircle
 10
-17.48766281742953
 20
32.84104249578054
 40
0.1699999999999999
  0
CIRCLE
  5
CA
100
AcDbEntity
  8
0
  6
ByLayer
 62
  256
370
   -1
100
AcDbCircle
 10
-17.21025962991294
 20
36.83141183602407
 40
0.1699999999999999
  0
CIRCLE
  5
CB
100
AcDbEntity
  8
0
  6
ByLayer
 62
  256
370
   -1
100
AcDbCircle
 10
-16.93285644239635
 20
40.82178117626761
 40
0.1699999999999999
  0
ARC
  5
CC
100
AcDbEntity
  8
0
  6
ByLayer
 62
  256
370
   -1
100
AcDbCircle
 10
-18.09753108648057
 20
43.27251933491305
 40
0.7177133829043584
100
AcDbArc
 50
68.71368102729626
 51
155.9193189727037
  0
LINE
  5
CD
100
AcDbEntity
  8
0
  6
ByLayer
 62
  256
370
   -1
100
AcDbLine
 10
-17.83698049290117
 20
43.94126883075246
 11
-16.6375365534894
 21
43.43993636999574
  0
LINE
  5
CE
100
AcDbEntity
  8
0
  6
ByLayer
 62
  256
370
   -1
100
AcDbLine
 10
-15.43809261407763
 20
42.93860390923903
 11
-16.6375365534894
 21
43.43993636999574
  0
ARC
  5
CF
100
AcDbEntity
  8
0
  6
ByLayer
 62
  256
370
   -1
100
AcDbCircle
 10
-16.25965778878449
 20
41.82010331163571
 40
1.38780867670225
100
AcDbArc
 50
0.08954656045020259
 51
53.70183653620717
  0
LINE
  5
D0
100
AcDbEntity
  8
0
  6
ByLayer
 62
  256
370
   -1
100
AcDbLine
 10
-17.45510569898764
 20
4.470477819799213
 11
-14.87185080701341
 21
41.82227229238833
  0
ARC
  5
D1
100
AcDbEntity
  8
0
  6
ByLayer
 62
  256
370
   -1
100
AcDbCircle
 10
-12.18625028165771
 20
40.76532654864877
 40
0.8808391451562804
100
AcDbArc
 50
69.25508164964202
 51
167.5357358059293
  0
LINE
  5
D2
100
AcDbEntity
  8
0
  6
ByLayer
 62
  256
370
   -1
100
AcDbLine
 10
-9.833768302554052
 20
40.6643656698586
 11
-11.87424992336975
 21
41.5890579223792
  0
ARC
  5
D3
100
AcDbEntity
  8
0
  6
ByLayer
 62
  256
370
   -1
100
AcDbCircle
 10
-10.74200603508363
 20
39.41544647692132
 40
1.544245747696124
100
AcDbArc
 50
357.915938912361
 51
53.97464109243013
  0
ARC
  5
D4
100
AcDbEntity
  8
0
  6
ByLayer
 62
  256
370
   -1
100
AcDbCircle
 10
-23.87493328039425
 20
44.58695060083635
 40
0.7177133829043584
100
AcDbArc
 50
89.34816302729627
 51
176.5538009727038
  0
LINE
  5
D5
100
AcDbEntity
  8
0
  6
ByLayer
 62
  256
370
   -1
100
AcDbLine
 10
-23.86676824571011
 20
45.30461753765918
 11
-22.56759946067305
 21
45.25813670305629
  0
ARC
  5
D6
100
AcDbEntity
  8
0
  6
ByLayer
 62
  256
370
   -1
100
AcDbCircle
 10
-21.31157333145578
 20
44.4952403387161
 40
0.7177133829043584
100
AcDbArc
 50
359.3481630272962
 51
86.55380097270377
  0
LINE
  5
D7
100
AcDbEntity
  8
0
  6
ByLayer
 62
  256
370
   -1
100
AcDbLine
 10
-21.268430675636
 20
45.21165586845346
 11
-22.56759946067305
 21
45.25813670305629
  0
CIRCLE
  5
D8
100
AcDbEntity
  8
0
  6
ByLayer
 62
  256
370
   -1
100
AcDbCircle
 10
-22.5999162816256
 20
44.00302728289583
 40
0.1699999999999999
  0
ARC
  5
D9
100
AcDbEntity
  8
0
  6
ByLayer
 62
  256
370
   -1
100
AcDbCircle
 10
-30.98372413793104
 20
3.606597701149441
 40
0.9140237785907516
100
AcDbArc
 50
262.6914184351587
 51
1.467138522840282
  0
LINE
  5
DA
100
AcDbEntity
  8
0
  6
ByLayer
 62
  256
370
   -1
100
AcDbLine
 10
-34.15
 20
4.82
 11
-36.3
 21
41.9
  0
ARC
  5
DB
100
AcDbEntity
  8
0
  6
ByLayer
 62
  256
370
   -1
100
AcDbCircle
 10
-33.04551136363639
 20
4.806732954545438
 40
1.104568314931878
100
AcDbArc
 50
179.3117999319447
 51
245.703248913333
  0
LINE
  5
DC
100
AcDbEntity
  8
0
  6
ByLayer
 62
  256
370
   -1
100
AcDbLine
 10
-33.5
 20
3.800000000000002
 11
-31.1
 21
2.699999999999998
  0
ARC
  5
DD
100
AcDbEntity
  8
0
  6
ByLayer
 62
  256
370
   -1
100
AcDbCircle
 10
-29.37069469052681
 20
4.239192032837229
 40
0.5279832575593103
100
AcDbArc
 50
195.2855413083315
 51
333.0617746325566
  0
CIRCLE
  5
DE
100
AcDbEntity
  8
0
  6
ByLayer
 62
  256
370
   -1
100
AcDbCircle
 10
-27.90000000000001
 20
7
 40
0.1699999999999999
  0
CIRCLE
  5
DF
100
AcDbEntity
  8
0
  6
ByLayer
 62
  256
370
   -1
100
AcDbCircle
 10
-23.6
 20
7
 40
0.1699999999999999
  0
ARC
  5
E0
100
AcDbEntity
  8
0
  6
ByLayer
 62
  256
370
   -1
100
AcDbCircle
 10
-22.33583333333334
 20
5.978333333333327
 40
0.6792791317925848
100
AcDbArc
 50
213.8460270714179
 51
354.226459864435
  0
LINE
  5
E1
100
AcDbEntity
  8
0
  6
ByLayer
 62
  256
370
   -1
100
AcDbLine
 10
-29.88
 20
4.099999999999998
 11
-30.54878123129277
 21
44.50126467571889
  0
LINE
  5
E2
100
AcDbEntity
  8
0
  6
ByLayer
 62
  256
370
   -1
100
AcDbLine
 10
-21.66
 20
5.91
 11
-20.59390639463298
 21
44.48707530403195
  0
CIRCLE
  5
E3
100
AcDbEntity
  8
0
  6
ByLayer
 62
  256
370
   -1
100
AcDbCircle
 10
-15
 20
5.9
 40
0.1699999999999999
  0
LINE
  5
E4
100
AcDbEntity
  8
0
  6
ByLayer
 62
  256
370
   -1
100
AcDbLine
 10
-12.9
 20
7.299999999999995
 11
-9.198781730442606
 21
39.35928888756075
  0
ARC
  5
E5
100
AcDbEntity
  8
0
  6
ByLayer
 62
  256
370
   -1
100
AcDbCircle
 10
-17.12381457738237
 20
8.088831174154967
 40
4.29684351651611
100
AcDbArc
 50
276.6583699049372
 51
349.4214197037838
  0
LINE
  5
E6
100
AcDbEntity
  8
0
  6
ByLayer
 62
  256
370
   -1
100
AcDbLine
 10
-30.07
 20
3.629999999999998
 11
-32.40000000000001
 21
43.60000000000001
  0
ARC
  5
E7
100
AcDbEntity
  8
0
  6
ByLayer
 62
  256
370
   -1
100
AcDbCircle
 10
-12.4
 20
6.069999999999999
 40
0.4205948168962614
100
AcDbArc
 50
161.9958383940865
 51
298.3930194213831
  0
LINE
  5
E8
100
AcDbEntity
  8
0
  6
ByLayer
 62
  256
370
   -1
100
AcDbLine
 10
-12.2
 20
5.699999999999998
 11
-11
 21
6.4
  0
LINE
  5
E9
100
AcDbEntity
  8
0
  6
ByLayer
 62
  256
370
   -1
100
AcDbLine
 10
-6.800000000000001
 20
18.7
 11
-10.4
 21
7.099999999999998
  0
ARC
  5
EA
100
AcDbEntity
  8
0
  6
ByLayer
 62
  256
370
   -1
100
AcDbCircle
 10
-12.44999999999999
 20
8.249999999999989
 40
2.350531854708616
100
AcDbArc
 50
308.0887728809753
 51
330.7086378290158
  0
LINE
  5
EB
100
AcDbEntity
  8
0
  6
ByLayer
 62
  256
370
   -1
100
AcDbLine
 10
-12.8
 20
6.199999999999998
 11
-7.400000000000001
 21
38
  0
ARC
  5
EC
100
AcDbEntity
  8
0
  6
ByLayer
 62
  256
370
   -1
100
AcDbCircle
 10
-6.55
 20
37.55
 40
0.9617692030835695
100
AcDbArc
 50
62.10272896905242
 51
152.1027289690522
  0
LINE
  5
ED
100
AcDbEntity
  8
0
  6
ByLayer
 62
  256
370
   -1
100
AcDbLine
 10
-6.1
 20
38.4
 11
-4.299999999999999
 21
37.3
  0
LINE
  5
EE
100
AcDbEntity
  8
0
  6
ByLayer
 62
  256
370
   -1
100
AcDbLine
 10
-6.800000000000001
 20
18.7
 11
-3.719999999999999
 21
35.9
  0
ARC
  5
EF
100
AcDbEntity
  8
0
  6
ByLayer
 62
  256
370
   -1
100
AcDbCircle
 10
-4.909999999999995
 20
36.22714285714287
 40
1.234148471205786
100
AcDbArc
 50
344.628544848669
 51
60.3785121508657
  0
ELLIPSE
  5
F0
100
AcDbEntity
  8
0
  6
ByLayer
 62
  256
370
   -1
100
AcDbEllipse
 10
-44.470090565
 20
7.2737859
 30
0
 11
0
 21
1.1367550184717
 31
0
 40
0.899761526233
 41
1.892546881189996
 42
3.747137317189997
  0
LINE
  5
F1
100
AcDbEntity
  8
0
  6
ByLayer
 62
  256
370
   -1
100
AcDbLine
 10
-45.44041184
 20
6.914312399999996
 11
-51.95
 21
27.9
  0
ARC
  5
F2
100
AcDbEntity
  8
0
  6
ByLayer
 62
  256
370
   -1
100
AcDbCircle
 10
-52.35499999999999
 20
33.64138888888888
 40
0.8928818735552099
100
AcDbArc
 50
105.9258084380694
 51
194.3561592320849
  0
LINE
  5
F3
100
AcDbEntity
  8
0
  6
ByLayer
 62
  256
370
   -1
100
AcDbLine
 10
-51.95
 20
27.9
 11
-53.21999999999999
 21
33.41999999999999
  0
ARC
  5
F4
100
AcDbEntity
  8
0
  6
ByLayer
 62
  256
370
   -1
100
AcDbCircle
 10
-50.35361297539149
 20
34.29225950782998
 40
1.011560268527729
100
AcDbArc
 50
17.71145907684582
 51
116.1859390902089
  0
LINE
  5
F5
100
AcDbEntity
  8
0
  6
ByLayer
 62
  256
370
   -1
100
AcDbLine
 10
-52.6
 20
34.49999999999999
 11
-50.8
 21
35.2
  0
CIRCLE
  5
F6
100
AcDbEntity
  8
0
  6
ByLayer
 62
  256
370
   -1
100
AcDbCircle
 10
-51.3
 20
33.9
 40
0.1699999999999999
  0
ARC
  5
F7
100
AcDbEntity
  8
0
  6
ByLayer
 62
  256
370
   -1
100
AcDbCircle
 10
-45.50000000000001
 20
7.799999999999995
 40
2.22036033111746
100
AcDbArc
 50
324.1623470457218
 51
7.76516601842533
  0
LINE
  5
F8
100
AcDbEntity
  8
0
  6
ByLayer
 62
  256
370
   -1
100
AcDbLine
 10
-43.88789780000386
 20
6.339154799997605
 11
-43.7
 21
6.499999999999999
  0
LINE
  5
F9
100
AcDbEntity
  8
0
  6
ByLayer
 62
  256
370
   -1
100
AcDbLine
 10
-43.3
 20
8.100000000000001
 11
-49.39
 21
34.6
  0
LINE
  5
FA
100
AcDbEntity
  8
0
  6
ByLayer
 62
  256
370
   -1
100
AcDbLine
 10
-38.70000000000001
 20
7.799999999999995
 11
-42
 21
39.5
  0
LINE
  5
FB
100
AcDbEntity
  8
0
  6
ByLayer
 62
  256
370
   -1
100
AcDbLine
 10
-34.4
 20
5.199999999999998
 11
-38.13501072950105
 21
41.05343816114905
  0
LINE
  5
FC
100
AcDbEntity
  8
0
  6
ByLayer
 62
  256
370
   -1
100
AcDbLine
 10
-43.1
 20
8
 11
-47.50000000000001
 21
35.7
  0
ARC
  5
FD
100
AcDbEntity
  8
0
  6
ByLayer
 62
  256
370
   -1
100
AcDbCircle
 10
-19.33434270100961
 20
4.71868540201921
 40
1.895557626040422
100
AcDbArc
 50
286.3731630645265
 51
352.4759857182127
  0
ARC
  5
FE
100
AcDbEntity
  8
0
  6
ByLayer
 62
  256
370
   -1
100
AcDbCircle
 10
-20.15
 20
3.349999999999999
 40
0.7905694150420916
100
AcDbArc
 50
214.6951535312338
 51
288.4349488229221
  0
ARC
  5
FF
100
AcDbEntity
  8
0
  6
ByLayer
 62
  256
370
   -1
100
AcDbCircle
 10
-19.00408560311284
 20
4.578696498054481
 40
2.458318623272201
100
AcDbArc
 50
182.5342043108111
 51
223.0678283135335
  0
LINE
  5
100
100
AcDbEntity
  8
0
  6
ByLayer
 62
  256
370
   -1
100
AcDbLine
 10
-19.9
 20
2.600000000000003
 11
-18.8
 21
2.899999999999997
  0
ARC
  5
101
100
AcDbEntity
  8
0
  6
ByLayer
 62
  256
370
   -1
100
AcDbCircle
 10
-34.95
 20
5.189999999999999
 40
0.5500909015789999
100
AcDbArc
 50
242.9691397401569
 51
1.041626676010362
  0
ARC
  5
102
100
AcDbEntity
  8
0
  6
ByLayer
 62
  256
370
   -1
100
AcDbCircle
 10
-35.57142857142853
 20
8.342857142857172
 40
3.175319363658531
100
AcDbArc
 50
189.8437233906947
 51
230.2934422530302
  0
LINE
  5
103
100
AcDbEntity
  8
0
  6
ByLayer
 62
  256
370
   -1
100
AcDbLine
 10
-37.60000000000001
 20
5.9
 11
-35.20000000000001
 21
4.699999999999998
  0
CIRCLE
  5
104
100
AcDbEntity
  8
0
  6
ByLayer
 62
  256
370
   -1
100
AcDbCircle
 10
-36.50000000000001
 20
6.199999999999998
 40
0.1699999999999999
  0
ARC
  5
105
100
AcDbEntity
  8
0
  6
ByLayer
 62
  256
370
   -1
100
AcDbCircle
 10
-42.40000000000001
 20
8.03333333333333
 40
0.7007932013876168
100
AcDbArc
 50
182.726310993906
 51
295.3461759419466
  0
ARC
  5
106
100
AcDbEntity
  8
0
  6
ByLayer
 62
  256
370
   -1
100
AcDbCircle
 10
-41.30925925925926
 20
4.324074074074067
 40
3.175939423359732
100
AcDbArc
 50
69.55734967814888
 51
104.4170753134845
  0
LINE
  5
107
100
AcDbEntity
  8
0
  6
ByLayer
 62
  256
370
   -1
100
AcDbLine
 10
-39.02999999999999
 20
8
 11
-43.70000000000001
 21
37.4
  0
ARC
  5
108
100
AcDbEntity
  8
0
  6
ByLayer
 62
  256
370
   -1
100
AcDbCircle
 10
-39.79
 20
7.942499999999997
 40
0.7621720606267336
100
AcDbArc
 50
237.4567375842519
 51
4.326635230096223
  0
ARC
  5
109
100
AcDbEntity
  8
0
  6
ByLayer
 62
  256
370
   -1
100
AcDbCircle
 10
-45.77272727272726
 20
35.96363636363636
 40
1.747276511205837
100
AcDbArc
 50
139.431039312914
 51
188.6781688852405
  0
ARC
  5
10A
100
AcDbEntity
  8
0
  6
ByLayer
 62
  256
370
   -1
100
AcDbCircle
 10
-42.37352941176478
 20
29.87941176470601
 40
8.629972113808867
100
AcDbArc
 50
107.7186345154486
 51
123.2080556082947
  0
ARC
  5
10B
100
AcDbEntity
  8
0
  6
ByLayer
 62
  256
370
   -1
100
AcDbCircle
 10
-44.72441860465116
 20
37.05465116279072
 40
1.081063965229263
100
AcDbArc
 50
18.62983167515963
 51
104.7686567928273
  0
LINE
  5
10C
100
AcDbEntity
  8
0
  6
ByLayer
 62
  256
370
   -1
100
AcDbLine
 10
-2.966805302113796
 20
36.22016672872036
 11
-2.674867306784392
 21
36.15108556715626
  0
CIRCLE
  5
10D
100
AcDbEntity
  8
0
  6
ByLayer
 62
  256
370
   -1
100
AcDbCircle
 10
-4.499191958956164
 20
27.33838038894109
 40
0.1699999999999999
  0
CIRCLE
  5
10E
100
AcDbEntity
  8
0
  6
ByLayer
 62
  256
370
   -1
100
AcDbCircle
 10
-3.702164902143638
 20
31.25816965249963
 40
0.1699999999999999
  0
ARC
  5
10F
100
AcDbEntity
  8
0
  6
ByLayer
 62
  256
370
   -1
100
AcDbCircle
 10
-3.125682926182547
 20
35.51108406868436
 40
0.7177133829043584
100
AcDbArc
 50
79.90368102729627
 51
167.1093189727037
  0
CIRCLE
  5
110
100
AcDbEntity
  8
0
  6
ByLayer
 62
  256
370
   -1
100
AcDbCircle
 10
-2.905137845331112
 20
35.17795891605816
 40
0.1699999999999999
  0
ARC
  5
111
100
AcDbEntity
  8
0
  6
ByLayer
 62
  256
370
   -1
100
AcDbCircle
 10
-2.572012692704907
 20
35.3985039969096
 40
0.7177133829043584
100
AcDbArc
 50
349.9036810272962
 51
77.10931897270383
  0
LINE
  5
112
100
AcDbEntity
  8
0
  6
ByLayer
 62
  256
370
   -1
100
AcDbLine
 10
-2.411896886361073
 20
36.09812920268696
 11
-2.70588108112798
 21
36.15790623194779
  0
LINE
  5
113
100
AcDbEntity
  8
0
  6
ByLayer
 62
  256
370
   -1
100
AcDbLine
 10
-4.2
 20
26.6
 11
-2.6
 21
31.6
  0
LINE
  5
114
100
AcDbEntity
  8
0
  6
ByLayer
 62
  256
370
   -1
100
AcDbLine
 10
-2.6
 20
31.6
 11
-1.865413500180528
 21
35.27268634662191
  0
LINE
  5
115
100
AcDbEntity
  8
0
  6
ByLayer
 62
  256
370
   -1
100
AcDbLine
 10
-5.600000000000001
 20
27
 11
-3.82530813195982
 21
35.67119987502818
  0
ARC
  5
116
100
AcDbEntity
  8
0
  6
ByLayer
 62
  256
370
   -1
100
AcDbCircle
 10
-4.90909090909091
 20
26.76818181818182
 40
0.7287626783269809
100
AcDbArc
 50
161.4520418965772
 51
346.657166301577
  0
CIRCLE
  5
117
100
AcDbEntity
  8
0
  6
ByLayer
 62
  256
370
   -1
100
AcDbCircle
 10
-12.60000000000001
 20
8.400000000000002
 40
0.1699999999999999
  0
CIRCLE
  5
118
100
AcDbEntity
  8
0
  6
ByLayer
 62
  256
370
   -1
100
AcDbCircle
 10
-12.03791568093979
 20
12.36031074768971
 40
0.1699999999999999
  0
CIRCLE
  5
119
100
AcDbEntity
  8
0
  6
ByLayer
 62
  256
370
   -1
100
AcDbCircle
 10
-11.47583136187958
 20
16.32062149537942
 40
0.1699999999999999
  0
CIRCLE
  5
11A
100
AcDbEntity
  8
0
  6
ByLayer
 62
  256
370
   -1
100
AcDbCircle
 10
-10.91374704281936
 20
20.28093224306913
 40
0.1699999999999999
  0
CIRCLE
  5
11B
100
AcDbEntity
  8
0
  6
ByLayer
 62
  256
370
   -1
100
AcDbCircle
 10
-10.35166272375915
 20
24.24124299075882
 40
0.1699999999999999
  0
CIRCLE
  5
11C
100
AcDbEntity
  8
0
  6
ByLayer
 62
  256
370
   -1
100
AcDbCircle
 10
-9.789578404698934
 20
28.20155373844852
 40
0.1699999999999999
  0
CIRCLE
  5
11D
100
AcDbEntity
  8
0
  6
ByLayer
 62
  256
370
   -1
100
AcDbCircle
 10
-9.227494085638719
 20
32.16186448613826
 40
0.1699999999999999
  0
CIRCLE
  5
11E
100
AcDbEntity
  8
0
  6
ByLayer
 62
  256
370
   -1
100
AcDbCircle
 10
-8.665409766578506
 20
36.12217523382797
 40
0.1699999999999999
  0
CIRCLE
  5
11F
100
AcDbEntity
  8
0
  6
ByLayer
 62
  256
370
   -1
100
AcDbCircle
 10
-8.249999999999998
 20
39
 40
0.1699999999999999
  0
ARC
  5
120
100
AcDbEntity
  8
0
  6
ByLayer
 62
  256
370
   -1
100
AcDbCircle
 10
-8.56343356618194
 20
39.16849483362068
 40
0.7177133829043584
100
AcDbArc
 50
65.28518102729625
 51
152.4908189727039
  0
LINE
  5
121
100
AcDbEntity
  8
0
  6
ByLayer
 62
  256
370
   -1
100
AcDbLine
 10
-8.263356139342321
 20
39.82046572093197
 11
-7.993975514716046
 21
39.68842754813352
  0
LINE
  5
122
100
AcDbEntity
  8
0
  6
ByLayer
 62
  256
370
   -1
100
AcDbLine
 10
-7.8
 20
39.6
 11
-7.993975514716046
 21
39.68842754813352
  0
ARC
  5
123
100
AcDbEntity
  8
0
  6
ByLayer
 62
  256
370
   -1
100
AcDbCircle
 10
-8.134680245204951
 20
38.81584786105054
 40
0.8525874990577083
100
AcDbArc
 50
352.1906081420236
 51
66.88695637709205
  0
CIRCLE
  5
124
100
AcDbEntity
  8
0
  6
ByLayer
 62
  256
370
   -1
100
AcDbCircle
 10
-12.9
 20
6.199999999999998
 40
0.1699999999999999
  0
LINE
  5
125
100
AcDbEntity
  8
0
  6
ByLayer
 62
  256
370
   -1
100
AcDbLine
 10
-14
 20
5.699999999999998
 11
-9.200000000000001
 21
39.5
  0
ARC
  5
126
100
AcDbEntity
  8
0
  6
ByLayer
 62
  256
370
   -1
100
AcDbCircle
 10
-12.89999999999999
 20
6.424999999999996
 40
1.007782218537309
100
AcDbArc
 50
293.3852210572136
 51
352.8749836510986
  0
ARC
  5
127
100
AcDbEntity
  8
0
  6
ByLayer
 62
  256
370
   -1
100
AcDbCircle
 10
-13.48333333333333
 20
5.616666666666672
 40
0.5233439489369184
100
AcDbArc
 50
170.8376529542781
 51
279.1623470457218
  0
LINE
  5
128
100
AcDbEntity
  8
0
  6
ByLayer
 62
  256
370
   -1
100
AcDbLine
 10
-13.4
 20
5.099999999999998
 11
-12.5
 21
5.499999999999999
  0
LINE
  5
129
100
AcDbEntity
  8
0
  6
ByLayer
 62
  256
370
   -1
100
AcDbLine
 10
-11.9
 20
6.300000000000001
 11
-7.290000000000001
 21
38.7
  0
CIRCLE
  5
12A
100
AcDbEntity
  8
0
  6
ByLayer
 62
  256
370
   -1
100
AcDbCircle
 10
-17.31551982983185
 20
4.76673560330229
 40
0.1699999999999999
  0
CIRCLE
  5
12B
100
AcDbEntity
  8
0
  6
ByLayer
 62
  256
370
   -1
100
AcDbCircle
 10
-16.95
 20
8.750000000000014
 40
0.1699999999999999
  0
CIRCLE
  5
12C
100
AcDbEntity
  8
0
  6
ByLayer
 62
  256
370
   -1
100
AcDbCircle
 10
-16.58448017016816
 20
12.73326439669774
 40
0.1699999999999999
  0
CIRCLE
  5
12D
100
AcDbEntity
  8
0
  6
ByLayer
 62
  256
370
   -1
100
AcDbCircle
 10
-16.21896034033632
 20
16.71652879339547
 40
0.1699999999999999
  0
CIRCLE
  5
12E
100
AcDbEntity
  8
0
  6
ByLayer
 62
  256
370
   -1
100
AcDbCircle
 10
-15.85344051050448
 20
20.69979319009319
 40
0.1699999999999999
  0
CIRCLE
  5
12F
100
AcDbEntity
  8
0
  6
ByLayer
 62
  256
370
   -1
100
AcDbCircle
 10
-15.48792068067264
 20
24.68305758679091
 40
0.1699999999999999
  0
CIRCLE
  5
130
100
AcDbEntity
  8
0
  6
ByLayer
 62
  256
370
   -1
100
AcDbCircle
 10
-15.12240085084079
 20
28.66632198348862
 40
0.1699999999999999
  0
CIRCLE
  5
131
100
AcDbEntity
  8
0
  6
ByLayer
 62
  256
370
   -1
100
AcDbCircle
 10
-14.75688102100895
 20
32.64958638018636
 40
0.1699999999999999
  0
CIRCLE
  5
132
100
AcDbEntity
  8
0
  6
ByLayer
 62
  256
370
   -1
100
AcDbCircle
 10
-14.39136119117711
 20
36.63285077688409
 40
0.1699999999999999
  0
CIRCLE
  5
133
100
AcDbEntity
  8
0
  6
ByLayer
 62
  256
370
   -1
100
AcDbCircle
 10
-14.02584136134527
 20
40.61611517358181
 40
0.1699999999999999
  0
ARC
  5
134
100
AcDbEntity
  8
0
  6
ByLayer
 62
  256
370
   -1
100
AcDbCircle
 10
-17.44985837124871
 20
4.516477828331599
 40
1.111575336930546
100
AcDbArc
 50
293.8725449858027
 51
352.7714407898172
  0
ARC
  5
135
100
AcDbEntity
  8
0
  6
ByLayer
 62
  256
370
   -1
100
AcDbCircle
 10
-17.85909090909091
 20
3.722727272727278
 40
0.5464006945532432
100
AcDbArc
 50
171.8698976458442
 51
286.9275130641471
  0
LINE
  5
136
100
AcDbEntity
  8
0
  6
ByLayer
 62
  256
370
   -1
100
AcDbLine
 10
-17.7
 20
3.199999999999998
 11
-17
 21
3.5
  0
LINE
  5
137
100
AcDbEntity
  8
0
  6
ByLayer
 62
  256
370
   -1
100
AcDbLine
 10
-21.46
 20
4.470000000000002
 11
-18.75278316991497
 21
43.56536264993819
  0
LINE
  5
138
100
AcDbEntity
  8
0
  6
ByLayer
 62
  256
370
   -1
100
AcDbLine
 10
-18.40000000000001
 20
3.800000000000002
 11
-14.92
 21
41.81
  0
LINE
  5
139
100
AcDbEntity
  8
0
  6
ByLayer
 62
  256
370
   -1
100
AcDbLine
 10
-16.3471177178948
 20
4.376610816091986
 11
-13
 21
40.87999999999999
  0
ARC
  5
13A
100
AcDbEntity
  8
0
  6
ByLayer
 62
  256
370
   -1
100
AcDbCircle
 10
-14.18394736842106
 20
41.65184210526317
 40
0.7528528382903678
100
AcDbArc
 50
83.597881240978
 51
167.8730707887559
  0
ARC
  5
13B
100
AcDbEntity
  8
0
  6
ByLayer
 62
  256
370
   -1
100
AcDbCircle
 10
-14.35275000000001
 20
41.0590625
 40
1.364549721119119
100
AcDbArc
 50
352.4596366447942
 51
79.32569473069699
  0
CIRCLE
  5
13C
100
AcDbEntity
  8
0
  6
ByLayer
 62
  256
370
   -1
100
AcDbCircle
 10
-21.52995997362271
 20
5.004513145007078
 40
0.1699999999999999
  0
ARC
  5
13D
100
AcDbEntity
  8
0
  6
ByLayer
 62
  256
370
   -1
100
AcDbCircle
 10
-21.26119463762594
 20
4.708915962736082
 40
0.7177133829043584
100
AcDbArc
 50
268.6751810272963
 51
355.8808189727038
  0
CIRCLE
  5
13E
100
AcDbEntity
  8
0
  6
ByLayer
 62
  256
370
   -1
100
AcDbCircle
 10
-21.34
 20
9
 40
0.1699999999999999
  0
CIRCLE
  5
13F
100
AcDbEntity
  8
0
  6
ByLayer
 62
  256
370
   -1
100
AcDbCircle
 10
-21.1500400263773
 20
12.99548685499293
 40
0.1699999999999999
  0
CIRCLE
  5
140
100
AcDbEntity
  8
0
  6
ByLayer
 62
  256
370
   -1
100
AcDbCircle
 10
-20.96008005275459
 20
16.99097370998585
 40
0.1699999999999999
  0
CIRCLE
  5
141
100
AcDbEntity
  8
0
  6
ByLayer
 62
  256
370
   -1
100
AcDbCircle
 10
-20.77012007913189
 20
20.98646056497879
 40
0.1699999999999999
  0
CIRCLE
  5
142
100
AcDbEntity
  8
0
  6
ByLayer
 62
  256
370
   -1
100
AcDbCircle
 10
-20.58016010550919
 20
24.98194741997169
 40
0.1699999999999999
  0
CIRCLE
  5
143
100
AcDbEntity
  8
0
  6
ByLayer
 62
  256
370
   -1
100
AcDbCircle
 10
-20.39020013188649
 20
28.97743427496461
 40
0.1699999999999999
  0
CIRCLE
  5
144
100
AcDbEntity
  8
0
  6
ByLayer
 62
  256
370
   -1
100
AcDbCircle
 10
-20.20024015826378
 20
32.97292112995754
 40
0.1699999999999999
  0
CIRCLE
  5
145
100
AcDbEntity
  8
0
  6
ByLayer
 62
  256
370
   -1
100
AcDbCircle
 10
-20.01028018464108
 20
36.96840798495045
 40
0.1699999999999999
  0
CIRCLE
  5
146
100
AcDbEntity
  8
0
  6
ByLayer
 62
  256
370
   -1
100
AcDbCircle
 10
-19.82032021101838
 20
40.96389483994339
 40
0.1699999999999999
  0
CIRCLE
  5
147
100
AcDbEntity
  8
0
  6
ByLayer
 62
  256
370
   -1
100
AcDbCircle
 10
-19.65
 20
44
 40
0.1699999999999999
  0
ARC
  5
148
100
AcDbEntity
  8
0
  6
ByLayer
 62
  256
370
   -1
100
AcDbCircle
 10
-19.95414062027023
 20
44.10844567474084
 40
0.7177133829043584
100
AcDbArc
 50
88.67518102729626
 51
175.8808189727039
  0
LINE
  5
149
100
AcDbEntity
  8
0
  6
ByLayer
 62
  256
370
   -1
100
AcDbLine
 10
-19.93754680499224
 20
44.82596720423989
 11
-19.63788529086778
 21
44.81172020621809
  0
ARC
  5
14A
100
AcDbEntity
  8
0
  6
ByLayer
 62
  256
370
   -1
100
AcDbCircle
 10
-19.38977810200248
 20
44.08161382846664
 40
0.7177133829043584
100
AcDbArc
 50
358.6751810272963
 51
85.88081897270382
  0
LINE
  5
14B
100
AcDbEntity
  8
0
  6
ByLayer
 62
  256
370
   -1
100
AcDbLine
 10
-19.33822377674331
 20
44.79747320819651
 11
-19.63788529086778
 21
44.81172020621809
  0
LINE
  5
14C
100
AcDbEntity
  8
0
  6
ByLayer
 62
  256
370
   -1
100
AcDbLine
 10
-20.54533525789618
 20
4.657361637476921
 11
-18.67225657250351
 21
44.06502001318865
  0
ARC
  5
14D
100
AcDbEntity
  8
0
  6
ByLayer
 62
  256
370
   -1
100
AcDbCircle
 10
-21.1611278602452
 20
5.371603591714086
 40
1.385130685178548
100
AcDbArc
 50
188.7873682328411
 51
265.1686238265479
  0
ARC
  5
14E
100
AcDbEntity
  8
0
  6
ByLayer
 62
  256
370
   -1
100
AcDbCircle
 10
-26.05249999999999
 20
8.717499999999987
 40
0.7177133829043584
100
AcDbArc
 50
181.3971810272962
 51
268.6028189727038
  0
CIRCLE
  5
14F
100
AcDbEntity
  8
0
  6
ByLayer
 62
  256
370
   -1
100
AcDbCircle
 10
-25.77
 20
9
 40
0.1699999999999999
  0
LINE
  5
150
100
AcDbEntity
  8
0
  6
ByLayer
 62
  256
370
   -1
100
AcDbLine
 10
-26.06999999999999
 20
7.999999999999975
 11
-25.77
 21
8
  0
ARC
  5
151
100
AcDbEntity
  8
0
  6
ByLayer
 62
  256
370
   -1
100
AcDbCircle
 10
-25.4875
 20
8.717499999999987
 40
0.7177133829043584
100
AcDbArc
 50
271.3971810272962
 51
358.6028189727038
  0
LINE
  5
152
100
AcDbEntity
  8
0
  6
ByLayer
 62
  256
370
   -1
100
AcDbLine
 10
-25.47
 20
7.999999999999975
 11
-25.77
 21
8
  0
CIRCLE
  5
153
100
AcDbEntity
  8
0
  6
ByLayer
 62
  256
370
   -1
100
AcDbCircle
 10
-25.77
 20
13
 40
0.1699999999999999
  0
CIRCLE
  5
154
100
AcDbEntity
  8
0
  6
ByLayer
 62
  256
370
   -1
100
AcDbCircle
 10
-25.77
 20
17
 40
0.1699999999999999
  0
CIRCLE
  5
155
100
AcDbEntity
  8
0
  6
ByLayer
 62
  256
370
   -1
100
AcDbCircle
 10
-25.77
 20
21
 40
0.1699999999999999
  0
CIRCLE
  5
156
100
AcDbEntity
  8
0
  6
ByLayer
 62
  256
370
   -1
100
AcDbCircle
 10
-25.77
 20
25
 40
0.1699999999999999
  0
CIRCLE
  5
157
100
AcDbEntity
  8
0
  6
ByLayer
 62
  256
370
   -1
100
AcDbCircle
 10
-25.77
 20
28.99999999999999
 40
0.1699999999999999
  0
CIRCLE
  5
158
100
AcDbEntity
  8
0
  6
ByLayer
 62
  256
370
   -1
100
AcDbCircle
 10
-25.77
 20
32.99999999999999
 40
0.1699999999999999
  0
CIRCLE
  5
159
100
AcDbEntity
  8
0
  6
ByLayer
 62
  256
370
   -1
100
AcDbCircle
 10
-25.77
 20
37.00000000000001
 40
0.1699999999999999
  0
CIRCLE
  5
15A
100
AcDbEntity
  8
0
  6
ByLayer
 62
  256
370
   -1
100
AcDbCircle
 10
-25.77
 20
41.00000000000001
 40
0.1699999999999999
  0
LINE
  5
15B
100
AcDbEntity
  8
0
  6
ByLayer
 62
  256
370
   -1
100
AcDbLine
 10
-25.97
 20
9.1
 11
-26.55
 21
44.6
  0
ARC
  5
15C
100
AcDbEntity
  8
0
  6
ByLayer
 62
  256
370
   -1
100
AcDbCircle
 10
-20.87857142857142
 20
1.021428571428554
 40
8.5565883435884
100
AcDbArc
 50
135.6764240563546
 51
159.6286889447613
  0
ARC
  5
15D
100
AcDbEntity
  8
0
  6
ByLayer
 62
  256
370
   -1
100
AcDbCircle
 10
-29.40673913043482
 20
9.483043478260882
 40
3.458019397993609
100
AcDbArc
 50
314.1059802408579
 51
353.6403175944407
  0
LINE
  5
15E
100
AcDbEntity
  8
0
  6
ByLayer
 62
  256
370
   -1
100
AcDbLine
 10
-25.58
 20
9.109999999999999
 11
-24.59134881013159
 21
44.63009325665612
  0
ARC
  5
15F
100
AcDbEntity
  8
0
  6
ByLayer
 62
  256
370
   -1
100
AcDbCircle
 10
-31.40000000000001
 20
-1.199999999999979
 40
10.88531120363583
100
AcDbArc
 50
38.65980825408997
 51
51.34019174590982
  0
ARC
  5
160
100
AcDbEntity
  8
0
  6
ByLayer
 62
  256
370
   -1
100
AcDbCircle
 10
-23.50625
 20
9.0625
 40
2.074293931076312
100
AcDbArc
 50
178.68784871957
 51
238.1776113134543
  0
CIRCLE
  5
161
100
AcDbEntity
  8
0
  6
ByLayer
 62
  256
370
   -1
100
AcDbCircle
 10
-25.8
 20
44
 40
0.1699999999999999
  0
ARC
  5
162
100
AcDbEntity
  8
0
  6
ByLayer
 62
  256
370
   -1
100
AcDbCircle
 10
-26.05250000000002
 20
44.4825
 40
0.7177133829043584
100
AcDbArc
 50
91.39718102729621
 51
178.6028189727038
  0
LINE
  5
163
100
AcDbEntity
  8
0
  6
ByLayer
 62
  256
370
   -1
100
AcDbLine
 10
-26.07000000000001
 20
45.2000000000001
 11
-25.77000000000002
 21
45.2
  0
ARC
  5
164
100
AcDbEntity
  8
0
  6
ByLayer
 62
  256
370
   -1
100
AcDbCircle
 10
-25.48750000000002
 20
44.4825
 40
0.7177133829043584
100
AcDbArc
 50
1.39718102729622
 51
88.60281897270377
  0
LINE
  5
165
100
AcDbEntity
  8
0
  6
ByLayer
 62
  256
370
   -1
100
AcDbLine
 10
-25.47000000000002
 20
45.2000000000001
 11
-25.77000000000002
 21
45.2
  0
LINE
  5
166
100
AcDbEntity
  8
0
  6
ByLayer
 62
  256
370
   -1
100
AcDbLine
 10
-24.77
 20
8.699999999999989
 11
-24.77000000000001
 21
44.5
  0
LINE
  5
167
100
AcDbEntity
  8
0
  6
ByLayer
 62
  256
370
   -1
100
AcDbLine
 10
-26.77000000000001
 20
8.699999999999989
 11
-26.77000000000003
 21
44.5
  0
CIRCLE
  5
168
100
AcDbEntity
  8
0
  6
ByLayer
 62
  256
370
   -1
100
AcDbCircle
 10
-29.99989714178576
 20
4.95281735068863
 40
0.1699999999999999
  0
CIRCLE
  5
169
100
AcDbEntity
  8
0
  6
ByLayer
 62
  256
370
   -1
100
AcDbCircle
 10
-30.15000000000001
 20
8.950000000000003
 40
0.1699999999999999
  0
CIRCLE
  5
16A
100
AcDbEntity
  8
0
  6
ByLayer
 62
  256
370
   -1
100
AcDbCircle
 10
-30.30010285821425
 20
12.94718264931138
 40
0.1699999999999999
  0
CIRCLE
  5
16B
100
AcDbEntity
  8
0
  6
ByLayer
 62
  256
370
   -1
100
AcDbCircle
 10
-30.4502057164285
 20
16.94436529862276
 40
0.1699999999999999
  0
CIRCLE
  5
16C
100
AcDbEntity
  8
0
  6
ByLayer
 62
  256
370
   -1
100
AcDbCircle
 10
-30.60030857464274
 20
20.94154794793412
 40
0.1699999999999999
  0
CIRCLE
  5
16D
100
AcDbEntity
  8
0
  6
ByLayer
 62
  256
370
   -1
100
AcDbCircle
 10
-30.75041143285699
 20
24.9387305972455
 40
0.1699999999999999
  0
CIRCLE
  5
16E
100
AcDbEntity
  8
0
  6
ByLayer
 62
  256
370
   -1
100
AcDbCircle
 10
-30.90051429107123
 20
28.93591324655686
 40
0.1699999999999999
  0
CIRCLE
  5
16F
100
AcDbEntity
  8
0
  6
ByLayer
 62
  256
370
   -1
100
AcDbCircle
 10
-31.05061714928548
 20
32.93309589586825
 40
0.1699999999999999
  0
CIRCLE
  5
170
100
AcDbEntity
  8
0
  6
ByLayer
 62
  256
370
   -1
100
AcDbCircle
 10
-31.20072000749973
 20
36.93027854517962
 40
0.1699999999999999
  0
CIRCLE
  5
171
100
AcDbEntity
  8
0
  6
ByLayer
 62
  256
370
   -1
100
AcDbCircle
 10
-31.35082286571397
 20
40.927461194491
 40
0.1699999999999999
  0
CIRCLE
  5
172
100
AcDbEntity
  8
0
  6
ByLayer
 62
  256
370
   -1
100
AcDbCircle
 10
-31.4
 20
43.1
 40
0.1699999999999999
  0
ARC
  5
173
100
AcDbEntity
  8
0
  6
ByLayer
 62
  256
370
   -1
100
AcDbCircle
 10
-31.74093998693079
 20
43.78438559699433
 40
0.7177133829043584
100
AcDbArc
 50
93.5477510272962
 51
180.7533889727038
  0
LINE
  5
174
100
AcDbEntity
  8
0
  6
ByLayer
 62
  256
370
   -1
100
AcDbLine
 10
-31.7853523612137
 20
44.50072353470996
 11
-31.48556366251535
 21
44.51198124907592
  0
ARC
  5
175
100
AcDbEntity
  8
0
  6
ByLayer
 62
  256
370
   -1
100
AcDbCircle
 10
-31.17633793771556
 20
43.80558762571708
 40
0.7177133829043584
100
AcDbArc
 50
3.547751027296203
 51
90.75338897270376
  0
LINE
  5
176
100
AcDbEntity
  8
0
  6
ByLayer
 62
  256
370
   -1
100
AcDbLine
 10
-31.185774963817
 20
44.5232389634421
 11
-31.48556366251535
 21
44.51198124907592
  0
ARC
  5
177
100
AcDbEntity
  8
0
  6
ByLayer
 62
  256
370
   -1
100
AcDbCircle
 10
-30.25225338694016
 20
4.169360945175796
 40
0.7177133829043584
100
AcDbArc
 50
183.5477510272962
 51
270.7533889727038
  0
LINE
  5
178
100
AcDbEntity
  8
0
  6
ByLayer
 62
  256
370
   -1
100
AcDbLine
 10
-30.24281636083872
 20
3.451709607450861
 11
-29.94302766214037
 21
3.462967321816957
  0
ARC
  5
179
100
AcDbEntity
  8
0
  6
ByLayer
 62
  256
370
   -1
100
AcDbCircle
 10
-29.68765133772493
 20
4.190562973898555
 40
0.7177133829043584
100
AcDbArc
 50
273.5477510272962
 51
0.7533889727037624
  0
LINE
  5
17A
100
AcDbEntity
  8
0
  6
ByLayer
 62
  256
370
   -1
100
AcDbLine
 10
-29.64323896344202
 20
3.474225036182995
 11
-29.94302766214037
 21
3.462967321816957
  0
CIRCLE
  5
17B
100
AcDbEntity
  8
0
  6
ByLayer
 62
  256
370
   -1
100
AcDbCircle
 10
-34.24702275781684
 20
4.813060609812122
 40
0.1699999999999999
  0
CIRCLE
  5
17C
100
AcDbEntity
  8
0
  6
ByLayer
 62
  256
370
   -1
100
AcDbCircle
 10
-34.56999999999999
 20
8.800000000000011
 40
0.1699999999999999
  0
CIRCLE
  5
17D
100
AcDbEntity
  8
0
  6
ByLayer
 62
  256
370
   -1
100
AcDbCircle
 10
-34.89297724218315
 20
12.7869393901879
 40
0.1699999999999999
  0
CIRCLE
  5
17E
100
AcDbEntity
  8
0
  6
ByLayer
 62
  256
370
   -1
100
AcDbCircle
 10
-35.21595448436631
 20
16.77387878037579
 40
0.1699999999999999
  0
CIRCLE
  5
17F
100
AcDbEntity
  8
0
  6
ByLayer
 62
  256
370
   -1
100
AcDbCircle
 10
-35.53893172654946
 20
20.76081817056367
 40
0.1699999999999999
  0
CIRCLE
  5
180
100
AcDbEntity
  8
0
  6
ByLayer
 62
  256
370
   -1
100
AcDbCircle
 10
-35.86190896873262
 20
24.74775756075154
 40
0.1699999999999999
  0
CIRCLE
  5
181
100
AcDbEntity
  8
0
  6
ByLayer
 62
  256
370
   -1
100
AcDbCircle
 10
-36.18488621091578
 20
28.73469695093943
 40
0.1699999999999999
  0
CIRCLE
  5
182
100
AcDbEntity
  8
0
  6
ByLayer
 62
  256
370
   -1
100
AcDbCircle
 10
-36.50786345309893
 20
32.72163634112732
 40
0.1699999999999999
  0
CIRCLE
  5
183
100
AcDbEntity
  8
0
  6
ByLayer
 62
  256
370
   -1
100
AcDbCircle
 10
-36.83084069528208
 20
36.70857573131521
 40
0.1699999999999999
  0
CIRCLE
  5
184
100
AcDbEntity
  8
0
  6
ByLayer
 62
  256
370
   -1
100
AcDbCircle
 10
-37.15381793746524
 20
40.69551512150309
 40
0.1699999999999999
  0
ARC
  5
185
100
AcDbEntity
  8
0
  6
ByLayer
 62
  256
370
   -1
100
AcDbCircle
 10
-33.7227941532523
 20
4.596208309066196
 40
0.4967315768187311
100
AcDbArc
 50
272.6301278715234
 51
359.8357658169315
  0
ARC
  5
186
100
AcDbEntity
  8
0
  6
ByLayer
 62
  256
370
   -1
100
AcDbCircle
 10
-33.94050632911392
 20
5.438607594936718
 40
1.360041759493478
100
AcDbArc
 50
181.6266775835256
 51
280.1856046440152
  0
LINE
  5
187
100
AcDbEntity
  8
0
  6
ByLayer
 62
  256
370
   -1
100
AcDbLine
 10
-33.22606461710613
 20
4.594784466093812
 11
-36.23999999999999
 21
41.8
  0
ARC
  5
188
100
AcDbEntity
  8
0
  6
ByLayer
 62
  256
370
   -1
100
AcDbCircle
 10
-37.01000000000001
 20
41.11
 40
1.19507321951419
100
AcDbArc
 50
114.2058850444964
 51
185.2812406284447
  0
ARC
  5
189
100
AcDbEntity
  8
0
  6
ByLayer
 62
  256
370
   -1
100
AcDbCircle
 10
-36.98971138606903
 20
41.55403551032337
 40
0.7890283217879087
100
AcDbArc
 50
18.16357209553477
 51
105.3692100409421
  0
LINE
  5
18A
100
AcDbEntity
  8
0
  6
ByLayer
 62
  256
370
   -1
100
AcDbLine
 10
-37.1988338646654
 20
42.31484657854543
 11
-37.50000000000001
 21
42.2
  0
LINE
  5
18B
100
AcDbEntity
  8
0
  6
ByLayer
 62
  256
370
   -1
100
AcDbLine
 10
-35.3
 20
5.400000000000003
 11
-38.20000000000001
 21
40.99999999999999
  0
CIRCLE
  5
18C
100
AcDbEntity
  8
0
  6
ByLayer
 62
  256
370
   -1
100
AcDbCircle
 10
-38.93000000000001
 20
8.549999999999997
 40
0.1699999999999999
  0
CIRCLE
  5
18D
100
AcDbEntity
  8
0
  6
ByLayer
 62
  256
370
   -1
100
AcDbCircle
 10
-39.45219198079896
 20
12.51576796285275
 40
0.1699999999999999
  0
CIRCLE
  5
18E
100
AcDbEntity
  8
0
  6
ByLayer
 62
  256
370
   -1
100
AcDbCircle
 10
-39.97438396159792
 20
16.4815359257055
 40
0.1699999999999999
  0
CIRCLE
  5
18F
100
AcDbEntity
  8
0
  6
ByLayer
 62
  256
370
   -1
100
AcDbCircle
 10
-40.49657594239687
 20
20.44730388855825
 40
0.1699999999999999
  0
CIRCLE
  5
190
100
AcDbEntity
  8
0
  6
ByLayer
 62
  256
370
   -1
100
AcDbCircle
 10
-41.01876792319582
 20
24.413071851411
 40
0.1699999999999999
  0
CIRCLE
  5
191
100
AcDbEntity
  8
0
  6
ByLayer
 62
  256
370
   -1
100
AcDbCircle
 10
-41.54095990399478
 20
28.37883981426374
 40
0.1699999999999999
  0
CIRCLE
  5
192
100
AcDbEntity
  8
0
  6
ByLayer
 62
  256
370
   -1
100
AcDbCircle
 10
-42.06315188479373
 20
32.34460777711649
 40
0.1699999999999999
  0
CIRCLE
  5
193
100
AcDbEntity
  8
0
  6
ByLayer
 62
  256
370
   -1
100
AcDbCircle
 10
-42.58534386559268
 20
36.31037573996925
 40
0.1699999999999999
  0
CIRCLE
  5
194
100
AcDbEntity
  8
0
  6
ByLayer
 62
  256
370
   -1
100
AcDbCircle
 10
-42.90000000000001
 20
38.7
 40
0.1699999999999999
  0
LINE
  5
195
100
AcDbEntity
  8
0
  6
ByLayer
 62
  256
370
   -1
100
AcDbLine
 10
-43.4358048720365
 20
39.26472113229231
 11
-43.16747673539628
 21
39.3988852522618
  0
ARC
  5
196
100
AcDbEntity
  8
0
  6
ByLayer
 62
  256
370
   -1
100
AcDbCircle
 10
-42.59392521979954
 20
38.88347167176873
 40
0.7177133829043584
100
AcDbArc
 50
27.96224102729625
 51
115.1678789727038
  0
LINE
  5
197
100
AcDbEntity
  8
0
  6
ByLayer
 62
  256
370
   -1
100
AcDbLine
 10
-42.89914859875616
 20
39.53304937223147
 11
-43.16747673539628
 21
39.3988852522618
  0
ARC
  5
198
100
AcDbEntity
  8
0
  6
ByLayer
 62
  256
370
   -1
100
AcDbCircle
 10
-43.08183389737041
 20
38.54706515070644
 40
0.8002034483880116
100
AcDbArc
 50
116.2539949598924
 51
184.0894224589873
  0
LINE
  5
199
100
AcDbEntity
  8
0
  6
ByLayer
 62
  256
370
   -1
100
AcDbLine
 10
-39.8
 20
7.5
 11
-43.88
 21
38.49000000000002
  0
ARC
  5
19A
100
AcDbEntity
  8
0
  6
ByLayer
 62
  256
370
   -1
100
AcDbCircle
 10
-39.09092496157927
 20
7.611018421393299
 40
0.7177133829043584
100
AcDbArc
 50
188.8984410272962
 51
276.1040789727037
  0
LINE
  5
19B
100
AcDbEntity
  8
0
  6
ByLayer
 62
  256
370
   -1
100
AcDbLine
 10
-39.01460700986094
 20
6.897374203140568
 11
-38.71717441264698
 21
6.936538601700525
  0
ARC
  5
19C
100
AcDbEntity
  8
0
  6
ByLayer
 62
  256
370
   -1
100
AcDbCircle
 10
-38.53076023682632
 20
7.684778038681145
 40
0.7177133829043584
100
AcDbArc
 50
278.8984410272962
 51
6.104078972703766
  0
LINE
  5
19D
100
AcDbEntity
  8
0
  6
ByLayer
 62
  256
370
   -1
100
AcDbLine
 10
-38.41974181543303
 20
6.975703000260411
 11
-38.71717441264698
 21
6.936538601700525
  0
LINE
  5
19E
100
AcDbEntity
  8
0
  6
ByLayer
 62
  256
370
   -1
100
AcDbLine
 10
-37.81711601857361
 20
7.761095990399481
 11
-41.96
 21
39.21999999999999
  0
ARC
  5
19F
100
AcDbEntity
  8
0
  6
ByLayer
 62
  256
370
   -1
100
AcDbCircle
 10
-43.43347492436964
 20
7.808833186780467
 40
0.7177133829043584
100
AcDbArc
 50
192.3852810272962
 51
279.5909189727038
  0
CIRCLE
  5
1A0
100
AcDbEntity
  8
0
  6
ByLayer
 62
  256
370
   -1
100
AcDbCircle
 10
-43.21
 20
8.140000000000011
 40
0.1699999999999999
  0
LINE
  5
1A1
100
AcDbEntity
  8
0
  6
ByLayer
 62
  256
370
   -1
100
AcDbLine
 10
-43.3138949246493
 20
7.101151673904155
 11
-43.01939488699134
 21
7.158333207806778
  0
ARC
  5
1A2
100
AcDbEntity
  8
0
  6
ByLayer
 62
  256
370
   -1
100
AcDbCircle
 10
-42.87883318678046
 20
7.916525075630359
 40
0.7177133829043584
100
AcDbArc
 50
282.3852810272962
 51
9.590918972703777
  0
LINE
  5
1A3
100
AcDbEntity
  8
0
  6
ByLayer
 62
  256
370
   -1
100
AcDbLine
 10
-42.72489484933337
 20
7.215514741709341
 11
-43.01939488699134
 21
7.158333207806778
  0
CIRCLE
  5
1A4
100
AcDbEntity
  8
0
  6
ByLayer
 62
  256
370
   -1
100
AcDbCircle
 10
-43.97242045203463
 20
12.06666716877296
 40
0.1699999999999999
  0
CIRCLE
  5
1A5
100
AcDbEntity
  8
0
  6
ByLayer
 62
  256
370
   -1
100
AcDbCircle
 10
-44.73484090406927
 20
15.9933343375459
 40
0.1699999999999999
  0
CIRCLE
  5
1A6
100
AcDbEntity
  8
0
  6
ByLayer
 62
  256
370
   -1
100
AcDbCircle
 10
-45.4972613561039
 20
19.92000150631884
 40
0.1699999999999999
  0
CIRCLE
  5
1A7
100
AcDbEntity
  8
0
  6
ByLayer
 62
  256
370
   -1
100
AcDbCircle
 10
-46.25968180813852
 20
23.84666867509177
 40
0.1699999999999999
  0
CIRCLE
  5
1A8
100
AcDbEntity
  8
0
  6
ByLayer
 62
  256
370
   -1
100
AcDbCircle
 10
-47.02210226017316
 20
27.7733358438647
 40
0.1699999999999999
  0
CIRCLE
  5
1A9
100
AcDbEntity
  8
0
  6
ByLayer
 62
  256
370
   -1
100
AcDbCircle
 10
-47.78452271220779
 20
31.70000301263764
 40
0.1699999999999999
  0
CIRCLE
  5
1AA
100
AcDbEntity
  8
0
  6
ByLayer
 62
  256
370
   -1
100
AcDbCircle
 10
-48.54694316424242
 20
35.62667018141059
 40
0.1699999999999999
  0
LINE
  5
1AB
100
AcDbEntity
  8
0
  6
ByLayer
 62
  256
370
   -1
100
AcDbLine
 10
-49.06699314392804
 20
36.16712604724667
 11
-48.7884501182153
 21
36.27854320403498
  0
ARC
  5
1AC
100
AcDbEntity
  8
0
  6
ByLayer
 62
  256
370
   -1
100
AcDbCircle
 10
-48.25968273568358
 20
35.71727895684784
 40
0.7177133829043584
100
AcDbArc
 50
23.19858102729623
 51
110.4042189727038
  0
LINE
  5
1AD
100
AcDbEntity
  8
0
  6
ByLayer
 62
  256
370
   -1
100
AcDbLine
 10
-48.50990709250264
 20
36.38996036082346
 11
-48.7884501182153
 21
36.27854320403498
  0
ARC
  5
1AE
100
AcDbEntity
  8
0
  6
ByLayer
 62
  256
370
   -1
100
AcDbCircle
 10
-48.82825539715955
 20
35.50623442418549
 40
0.7026901516062433
100
AcDbArc
 50
109.8615366274609
 51
197.0671745728687
  0
LINE
  5
1AF
100
AcDbEntity
  8
0
  6
ByLayer
 62
  256
370
   -1
100
AcDbLine
 10
-44.13448525829065
 20
7.65489484933337
 11
-49.50000000000001
 21
35.3
  0
LINE
  5
1B0
100
AcDbEntity
  8
0
  6
ByLayer
 62
  256
370
   -1
100
AcDbLine
 10
-42.17115167390415
 20
8.03610507535069
 11
-47.6
 21
36
  0
LINE
  5
1B1
100
AcDbEntity
  8
0
  6
ByLayer
 62
  256
370
   -1
100
AcDbLine
 10
-30.96859132465572
 20
4.124948570892879
 11
-32.45859132465572
 21
43.77494857089287
  0
LINE
  5
1B2
100
AcDbEntity
  8
0
  6
ByLayer
 62
  256
370
   -1
100
AcDbLine
 10
-28.97
 20
4.199999999999998
 11
-30.46
 21
43.85
  0
LINE
  5
1B3
100
AcDbEntity
  8
0
  6
ByLayer
 62
  256
370
   -1
100
AcDbLine
 10
-22.53
 20
5.16
 11
-20.67
 21
44.16
  0
ARC
  5
1B4
100
AcDbEntity
  8
0
  6
ByLayer
 62
  256
370
   -1
100
AcDbCircle
 10
-43.94255894993304
 20
16.18754210709502
 40
19.61074453234635
100
AcDbArc
 50
316.4439332212262
 51
326.9764293660542
  0
ARC
  5
1B5
100
AcDbEntity
  8
0
  6
ByLayer
 62
  256
370
   -1
100
AcDbCircle
 10
-21.91606786937958
 20
1.320309385707122
 40
6.974963202095271
100
AcDbArc
 50
128.0138452204988
 51
143.1843737608035
  0
ARC
  5
1B6
100
AcDbEntity
  8
0
  6
ByLayer
 62
  256
370
   -1
100
AcDbCircle
 10
-31.75000000000002
 20
-1.500000000000011
 40
11.02054898814031
100
AcDbArc
 50
29.93833845545385
 51
48.86298287150503
  0
ARC
  5
1B7
100
AcDbEntity
  8
0
  6
ByLayer
 62
  256
370
   -1
100
AcDbCircle
 10
-14.50466299724471
 20
8.834002752066461
 40
9.087672649967146
100
AcDbArc
 50
212.1359280899856
 51
227.019424893794
  0
ARC
  5
1B8
100
AcDbEntity
  8
0
  6
ByLayer
 62
  256
370
   -1
100
AcDbCircle
 10
-2.049318051249911
 20
35.46042461753706
 40
0.6921056968131708
100
AcDbArc
 50
340.4128580077344
 51
60.42926068283512
  0
LINE
  5
1B9
100
AcDbEntity
  8
0
  6
ByLayer
 62
  256
370
   -1
100
AcDbLine
 10
1.397262636
 20
35.228403
 11
10.298343132
 21
6.844375439999997
  0
LINE
  5
1BA
100
AcDbEntity
  8
0
  6
ByLayer
 62
  256
370
   -1
100
AcDbLine
 10
10.841723046
 20
6.154186320000005
 11
14.826509082
 21
4.14113472
  0
ELLIPSE
  5
1BB
100
AcDbEntity
  8
0
  6
ByLayer
 62
  256
370
   -1
100
AcDbEllipse
 10
-53.53447297275
 20
145.891292907712
 30
0
 11
-7.105427357601002e-15
 21
125.824973934258
 31
0
 40
0.899761526233
 41
3.651334450059586
 42
3.703707882109587
  0
ELLIPSE
  5
1BC
100
AcDbEntity
  8
0
  6
ByLayer
 62
  256
370
   -1
100
AcDbEllipse
 10
31.18356083951
 20
-8.496877808826593
 30
0
 11
-3.552713678800501e-15
 21
55.03525649898999
 31
0
 40
0.899761526233
 41
0.3739885832995872
 42
0.4956303209495863
  0
ELLIPSE
  5
1BD
100
AcDbEntity
  8
0
  6
ByLayer
 62
  256
370
   -1
100
AcDbEllipse
 10
11.596417371
 20
7.497418965
 30
0
 11
0
 21
1.583607138088
 31
0
 40
0.899761526233
 41
1.99585828796959
 42
2.583394364849586
  0
LINE
  5
1BE
100
AcDbEntity
  8
0
  6
ByLayer
 62
  256
370
   -1
100
AcDbLine
 10
16.379023122
 20
3.508461359999996
 11
19.66517784
 21
2.185598880000002
  0
ELLIPSE
  5
1BF
100
AcDbEntity
  8
0
  6
ByLayer
 62
  256
370
   -1
100
AcDbEllipse
 10
32.0024894112
 20
-8.443313568000013
 30
0
 11
0
 21
55.30660573404001
 31
0
 40
0.899761526233
 41
0.2366047479895869
 42
0.3662928030895877
  0
ELLIPSE
  5
1C0
100
AcDbEntity
  8
0
  6
ByLayer
 62
  256
370
   -1
100
AcDbEllipse
 10
22.783143537
 20
23.10695658000001
 30
0
 11
0
 21
22.44552994568039
 31
0
 40
0.8997615262330001
 41
6.232555105038086
 42
0.05063020213958722
  0
ELLIPSE
  5
1C1
100
AcDbEntity
  8
0
  6
ByLayer
 62
  256
370
   -1
100
AcDbEllipse
 10
27.621812295
 20
21.56361701999999
 30
0
 11
0
 21
24.01952086279261
 31
0
 40
0.8997615262330001
 41
6.270613628676886
 42
0.0857097903295866
  0
ELLIPSE
  5
1C2
100
AcDbEntity
  8
0
  6
ByLayer
 62
  256
370
   -1
100
AcDbEllipse
 10
25.1694646864208
 20
16.40537888897341
 30
0
 11
0
 21
29.48983821375398
 31
0
 40
0.899761526233
 41
5.901174040311586
 42
6.143991790556586
  0
ELLIPSE
  5
1C3
100
AcDbEntity
  8
0
  6
ByLayer
 62
  256
370
   -1
100
AcDbEllipse
 10
24.8857149707108
 20
53.722966697616
 30
0
 11
0
 21
8.286716907076588
 31
0
 40
0.8997615262330001
 41
2.996165121599588
 42
3.260705914639585
  0
ELLIPSE
  5
1C4
100
AcDbEntity
  8
0
  6
ByLayer
 62
  256
370
   -1
100
AcDbEllipse
 10
25.360023223845
 20
5.667035991076798
 30
0
 11
0
 21
1.488296763024607
 31
0
 40
0.8997615262329999
 41
5.593965341737587
 42
0.7190684954195854
  0
LINE
  5
1C5
100
AcDbEntity
  8
0
  6
ByLayer
 62
  256
370
   -1
100
AcDbLine
 10
31.645411182
 20
2.645724959999998
 11
34.41406122
 21
4.026103199999998
  0
LINE
  5
1C6
100
AcDbEntity
  8
0
  6
ByLayer
 62
  256
370
   -1
100
AcDbLine
 10
35.759573388
 20
4.658776560000003
 11
39.485607084
 21
6.614312399999998
  0
ELLIPSE
  5
1C7
100
AcDbEntity
  8
0
  6
ByLayer
 62
  256
370
   -1
100
AcDbEllipse
 10
37.580866421302
 20
-4.98787454925
 30
0
 11
0
 21
13.1263597132936
 31
0
 40
0.8997615262329999
 41
5.709796781913586
 42
5.866798947595585
  0
ELLIPSE
  5
1C8
100
AcDbEntity
  8
0
  6
ByLayer
 62
  256
370
   -1
100
AcDbEllipse
 10
44.570090565
 20
6.973785899999994
 30
0
 11
0
 21
1.136755018471703
 31
0
 40
0.899761526233
 41
2.536047989989588
 42
4.390638425989591
  0
LINE
  5
1C9
100
AcDbEntity
  8
0
  6
ByLayer
 62
  256
370
   -1
100
AcDbLine
 10
36.509955174
 20
43.25185152
 11
41.91787908
 21
40.72115808000002
  0
ELLIPSE
  5
1CA
100
AcDbEntity
  8
0
  6
ByLayer
 62
  256
370
   -1
100
AcDbEllipse
 10
61.85024683647
 20
71.41019223902003
 30
0
 11
0
 21
37.65596373059398
 31
0
 40
0.8997615262329999
 41
2.548999229929587
 42
2.707834005409588
  0
ELLIPSE
  5
1CB
100
AcDbEntity
  8
0
  6
ByLayer
 62
  256
370
   -1
100
AcDbEllipse
 10
57.369706317
 20
59.57194842
 30
0
 11
0
 21
24.78850761833901
 31
0
 40
0.8997615262329999
 41
2.764784511029588
 42
2.978255856329587
  0
ELLIPSE
  5
1CC
100
AcDbEntity
  8
0
  6
ByLayer
 62
  256
370
   -1
100
AcDbEllipse
 10
53.662542715594
 20
34.549527259202
 30
0
 11
0
 21
0.5708666760444103
 31
0
 40
0.8997615262329999
 41
4.437233026229588
 42
6.126171316743577
  0
LINE
  5
1CD
100
AcDbEntity
  8
0
  6
ByLayer
 62
  256
370
   -1
100
AcDbLine
 10
45.54041184
 20
6.614312399999998
 11
54.156864762
 21
34.39442448
  0
LINE
  5
1CE
100
AcDbEntity
  8
0
  6
ByLayer
 62
  256
370
   -1
100
AcDbLine
 10
49.1629446
 20
36.5225076
 11
47.61043056
 21
37.2414546
  0
LINE
  5
1CF
100
AcDbEntity
  8
0
  6
ByLayer
 62
  256
370
   -1
100
AcDbLine
 10
36.509955174
 20
43.25185152
 11
35.06094207
 21
43.76949336
  0
LINE
  5
1D0
100
AcDbEntity
  8
0
  6
ByLayer
 62
  256
370
   -1
100
AcDbLine
 10
27.893502252
 20
45.58123979999998
 11
28.85088591
 21
45.60999767999999
  0
LINE
  5
1D1
100
AcDbEntity
  8
0
  6
ByLayer
 62
  256
370
   -1
100
AcDbLine
 10
20.337933924
 20
45.32241887999999
 11
21.761071794
 21
45.52372404
  0
LINE
  5
1D2
100
AcDbEntity
  8
0
  6
ByLayer
 62
  256
370
   -1
100
AcDbLine
 10
13.092868404
 20
42.73420967999999
 11
14.179628232
 21
43.19433576
  0
LINE
  5
1D3
100
AcDbEntity
  8
0
  6
ByLayer
 62
  256
370
   -1
100
AcDbLine
 10
6.805186542
 20
39.42705348
 11
7.63319403
 21
39.91593743999999
  0
LINE
  5
1D4
100
AcDbEntity
  8
0
  6
ByLayer
 62
  256
370
   -1
100
AcDbLine
 10
35.759573388
 20
4.658776560000003
 11
34.41406122
 21
4.026103199999998
  0
LINE
  5
1D5
100
AcDbEntity
  8
0
  6
ByLayer
 62
  256
370
   -1
100
AcDbLine
 10
14.826509082
 20
4.14113472
 11
16.379023122
 21
3.508461359999996
  0
ELLIPSE
  5
1D6
100
AcDbEntity
  8
0
  6
ByLayer
 62
  256
370
   -1
100
AcDbEllipse
 10
30.713985957986
 20
4.795029730978002
 30
0
 11
0
 21
2.385609322965366
 31
0
 40
0.8997615262330001
 41
2.665715226509587
 42
3.590444698639587
  0
ELLIPSE
  5
1D7
100
AcDbEntity
  8
0
  6
ByLayer
 62
  256
370
   -1
100
AcDbEllipse
 10
20.18268252
 20
3.533624504999997
 30
0
 11
0
 21
1.465598632126821
 31
0
 40
0.899761526233
 41
2.738311171879588
 42
3.544874135299585
  0
ELLIPSE
  5
1D8
100
AcDbEntity
  8
0
  6
ByLayer
 62
  256
370
   -1
100
AcDbEllipse
 10
41.28764745832201
 20
3.5907866845032
 30
0
 11
0
 21
3.626693624042999
 31
0
 40
0.8997615262329999
 41
5.949066357988586
 42
0.5850462322795901
  0
LINE
  5
1D9
100
AcDbEntity
  8
0
  6
ByLayer
 62
  256
370
   -1
100
AcDbLine
 10
42.92701282454079
 20
40.17475765549158
 11
41.91787908
 21
40.72115808000002
  0
CIRCLE
  5
1DA
100
AcDbEntity
  8
0
  6
ByLayer
 62
  256
370
   -1
100
AcDbCircle
 10
27.96647283115381
 20
8.999447632201029
 40
0.1699999999999999
  0
CIRCLE
  5
1DB
100
AcDbEntity
  8
0
  6
ByLayer
 62
  256
370
   -1
100
AcDbCircle
 10
28.03294566230762
 20
12.99889526440205
 40
0.1699999999999999
  0
CIRCLE
  5
1DC
100
AcDbEntity
  8
0
  6
ByLayer
 62
  256
370
   -1
100
AcDbCircle
 10
28.09941849346143
 20
16.99834289660308
 40
0.1699999999999999
  0
CIRCLE
  5
1DD
100
AcDbEntity
  8
0
  6
ByLayer
 62
  256
370
   -1
100
AcDbCircle
 10
28.16589132461523
 20
20.9977905288041
 40
0.1699999999999999
  0
CIRCLE
  5
1DE
100
AcDbEntity
  8
0
  6
ByLayer
 62
  256
370
   -1
100
AcDbCircle
 10
28.23236415576904
 20
24.99723816100513
 40
0.1699999999999999
  0
CIRCLE
  5
1DF
100
AcDbEntity
  8
0
  6
ByLayer
 62
  256
370
   -1
100
AcDbCircle
 10
28.29883698692285
 20
28.99668579320614
 40
0.1699999999999999
  0
CIRCLE
  5
1E0
100
AcDbEntity
  8
0
  6
ByLayer
 62
  256
370
   -1
100
AcDbCircle
 10
28.36530981807666
 20
32.99613342540717
 40
0.1699999999999999
  0
CIRCLE
  5
1E1
100
AcDbEntity
  8
0
  6
ByLayer
 62
  256
370
   -1
100
AcDbCircle
 10
28.43178264923046
 20
36.99558105760822
 40
0.1699999999999999
  0
CIRCLE
  5
1E2
100
AcDbEntity
  8
0
  6
ByLayer
 62
  256
370
   -1
100
AcDbCircle
 10
28.49825548038427
 20
40.99502868980922
 40
0.1699999999999999
  0
CIRCLE
  5
1E3
100
AcDbEntity
  8
0
  6
ByLayer
 62
  256
370
   -1
100
AcDbCircle
 10
45.28432768799523
 20
7.895730237468342
 40
0.1699999999999999
  0
CIRCLE
  5
1E4
100
AcDbEntity
  8
0
  6
ByLayer
 62
  256
370
   -1
100
AcDbCircle
 10
46.18345348975699
 20
11.79336705900602
 40
0.1699999999999999
  0
CIRCLE
  5
1E5
100
AcDbEntity
  8
0
  6
ByLayer
 62
  256
370
   -1
100
AcDbCircle
 10
47.08257929151875
 20
15.69100388054369
 40
0.1699999999999999
  0
CIRCLE
  5
1E6
100
AcDbEntity
  8
0
  6
ByLayer
 62
  256
370
   -1
100
AcDbCircle
 10
47.98170509328051
 20
19.58864070208135
 40
0.1699999999999999
  0
CIRCLE
  5
1E7
100
AcDbEntity
  8
0
  6
ByLayer
 62
  256
370
   -1
100
AcDbCircle
 10
48.88083089504226
 20
23.48627752361901
 40
0.1699999999999999
  0
CIRCLE
  5
1E8
100
AcDbEntity
  8
0
  6
ByLayer
 62
  256
370
   -1
100
AcDbCircle
 10
49.77995669680401
 20
27.38391434515669
 40
0.1699999999999999
  0
CIRCLE
  5
1E9
100
AcDbEntity
  8
0
  6
ByLayer
 62
  256
370
   -1
100
AcDbCircle
 10
50.67908249856577
 20
31.28155116669437
 40
0.1699999999999999
  0
CIRCLE
  5
1EA
100
AcDbEntity
  8
0
  6
ByLayer
 62
  256
370
   -1
100
AcDbCircle
 10
41.12190079565038
 20
8.369226933658581
 40
0.1699999999999999
  0
CIRCLE
  5
1EB
100
AcDbEntity
  8
0
  6
ByLayer
 62
  256
370
   -1
100
AcDbCircle
 10
41.74915469369367
 20
12.31973988103509
 40
0.1699999999999999
  0
CIRCLE
  5
1EC
100
AcDbEntity
  8
0
  6
ByLayer
 62
  256
370
   -1
100
AcDbCircle
 10
42.37640859173698
 20
16.27025282841162
 40
0.1699999999999999
  0
CIRCLE
  5
1ED
100
AcDbEntity
  8
0
  6
ByLayer
 62
  256
370
   -1
100
AcDbCircle
 10
43.00366248978028
 20
20.22076577578812
 40
0.1699999999999999
  0
CIRCLE
  5
1EE
100
AcDbEntity
  8
0
  6
ByLayer
 62
  256
370
   -1
100
AcDbCircle
 10
43.63091638782358
 20
24.17127872316464
 40
0.1699999999999999
  0
CIRCLE
  5
1EF
100
AcDbEntity
  8
0
  6
ByLayer
 62
  256
370
   -1
100
AcDbCircle
 10
44.25817028586689
 20
28.12179167054115
 40
0.1699999999999999
  0
CIRCLE
  5
1F0
100
AcDbEntity
  8
0
  6
ByLayer
 62
  256
370
   -1
100
AcDbCircle
 10
44.88542418391018
 20
32.07230461791768
 40
0.1699999999999999
  0
CIRCLE
  5
1F1
100
AcDbEntity
  8
0
  6
ByLayer
 62
  256
370
   -1
100
AcDbCircle
 10
45.51267808195349
 20
36.02281756529417
 40
0.1699999999999999
  0
CIRCLE
  5
1F2
100
AcDbEntity
  8
0
  6
ByLayer
 62
  256
370
   -1
100
AcDbCircle
 10
36.77821235770016
 20
8.720032862939604
 40
0.1699999999999999
  0
CIRCLE
  5
1F3
100
AcDbEntity
  8
0
  6
ByLayer
 62
  256
370
   -1
100
AcDbCircle
 10
37.19258239085463
 20
12.69851215478261
 40
0.1699999999999999
  0
CIRCLE
  5
1F4
100
AcDbEntity
  8
0
  6
ByLayer
 62
  256
370
   -1
100
AcDbCircle
 10
37.6069524240091
 20
16.67699144662561
 40
0.1699999999999999
  0
CIRCLE
  5
1F5
100
AcDbEntity
  8
0
  6
ByLayer
 62
  256
370
   -1
100
AcDbCircle
 10
38.02132245716358
 20
20.6554707384686
 40
0.1699999999999999
  0
CIRCLE
  5
1F6
100
AcDbEntity
  8
0
  6
ByLayer
 62
  256
370
   -1
100
AcDbCircle
 10
38.43569249031806
 20
24.63395003031159
 40
0.1699999999999999
  0
CIRCLE
  5
1F7
100
AcDbEntity
  8
0
  6
ByLayer
 62
  256
370
   -1
100
AcDbCircle
 10
38.85006252347254
 20
28.61242932215457
 40
0.1699999999999999
  0
CIRCLE
  5
1F8
100
AcDbEntity
  8
0
  6
ByLayer
 62
  256
370
   -1
100
AcDbCircle
 10
39.26443255662701
 20
32.59090861399759
 40
0.1699999999999999
  0
CIRCLE
  5
1F9
100
AcDbEntity
  8
0
  6
ByLayer
 62
  256
370
   -1
100
AcDbCircle
 10
39.6788025897815
 20
36.56938790584057
 40
0.1699999999999999
  0
CIRCLE
  5
1FA
100
AcDbEntity
  8
0
  6
ByLayer
 62
  256
370
   -1
100
AcDbCircle
 10
40.09317262293597
 20
40.54786719768358
 40
0.1699999999999999
  0
CIRCLE
  5
1FB
100
AcDbEntity
  8
0
  6
ByLayer
 62
  256
370
   -1
100
AcDbCircle
 10
32.15148587049609
 20
4.93797067045148
 40
0.1699999999999999
  0
CIRCLE
  5
1FC
100
AcDbEntity
  8
0
  6
ByLayer
 62
  256
370
   -1
100
AcDbCircle
 10
32.38467652522048
 20
8.931167650134455
 40
0.1699999999999999
  0
CIRCLE
  5
1FD
100
AcDbEntity
  8
0
  6
ByLayer
 62
  256
370
   -1
100
AcDbCircle
 10
32.61786717994488
 20
12.92436462981743
 40
0.1699999999999999
  0
CIRCLE
  5
1FE
100
AcDbEntity
  8
0
  6
ByLayer
 62
  256
370
   -1
100
AcDbCircle
 10
32.85105783466928
 20
16.9175616095004
 40
0.1699999999999999
  0
CIRCLE
  5
1FF
100
AcDbEntity
  8
0
  6
ByLayer
 62
  256
370
   -1
100
AcDbCircle
 10
33.08424848939368
 20
20.91075858918337
 40
0.1699999999999999
  0
CIRCLE
  5
200
100
AcDbEntity
  8
0
  6
ByLayer
 62
  256
370
   -1
100
AcDbCircle
 10
33.31743914411808
 20
24.90395556886633
 40
0.1699999999999999
  0
CIRCLE
  5
201
100
AcDbEntity
  8
0
  6
ByLayer
 62
  256
370
   -1
100
AcDbCircle
 10
33.55062979884248
 20
28.89715254854929
 40
0.1699999999999999
  0
CIRCLE
  5
202
100
AcDbEntity
  8
0
  6
ByLayer
 62
  256
370
   -1
100
AcDbCircle
 10
33.78382045356688
 20
32.89034952823228
 40
0.1699999999999999
  0
CIRCLE
  5
203
100
AcDbEntity
  8
0
  6
ByLayer
 62
  256
370
   -1
100
AcDbCircle
 10
34.01701110829128
 20
36.88354650791525
 40
0.1699999999999999
  0
CIRCLE
  5
204
100
AcDbEntity
  8
0
  6
ByLayer
 62
  256
370
   -1
100
AcDbCircle
 10
34.25020176301567
 20
40.87674348759823
 40
0.1699999999999999
  0
ARC
  5
205
100
AcDbEntity
  8
0
  6
ByLayer
 62
  256
370
   -1
100
AcDbCircle
 10
33.05845529258863
 20
43.31443192114308
 40
0.7177133829043584
100
AcDbArc
 50
69.34827602729619
 51
156.5539139727038
  0
LINE
  5
206
100
AcDbEntity
  8
0
  6
ByLayer
 62
  256
370
   -1
100
AcDbLine
 10
33.31158313948956
 20
43.98602613875018
 11
34.51650604071217
 21
43.49800892377785
  0
LINE
  5
207
100
AcDbEntity
  8
0
  6
ByLayer
 62
  256
370
   -1
100
AcDbLine
 10
35.72142894193478
 20
43.00999170880556
 11
34.51650604071217
 21
43.49800892377785
  0
ARC
  5
208
100
AcDbEntity
  8
0
  6
ByLayer
 62
  256
370
   -1
100
AcDbCircle
 10
34.91230216303918
 20
41.88246043260783
 40
1.38780867670225
100
AcDbArc
 50
0.7241415604501902
 51
54.33643153620731
  0
ARC
  5
209
100
AcDbEntity
  8
0
  6
ByLayer
 62
  256
370
   -1
100
AcDbCircle
 10
38.99714205297396
 20
40.87286357620839
 40
0.8808391451562804
100
AcDbArc
 50
69.889676649642
 51
168.1703308059292
  0
LINE
  5
20A
100
AcDbEntity
  8
0
  6
ByLayer
 62
  256
370
   -1
100
AcDbLine
 10
41.35059793768928
 20
40.79796391164059
 11
39.3
 21
41.7
  0
ARC
  5
20B
100
AcDbEntity
  8
0
  6
ByLayer
 62
  256
370
   -1
100
AcDbCircle
 10
40.45624837421144
 20
39.53906209355286
 40
1.544245747696124
100
AcDbArc
 50
358.5505339123609
 51
54.60923609243012
  0
ARC
  5
20C
100
AcDbEntity
  8
0
  6
ByLayer
 62
  256
370
   -1
100
AcDbCircle
 10
27.26684941631942
 20
44.56479468332017
 40
0.7177133829043584
100
AcDbArc
 50
89.98275802729624
 51
177.1883959727038
  0
LINE
  5
20D
100
AcDbEntity
  8
0
  6
ByLayer
 62
  256
370
   -1
100
AcDbLine
 10
27.26706539722543
 20
45.28250803372705
 11
28.56666929739558
 21
45.2504190533357
  0
ARC
  5
20E
100
AcDbEntity
  8
0
  6
ByLayer
 62
  256
370
   -1
100
AcDbCircle
 10
29.83106788088589
 20
44.50148065662493
 40
0.7177133829043584
100
AcDbArc
 50
359.9827580272962
 51
87.18839597270376
  0
LINE
  5
20F
100
AcDbEntity
  8
0
  6
ByLayer
 62
  256
370
   -1
100
AcDbLine
 10
29.86627319756573
 20
45.21833007294433
 11
28.56666929739558
 21
45.2504190533357
  0
CIRCLE
  5
210
100
AcDbEntity
  8
0
  6
ByLayer
 62
  256
370
   -1
100
AcDbCircle
 10
28.54825548038427
 20
43.99502868980922
 40
0.1699999999999999
  0
CIRCLE
  5
211
100
AcDbEntity
  8
0
  6
ByLayer
 62
  256
370
   -1
100
AcDbCircle
 10
23.56925840475059
 20
9.016036265391811
 40
0.1699999999999999
  0
CIRCLE
  5
212
100
AcDbEntity
  8
0
  6
ByLayer
 62
  256
370
   -1
100
AcDbCircle
 10
23.45849358565618
 20
13.01450236564213
 40
0.1699999999999999
  0
CIRCLE
  5
213
100
AcDbEntity
  8
0
  6
ByLayer
 62
  256
370
   -1
100
AcDbCircle
 10
23.34772876656178
 20
17.01296846589245
 40
0.1699999999999999
  0
CIRCLE
  5
214
100
AcDbEntity
  8
0
  6
ByLayer
 62
  256
370
   -1
100
AcDbCircle
 10
23.23696394746738
 20
21.01143456614277
 40
0.1699999999999999
  0
CIRCLE
  5
215
100
AcDbEntity
  8
0
  6
ByLayer
 62
  256
370
   -1
100
AcDbCircle
 10
23.12619912837298
 20
25.00990066639307
 40
0.1699999999999999
  0
CIRCLE
  5
216
100
AcDbEntity
  8
0
  6
ByLayer
 62
  256
370
   -1
100
AcDbCircle
 10
23.01543430927858
 20
29.0083667666434
 40
0.1699999999999999
  0
CIRCLE
  5
217
100
AcDbEntity
  8
0
  6
ByLayer
 62
  256
370
   -1
100
AcDbCircle
 10
22.90466949018418
 20
33.00683286689371
 40
0.1699999999999999
  0
CIRCLE
  5
218
100
AcDbEntity
  8
0
  6
ByLayer
 62
  256
370
   -1
100
AcDbCircle
 10
22.79390467108977
 20
37.00529896714404
 40
0.1699999999999999
  0
CIRCLE
  5
219
100
AcDbEntity
  8
0
  6
ByLayer
 62
  256
370
   -1
100
AcDbCircle
 10
22.68313985199537
 20
41.00376506739435
 40
0.1699999999999999
  0
CIRCLE
  5
21A
100
AcDbEntity
  8
0
  6
ByLayer
 62
  256
370
   -1
100
AcDbCircle
 10
10.42161737629034
 20
8.240150678028463
 40
0.1699999999999999
  0
CIRCLE
  5
21B
100
AcDbEntity
  8
0
  6
ByLayer
 62
  256
370
   -1
100
AcDbCircle
 10
9.750647864565789
 20
12.18347413855463
 40
0.1699999999999999
  0
CIRCLE
  5
21C
100
AcDbEntity
  8
0
  6
ByLayer
 62
  256
370
   -1
100
AcDbCircle
 10
9.079678352841217
 20
16.12679759908081
 40
0.1699999999999999
  0
CIRCLE
  5
21D
100
AcDbEntity
  8
0
  6
ByLayer
 62
  256
370
   -1
100
AcDbCircle
 10
8.408708841116663
 20
20.07012105960698
 40
0.1699999999999999
  0
CIRCLE
  5
21E
100
AcDbEntity
  8
0
  6
ByLayer
 62
  256
370
   -1
100
AcDbCircle
 10
7.737739329392106
 20
24.01344452013313
 40
0.1699999999999999
  0
CIRCLE
  5
21F
100
AcDbEntity
  8
0
  6
ByLayer
 62
  256
370
   -1
100
AcDbCircle
 10
7.066769817667542
 20
27.95676798065931
 40
0.1699999999999999
  0
CIRCLE
  5
220
100
AcDbEntity
  8
0
  6
ByLayer
 62
  256
370
   -1
100
AcDbCircle
 10
6.395800305942995
 20
31.90009144118549
 40
0.1699999999999999
  0
CIRCLE
  5
221
100
AcDbEntity
  8
0
  6
ByLayer
 62
  256
370
   -1
100
AcDbCircle
 10
5.72483079421843
 20
35.84341490171165
 40
0.1699999999999999
  0
CIRCLE
  5
222
100
AcDbEntity
  8
0
  6
ByLayer
 62
  256
370
   -1
100
AcDbCircle
 10
14.76115402379844
 20
8.63904381025219
 40
0.1699999999999999
  0
CIRCLE
  5
223
100
AcDbEntity
  8
0
  6
ByLayer
 62
  256
370
   -1
100
AcDbCircle
 10
14.30274557704712
 20
12.61268970488688
 40
0.1699999999999999
  0
CIRCLE
  5
224
100
AcDbEntity
  8
0
  6
ByLayer
 62
  256
370
   -1
100
AcDbCircle
 10
13.84433713029581
 20
16.58633559952154
 40
0.1699999999999999
  0
CIRCLE
  5
225
100
AcDbEntity
  8
0
  6
ByLayer
 62
  256
370
   -1
100
AcDbCircle
 10
13.38592868354448
 20
20.55998149415623
 40
0.1699999999999999
  0
CIRCLE
  5
226
100
AcDbEntity
  8
0
  6
ByLayer
 62
  256
370
   -1
100
AcDbCircle
 10
12.92752023679316
 20
24.5336273887909
 40
0.1699999999999999
  0
CIRCLE
  5
227
100
AcDbEntity
  8
0
  6
ByLayer
 62
  256
370
   -1
100
AcDbCircle
 10
12.46911179004184
 20
28.50727328342557
 40
0.1699999999999999
  0
CIRCLE
  5
228
100
AcDbEntity
  8
0
  6
ByLayer
 62
  256
370
   -1
100
AcDbCircle
 10
12.01070334329052
 20
32.48091917806025
 40
0.1699999999999999
  0
CIRCLE
  5
229
100
AcDbEntity
  8
0
  6
ByLayer
 62
  256
370
   -1
100
AcDbCircle
 10
11.55229489653919
 20
36.45456507269494
 40
0.1699999999999999
  0
ARC
  5
22A
100
AcDbEntity
  8
0
  6
ByLayer
 62
  256
370
   -1
100
AcDbCircle
 10
16.52598778206882
 20
4.531736382548566
 40
0.7177133829043584
100
AcDbArc
 50
277.9778570272962
 51
5.183494972703804
  0
CIRCLE
  5
22B
100
AcDbEntity
  8
0
  6
ByLayer
 62
  256
370
   -1
100
AcDbCircle
 10
11.09388644978788
 20
40.42821096732963
 40
0.1699999999999999
  0
LINE
  5
22C
100
AcDbEntity
  8
0
  6
ByLayer
 62
  256
370
   -1
100
AcDbLine
 10
17.24076605137346
 20
4.596578696895563
 11
13.04632876359887
 21
40.95543863280287
  0
CIRCLE
  5
22D
100
AcDbEntity
  8
0
  6
ByLayer
 62
  256
370
   -1
100
AcDbCircle
 10
19.42948513004567
 20
4.90845711407579
 40
0.1699999999999999
  0
CIRCLE
  5
22E
100
AcDbEntity
  8
0
  6
ByLayer
 62
  256
370
   -1
100
AcDbCircle
 10
19.15208194252908
 20
8.898826454319327
 40
0.1699999999999999
  0
CIRCLE
  5
22F
100
AcDbEntity
  8
0
  6
ByLayer
 62
  256
370
   -1
100
AcDbCircle
 10
18.87467875501249
 20
12.88919579456286
 40
0.1699999999999999
  0
CIRCLE
  5
230
100
AcDbEntity
  8
0
  6
ByLayer
 62
  256
370
   -1
100
AcDbCircle
 10
18.5972755674959
 20
16.87956513480641
 40
0.1699999999999999
  0
CIRCLE
  5
231
100
AcDbEntity
  8
0
  6
ByLayer
 62
  256
370
   -1
100
AcDbCircle
 10
18.31987237997931
 20
20.86993447504993
 40
0.1699999999999999
  0
CIRCLE
  5
232
100
AcDbEntity
  8
0
  6
ByLayer
 62
  256
370
   -1
100
AcDbCircle
 10
18.04246919246272
 20
24.86030381529346
 40
0.1699999999999999
  0
CIRCLE
  5
233
100
AcDbEntity
  8
0
  6
ByLayer
 62
  256
370
   -1
100
AcDbCircle
 10
17.76506600494612
 20
28.85067315553699
 40
0.1699999999999999
  0
CIRCLE
  5
234
100
AcDbEntity
  8
0
  6
ByLayer
 62
  256
370
   -1
100
AcDbCircle
 10
17.48766281742953
 20
32.84104249578054
 40
0.1699999999999999
  0
CIRCLE
  5
235
100
AcDbEntity
  8
0
  6
ByLayer
 62
  256
370
   -1
100
AcDbCircle
 10
17.21025962991294
 20
36.83141183602407
 40
0.1699999999999999
  0
CIRCLE
  5
236
100
AcDbEntity
  8
0
  6
ByLayer
 62
  256
370
   -1
100
AcDbCircle
 10
16.93285644239635
 20
40.82178117626761
 40
0.1699999999999999
  0
ARC
  5
237
100
AcDbEntity
  8
0
  6
ByLayer
 62
  256
370
   -1
100
AcDbCircle
 10
18.09753108648057
 20
43.27251933491305
 40
0.7177133829043584
100
AcDbArc
 50
24.08068102729628
 51
111.2863189727038
  0
LINE
  5
238
100
AcDbEntity
  8
0
  6
ByLayer
 62
  256
370
   -1
100
AcDbLine
 10
17.83698049290117
 20
43.94126883075246
 11
16.6375365534894
 21
43.43993636999574
  0
LINE
  5
239
100
AcDbEntity
  8
0
  6
ByLayer
 62
  256
370
   -1
100
AcDbLine
 10
15.43809261407763
 20
42.93860390923903
 11
16.6375365534894
 21
43.43993636999574
  0
ARC
  5
23A
100
AcDbEntity
  8
0
  6
ByLayer
 62
  256
370
   -1
100
AcDbCircle
 10
16.25965778878449
 20
41.82010331163571
 40
1.38780867670225
100
AcDbArc
 50
126.2981634637928
 51
179.9104534395498
  0
LINE
  5
23B
100
AcDbEntity
  8
0
  6
ByLayer
 62
  256
370
   -1
100
AcDbLine
 10
17.45510569898764
 20
4.470477819799213
 11
14.87185080701341
 21
41.82227229238832
  0
ARC
  5
23C
100
AcDbEntity
  8
0
  6
ByLayer
 62
  256
370
   -1
100
AcDbCircle
 10
12.18625028165771
 20
40.76532654864877
 40
0.8808391451562804
100
AcDbArc
 50
12.46426419407068
 51
110.744918350358
  0
LINE
  5
23D
100
AcDbEntity
  8
0
  6
ByLayer
 62
  256
370
   -1
100
AcDbLine
 10
9.833768302554052
 20
40.6643656698586
 11
11.87424992336975
 21
41.5890579223792
  0
ARC
  5
23E
100
AcDbEntity
  8
0
  6
ByLayer
 62
  256
370
   -1
100
AcDbCircle
 10
10.74200603508363
 20
39.41544647692131
 40
1.544245747696124
100
AcDbArc
 50
126.0253589075699
 51
182.084061087639
  0
ARC
  5
23F
100
AcDbEntity
  8
0
  6
ByLayer
 62
  256
370
   -1
100
AcDbCircle
 10
23.87493328039425
 20
44.58695060083635
 40
0.7177133829043584
100
AcDbArc
 50
3.446199027296179
 51
90.65183697270373
  0
LINE
  5
240
100
AcDbEntity
  8
0
  6
ByLayer
 62
  256
370
   -1
100
AcDbLine
 10
23.86676824571011
 20
45.30461753765918
 11
22.56759946067305
 21
45.25813670305629
  0
ARC
  5
241
100
AcDbEntity
  8
0
  6
ByLayer
 62
  256
370
   -1
100
AcDbCircle
 10
21.31157333145578
 20
44.4952403387161
 40
0.7177133829043584
100
AcDbArc
 50
93.44619902729623
 51
180.6518369727038
  0
LINE
  5
242
100
AcDbEntity
  8
0
  6
ByLayer
 62
  256
370
   -1
100
AcDbLine
 10
21.268430675636
 20
45.21165586845346
 11
22.56759946067305
 21
45.25813670305629
  0
CIRCLE
  5
243
100
AcDbEntity
  8
0
  6
ByLayer
 62
  256
370
   -1
100
AcDbCircle
 10
22.5999162816256
 20
44.00302728289583
 40
0.1699999999999999
  0
ARC
  5
244
100
AcDbEntity
  8
0
  6
ByLayer
 62
  256
370
   -1
100
AcDbCircle
 10
30.98372413793104
 20
3.60659770114944
 40
0.9140237785907516
100
AcDbArc
 50
178.5328614771597
 51
277.3085815648413
  0
LINE
  5
245
100
AcDbEntity
  8
0
  6
ByLayer
 62
  256
370
   -1
100
AcDbLine
 10
34.15
 20
4.82
 11
36.3
 21
41.9
  0
ARC
  5
246
100
AcDbEntity
  8
0
  6
ByLayer
 62
  256
370
   -1
100
AcDbCircle
 10
33.04551136363639
 20
4.806732954545438
 40
1.104568314931878
100
AcDbArc
 50
294.296751086667
 51
0.6882000680552852
  0
LINE
  5
247
100
AcDbEntity
  8
0
  6
ByLayer
 62
  256
370
   -1
100
AcDbLine
 10
33.5
 20
3.800000000000003
 11
31.1
 21
2.699999999999997
  0
ARC
  5
248
100
AcDbEntity
  8
0
  6
ByLayer
 62
  256
370
   -1
100
AcDbCircle
 10
29.37069469052681
 20
4.239192032837229
 40
0.5279832575593103
100
AcDbArc
 50
206.9382253674434
 51
344.7144586916685
  0
CIRCLE
  5
249
100
AcDbEntity
  8
0
  6
ByLayer
 62
  256
370
   -1
100
AcDbCircle
 10
27.90000000000001
 20
7
 40
0.1699999999999999
  0
CIRCLE
  5
24A
100
AcDbEntity
  8
0
  6
ByLayer
 62
  256
370
   -1
100
AcDbCircle
 10
23.6
 20
7
 40
0.1699999999999999
  0
ARC
  5
24B
100
AcDbEntity
  8
0
  6
ByLayer
 62
  256
370
   -1
100
AcDbCircle
 10
22.33583333333334
 20
5.978333333333327
 40
0.6792791317925848
100
AcDbArc
 50
185.773540135565
 51
326.153972928582
  0
LINE
  5
24C
100
AcDbEntity
  8
0
  6
ByLayer
 62
  256
370
   -1
100
AcDbLine
 10
29.88
 20
4.099999999999998
 11
30.54878123129277
 21
44.50126467571889
  0
LINE
  5
24D
100
AcDbEntity
  8
0
  6
ByLayer
 62
  256
370
   -1
100
AcDbLine
 10
21.66
 20
5.91
 11
20.59390639463298
 21
44.48707530403195
  0
CIRCLE
  5
24E
100
AcDbEntity
  8
0
  6
ByLayer
 62
  256
370
   -1
100
AcDbCircle
 10
15
 20
5.9
 40
0.1699999999999999
  0
LINE
  5
24F
100
AcDbEntity
  8
0
  6
ByLayer
 62
  256
370
   -1
100
AcDbLine
 10
12.9
 20
7.299999999999995
 11
9.198781730442606
 21
39.35928888756075
  0
ARC
  5
250
100
AcDbEntity
  8
0
  6
ByLayer
 62
  256
370
   -1
100
AcDbCircle
 10
17.12381457738237
 20
8.088831174154967
 40
4.29684351651611
100
AcDbArc
 50
190.5785802962162
 51
263.3416300950628
  0
LINE
  5
251
100
AcDbEntity
  8
0
  6
ByLayer
 62
  256
370
   -1
100
AcDbLine
 10
30.07
 20
3.629999999999998
 11
32.40000000000001
 21
43.60000000000001
  0
ARC
  5
252
100
AcDbEntity
  8
0
  6
ByLayer
 62
  256
370
   -1
100
AcDbCircle
 10
12.4
 20
6.069999999999999
 40
0.4205948168962614
100
AcDbArc
 50
241.6069805786169
 51
18.00416160591352
  0
LINE
  5
253
100
AcDbEntity
  8
0
  6
ByLayer
 62
  256
370
   -1
100
AcDbLine
 10
12.2
 20
5.699999999999998
 11
11
 21
6.4
  0
LINE
  5
254
100
AcDbEntity
  8
0
  6
ByLayer
 62
  256
370
   -1
100
AcDbLine
 10
6.800000000000001
 20
18.7
 11
10.4
 21
7.099999999999998
  0
ARC
  5
255
100
AcDbEntity
  8
0
  6
ByLayer
 62
  256
370
   -1
100
AcDbCircle
 10
12.44999999999999
 20
8.249999999999989
 40
2.350531854708616
100
AcDbArc
 50
209.2913621709842
 51
231.9112271190247
  0
LINE
  5
256
100
AcDbEntity
  8
0
  6
ByLayer
 62
  256
370
   -1
100
AcDbLine
 10
12.8
 20
6.199999999999998
 11
7.400000000000001
 21
38
  0
ARC
  5
257
100
AcDbEntity
  8
0
  6
ByLayer
 62
  256
370
   -1
100
AcDbCircle
 10
6.55
 20
37.55
 40
0.9617692030835695
100
AcDbArc
 50
27.89727103094778
 51
117.8972710309476
  0
LINE
  5
258
100
AcDbEntity
  8
0
  6
ByLayer
 62
  256
370
   -1
100
AcDbLine
 10
6.1
 20
38.4
 11
4.299999999999999
 21
37.3
  0
LINE
  5
259
100
AcDbEntity
  8
0
  6
ByLayer
 62
  256
370
   -1
100
AcDbLine
 10
6.800000000000001
 20
18.7
 11
3.719999999999999
 21
35.9
  0
ARC
  5
25A
100
AcDbEntity
  8
0
  6
ByLayer
 62
  256
370
   -1
100
AcDbCircle
 10
4.909999999999995
 20
36.22714285714287
 40
1.234148471205786
100
AcDbArc
 50
119.6214878491343
 51
195.371455151331
  0
ELLIPSE
  5
25B
100
AcDbEntity
  8
0
  6
ByLayer
 62
  256
370
   -1
100
AcDbEllipse
 10
44.470090565
 20
7.273785900000001
 30
0
 11
0
 21
1.136755018471699
 31
0
 40
0.899761526233
 41
2.536047989989589
 42
4.390638425989589
  0
LINE
  5
25C
100
AcDbEntity
  8
0
  6
ByLayer
 62
  256
370
   -1
100
AcDbLine
 10
45.44041184
 20
6.914312399999996
 11
51.95
 21
27.9
  0
ARC
  5
25D
100
AcDbEntity
  8
0
  6
ByLayer
 62
  256
370
   -1
100
AcDbCircle
 10
52.35499999999999
 20
33.64138888888888
 40
0.8928818735552099
100
AcDbArc
 50
345.6438407679151
 51
74.0741915619306
  0
LINE
  5
25E
100
AcDbEntity
  8
0
  6
ByLayer
 62
  256
370
   -1
100
AcDbLine
 10
51.95
 20
27.9
 11
53.21999999999999
 21
33.41999999999999
  0
ARC
  5
25F
100
AcDbEntity
  8
0
  6
ByLayer
 62
  256
370
   -1
100
AcDbCircle
 10
50.35361297539149
 20
34.29225950782998
 40
1.011560268527729
100
AcDbArc
 50
63.81406090979111
 51
162.2885409231542
  0
LINE
  5
260
100
AcDbEntity
  8
0
  6
ByLayer
 62
  256
370
   -1
100
AcDbLine
 10
52.6
 20
34.49999999999999
 11
50.8
 21
35.2
  0
CIRCLE
  5
261
100
AcDbEntity
  8
0
  6
ByLayer
 62
  256
370
   -1
100
AcDbCircle
 10
51.3
 20
33.9
 40
0.1699999999999999
  0
ARC
  5
262
100
AcDbEntity
  8
0
  6
ByLayer
 62
  256
370
   -1
100
AcDbCircle
 10
45.50000000000001
 20
7.799999999999995
 40
2.22036033111746
100
AcDbArc
 50
172.2348339815747
 51
215.8376529542782
  0
LINE
  5
263
100
AcDbEntity
  8
0
  6
ByLayer
 62
  256
370
   -1
100
AcDbLine
 10
43.88789780000386
 20
6.339154799997605
 11
43.7
 21
6.499999999999998
  0
LINE
  5
264
100
AcDbEntity
  8
0
  6
ByLayer
 62
  256
370
   -1
100
AcDbLine
 10
43.3
 20
8.100000000000001
 11
49.39
 21
34.6
  0
LINE
  5
265
100
AcDbEntity
  8
0
  6
ByLayer
 62
  256
370
   -1
100
AcDbLine
 10
38.70000000000001
 20
7.799999999999995
 11
42
 21
39.5
  0
LINE
  5
266
100
AcDbEntity
  8
0
  6
ByLayer
 62
  256
370
   -1
100
AcDbLine
 10
34.4
 20
5.199999999999998
 11
38.13501072950105
 21
41.05343816114905
  0
LINE
  5
267
100
AcDbEntity
  8
0
  6
ByLayer
 62
  256
370
   -1
100
AcDbLine
 10
43.1
 20
8
 11
47.50000000000001
 21
35.7
  0
ARC
  5
268
100
AcDbEntity
  8
0
  6
ByLayer
 62
  256
370
   -1
100
AcDbCircle
 10
19.33434270100961
 20
4.71868540201921
 40
1.895557626040422
100
AcDbArc
 50
187.5240142817873
 51
253.6268369354734
  0
ARC
  5
269
100
AcDbEntity
  8
0
  6
ByLayer
 62
  256
370
   -1
100
AcDbCircle
 10
20.15
 20
3.349999999999998
 40
0.7905694150420916
100
AcDbArc
 50
251.5650511770779
 51
325.3048464687662
  0
ARC
  5
26A
100
AcDbEntity
  8
0
  6
ByLayer
 62
  256
370
   -1
100
AcDbCircle
 10
19.00408560311284
 20
4.578696498054481
 40
2.458318623272201
100
AcDbArc
 50
316.9321716864665
 51
357.4657956891889
  0
LINE
  5
26B
100
AcDbEntity
  8
0
  6
ByLayer
 62
  256
370
   -1
100
AcDbLine
 10
19.9
 20
2.600000000000003
 11
18.8
 21
2.899999999999997
  0
ARC
  5
26C
100
AcDbEntity
  8
0
  6
ByLayer
 62
  256
370
   -1
100
AcDbCircle
 10
34.95
 20
5.189999999999999
 40
0.5500909015789999
100
AcDbArc
 50
178.9583733239896
 51
297.0308602598431
  0
ARC
  5
26D
100
AcDbEntity
  8
0
  6
ByLayer
 62
  256
370
   -1
100
AcDbCircle
 10
35.57142857142853
 20
8.342857142857172
 40
3.175319363658531
100
AcDbArc
 50
309.7065577469698
 51
350.1562766093053
  0
LINE
  5
26E
100
AcDbEntity
  8
0
  6
ByLayer
 62
  256
370
   -1
100
AcDbLine
 10
37.60000000000001
 20
5.9
 11
35.20000000000001
 21
4.7
  0
CIRCLE
  5
26F
100
AcDbEntity
  8
0
  6
ByLayer
 62
  256
370
   -1
100
AcDbCircle
 10
36.50000000000001
 20
6.199999999999998
 40
0.1699999999999999
  0
ARC
  5
270
100
AcDbEntity
  8
0
  6
ByLayer
 62
  256
370
   -1
100
AcDbCircle
 10
42.40000000000001
 20
8.03333333333333
 40
0.7007932013876168
100
AcDbArc
 50
244.6538240580534
 51
357.2736890060939
  0
ARC
  5
271
100
AcDbEntity
  8
0
  6
ByLayer
 62
  256
370
   -1
100
AcDbCircle
 10
41.30925925925926
 20
4.324074074074067
 40
3.175939423359732
100
AcDbArc
 50
75.5829246865155
 51
110.4426503218511
  0
LINE
  5
272
100
AcDbEntity
  8
0
  6
ByLayer
 62
  256
370
   -1
100
AcDbLine
 10
39.02999999999999
 20
8
 11
43.70000000000001
 21
37.4
  0
ARC
  5
273
100
AcDbEntity
  8
0
  6
ByLayer
 62
  256
370
   -1
100
AcDbCircle
 10
39.79
 20
7.942499999999997
 40
0.7621720606267336
100
AcDbArc
 50
175.6733647699038
 51
302.5432624157481
  0
ARC
  5
274
100
AcDbEntity
  8
0
  6
ByLayer
 62
  256
370
   -1
100
AcDbCircle
 10
45.77272727272726
 20
35.96363636363636
 40
1.747276511205837
100
AcDbArc
 50
351.3218311147594
 51
40.568960687086
  0
ARC
  5
275
100
AcDbEntity
  8
0
  6
ByLayer
 62
  256
370
   -1
100
AcDbCircle
 10
42.37352941176478
 20
29.87941176470601
 40
8.629972113808867
100
AcDbArc
 50
56.79194439170529
 51
72.28136548455142
  0
ARC
  5
276
100
AcDbEntity
  8
0
  6
ByLayer
 62
  256
370
   -1
100
AcDbCircle
 10
44.72441860465116
 20
37.05465116279072
 40
1.081063965229263
100
AcDbArc
 50
75.23134320717267
 51
161.3701683248404
  0
LINE
  5
277
100
AcDbEntity
  8
0
  6
ByLayer
 62
  256
370
   -1
100
AcDbLine
 10
2.966805302113796
 20
36.22016672872036
 11
2.674867306784392
 21
36.15108556715627
  0
CIRCLE
  5
278
100
AcDbEntity
  8
0
  6
ByLayer
 62
  256
370
   -1
100
AcDbCircle
 10
4.499191958956164
 20
27.33838038894109
 40
0.1699999999999999
  0
CIRCLE
  5
279
100
AcDbEntity
  8
0
  6
ByLayer
 62
  256
370
   -1
100
AcDbCircle
 10
3.702164902143638
 20
31.25816965249963
 40
0.1699999999999999
  0
ARC
  5
27A
100
AcDbEntity
  8
0
  6
ByLayer
 62
  256
370
   -1
100
AcDbCircle
 10
3.125682926182547
 20
35.51108406868436
 40
0.7177133829043584
100
AcDbArc
 50
12.89068102729627
 51
100.0963189727037
  0
CIRCLE
  5
27B
100
AcDbEntity
  8
0
  6
ByLayer
 62
  256
370
   -1
100
AcDbCircle
 10
2.905137845331112
 20
35.17795891605816
 40
0.1699999999999999
  0
ARC
  5
27C
100
AcDbEntity
  8
0
  6
ByLayer
 62
  256
370
   -1
100
AcDbCircle
 10
2.572012692704907
 20
35.39850399690959
 40
0.7177133829043584
100
AcDbArc
 50
102.8906810272962
 51
190.0963189727038
  0
LINE
  5
27D
100
AcDbEntity
  8
0
  6
ByLayer
 62
  256
370
   -1
100
AcDbLine
 10
2.411896886361073
 20
36.09812920268696
 11
2.70588108112798
 21
36.15790623194779
  0
LINE
  5
27E
100
AcDbEntity
  8
0
  6
ByLayer
 62
  256
370
   -1
100
AcDbLine
 10
4.2
 20
26.6
 11
2.6
 21
31.6
  0
LINE
  5
27F
100
AcDbEntity
  8
0
  6
ByLayer
 62
  256
370
   -1
100
AcDbLine
 10
2.6
 20
31.6
 11
1.865413500180528
 21
35.27268634662191
  0
LINE
  5
280
100
AcDbEntity
  8
0
  6
ByLayer
 62
  256
370
   -1
100
AcDbLine
 10
5.600000000000001
 20
27
 11
3.82530813195982
 21
35.67119987502818
  0
ARC
  5
281
100
AcDbEntity
  8
0
  6
ByLayer
 62
  256
370
   -1
100
AcDbCircle
 10
4.90909090909091
 20
26.76818181818182
 40
0.7287626783269809
100
AcDbArc
 50
193.342833698423
 51
18.54795810342282
  0
CIRCLE
  5
282
100
AcDbEntity
  8
0
  6
ByLayer
 62
  256
370
   -1
100
AcDbCircle
 10
12.60000000000001
 20
8.400000000000002
 40
0.1699999999999999
  0
CIRCLE
  5
283
100
AcDbEntity
  8
0
  6
ByLayer
 62
  256
370
   -1
100
AcDbCircle
 10
12.03791568093979
 20
12.36031074768971
 40
0.1699999999999999
  0
CIRCLE
  5
284
100
AcDbEntity
  8
0
  6
ByLayer
 62
  256
370
   -1
100
AcDbCircle
 10
11.47583136187958
 20
16.32062149537942
 40
0.1699999999999999
  0
CIRCLE
  5
285
100
AcDbEntity
  8
0
  6
ByLayer
 62
  256
370
   -1
100
AcDbCircle
 10
10.91374704281936
 20
20.28093224306913
 40
0.1699999999999999
  0
CIRCLE
  5
286
100
AcDbEntity
  8
0
  6
ByLayer
 62
  256
370
   -1
100
AcDbCircle
 10
10.35166272375915
 20
24.24124299075882
 40
0.1699999999999999
  0
CIRCLE
  5
287
100
AcDbEntity
  8
0
  6
ByLayer
 62
  256
370
   -1
100
AcDbCircle
 10
9.789578404698934
 20
28.20155373844852
 40
0.1699999999999999
  0
CIRCLE
  5
288
100
AcDbEntity
  8
0
  6
ByLayer
 62
  256
370
   -1
100
AcDbCircle
 10
9.227494085638719
 20
32.16186448613827
 40
0.1699999999999999
  0
CIRCLE
  5
289
100
AcDbEntity
  8
0
  6
ByLayer
 62
  256
370
   -1
100
AcDbCircle
 10
8.665409766578506
 20
36.12217523382797
 40
0.1699999999999999
  0
CIRCLE
  5
28A
100
AcDbEntity
  8
0
  6
ByLayer
 62
  256
370
   -1
100
AcDbCircle
 10
8.249999999999998
 20
39
 40
0.1699999999999999
  0
ARC
  5
28B
100
AcDbEntity
  8
0
  6
ByLayer
 62
  256
370
   -1
100
AcDbCircle
 10
8.56343356618194
 20
39.16849483362067
 40
0.7177133829043584
100
AcDbArc
 50
27.50918102729614
 51
114.7148189727038
  0
LINE
  5
28C
100
AcDbEntity
  8
0
  6
ByLayer
 62
  256
370
   -1
100
AcDbLine
 10
8.263356139342321
 20
39.82046572093197
 11
7.993975514716046
 21
39.68842754813352
  0
LINE
  5
28D
100
AcDbEntity
  8
0
  6
ByLayer
 62
  256
370
   -1
100
AcDbLine
 10
7.8
 20
39.6
 11
7.993975514716046
 21
39.68842754813352
  0
ARC
  5
28E
100
AcDbEntity
  8
0
  6
ByLayer
 62
  256
370
   -1
100
AcDbCircle
 10
8.134680245204951
 20
38.81584786105054
 40
0.8525874990577083
100
AcDbArc
 50
113.1130436229079
 51
187.8093918579764
  0
CIRCLE
  5
28F
100
AcDbEntity
  8
0
  6
ByLayer
 62
  256
370
   -1
100
AcDbCircle
 10
12.9
 20
6.199999999999998
 40
0.1699999999999999
  0
LINE
  5
290
100
AcDbEntity
  8
0
  6
ByLayer
 62
  256
370
   -1
100
AcDbLine
 10
14
 20
5.699999999999998
 11
9.200000000000001
 21
39.5
  0
ARC
  5
291
100
AcDbEntity
  8
0
  6
ByLayer
 62
  256
370
   -1
100
AcDbCircle
 10
12.89999999999999
 20
6.424999999999995
 40
1.007782218537309
100
AcDbArc
 50
187.1250163489014
 51
246.6147789427864
  0
ARC
  5
292
100
AcDbEntity
  8
0
  6
ByLayer
 62
  256
370
   -1
100
AcDbCircle
 10
13.48333333333333
 20
5.616666666666672
 40
0.5233439489369184
100
AcDbArc
 50
260.8376529542782
 51
9.162347045721907
  0
LINE
  5
293
100
AcDbEntity
  8
0
  6
ByLayer
 62
  256
370
   -1
100
AcDbLine
 10
13.4
 20
5.099999999999998
 11
12.5
 21
5.499999999999999
  0
LINE
  5
294
100
AcDbEntity
  8
0
  6
ByLayer
 62
  256
370
   -1
100
AcDbLine
 10
11.9
 20
6.300000000000001
 11
7.290000000000001
 21
38.7
  0
CIRCLE
  5
295
100
AcDbEntity
  8
0
  6
ByLayer
 62
  256
370
   -1
100
AcDbCircle
 10
17.31551982983185
 20
4.76673560330229
 40
0.1699999999999999
  0
CIRCLE
  5
296
100
AcDbEntity
  8
0
  6
ByLayer
 62
  256
370
   -1
100
AcDbCircle
 10
16.95
 20
8.750000000000014
 40
0.1699999999999999
  0
CIRCLE
  5
297
100
AcDbEntity
  8
0
  6
ByLayer
 62
  256
370
   -1
100
AcDbCircle
 10
16.58448017016816
 20
12.73326439669774
 40
0.1699999999999999
  0
CIRCLE
  5
298
100
AcDbEntity
  8
0
  6
ByLayer
 62
  256
370
   -1
100
AcDbCircle
 10
16.21896034033632
 20
16.71652879339547
 40
0.1699999999999999
  0
CIRCLE
  5
299
100
AcDbEntity
  8
0
  6
ByLayer
 62
  256
370
   -1
100
AcDbCircle
 10
15.85344051050448
 20
20.69979319009319
 40
0.1699999999999999
  0
CIRCLE
  5
29A
100
AcDbEntity
  8
0
  6
ByLayer
 62
  256
370
   -1
100
AcDbCircle
 10
15.48792068067264
 20
24.68305758679091
 40
0.1699999999999999
  0
CIRCLE
  5
29B
100
AcDbEntity
  8
0
  6
ByLayer
 62
  256
370
   -1
100
AcDbCircle
 10
15.12240085084079
 20
28.66632198348862
 40
0.1699999999999999
  0
CIRCLE
  5
29C
100
AcDbEntity
  8
0
  6
ByLayer
 62
  256
370
   -1
100
AcDbCircle
 10
14.75688102100895
 20
32.64958638018636
 40
0.1699999999999999
  0
CIRCLE
  5
29D
100
AcDbEntity
  8
0
  6
ByLayer
 62
  256
370
   -1
100
AcDbCircle
 10
14.39136119117711
 20
36.6328507768841
 40
0.1699999999999999
  0
CIRCLE
  5
29E
100
AcDbEntity
  8
0
  6
ByLayer
 62
  256
370
   -1
100
AcDbCircle
 10
14.02584136134527
 20
40.61611517358181
 40
0.1699999999999999
  0
ARC
  5
29F
100
AcDbEntity
  8
0
  6
ByLayer
 62
  256
370
   -1
100
AcDbCircle
 10
17.44985837124871
 20
4.516477828331599
 40
1.111575336930546
100
AcDbArc
 50
187.2285592101829
 51
246.1274550141973
  0
ARC
  5
2A0
100
AcDbEntity
  8
0
  6
ByLayer
 62
  256
370
   -1
100
AcDbCircle
 10
17.85909090909091
 20
3.722727272727278
 40
0.5464006945532432
100
AcDbArc
 50
253.0724869358529
 51
8.130102354155833
  0
LINE
  5
2A1
100
AcDbEntity
  8
0
  6
ByLayer
 62
  256
370
   -1
100
AcDbLine
 10
17.7
 20
3.199999999999997
 11
17
 21
3.5
  0
LINE
  5
2A2
100
AcDbEntity
  8
0
  6
ByLayer
 62
  256
370
   -1
100
AcDbLine
 10
21.46
 20
4.470000000000002
 11
18.75278316991497
 21
43.56536264993819
  0
LINE
  5
2A3
100
AcDbEntity
  8
0
  6
ByLayer
 62
  256
370
   -1
100
AcDbLine
 10
18.40000000000001
 20
3.800000000000003
 11
14.92
 21
41.81
  0
LINE
  5
2A4
100
AcDbEntity
  8
0
  6
ByLayer
 62
  256
370
   -1
100
AcDbLine
 10
16.3471177178948
 20
4.376610816091986
 11
13
 21
40.87999999999998
  0
ARC
  5
2A5
100
AcDbEntity
  8
0
  6
ByLayer
 62
  256
370
   -1
100
AcDbCircle
 10
14.18394736842106
 20
41.65184210526317
 40
0.7528528382903678
100
AcDbArc
 50
12.1269292112441
 51
96.402118759022
  0
ARC
  5
2A6
100
AcDbEntity
  8
0
  6
ByLayer
 62
  256
370
   -1
100
AcDbCircle
 10
14.35275000000001
 20
41.0590625
 40
1.364549721119119
100
AcDbArc
 50
100.674305269303
 51
187.5403633552058
  0
CIRCLE
  5
2A7
100
AcDbEntity
  8
0
  6
ByLayer
 62
  256
370
   -1
100
AcDbCircle
 10
21.52995997362271
 20
5.004513145007078
 40
0.1699999999999999
  0
ARC
  5
2A8
100
AcDbEntity
  8
0
  6
ByLayer
 62
  256
370
   -1
100
AcDbCircle
 10
21.26119463762594
 20
4.708915962736082
 40
0.7177133829043584
100
AcDbArc
 50
184.1191810272962
 51
271.3248189727037
  0
CIRCLE
  5
2A9
100
AcDbEntity
  8
0
  6
ByLayer
 62
  256
370
   -1
100
AcDbCircle
 10
21.34
 20
9
 40
0.1699999999999999
  0
CIRCLE
  5
2AA
100
AcDbEntity
  8
0
  6
ByLayer
 62
  256
370
   -1
100
AcDbCircle
 10
21.1500400263773
 20
12.99548685499293
 40
0.1699999999999999
  0
CIRCLE
  5
2AB
100
AcDbEntity
  8
0
  6
ByLayer
 62
  256
370
   -1
100
AcDbCircle
 10
20.96008005275459
 20
16.99097370998585
 40
0.1699999999999999
  0
CIRCLE
  5
2AC
100
AcDbEntity
  8
0
  6
ByLayer
 62
  256
370
   -1
100
AcDbCircle
 10
20.77012007913189
 20
20.98646056497879
 40
0.1699999999999999
  0
CIRCLE
  5
2AD
100
AcDbEntity
  8
0
  6
ByLayer
 62
  256
370
   -1
100
AcDbCircle
 10
20.58016010550919
 20
24.98194741997169
 40
0.1699999999999999
  0
CIRCLE
  5
2AE
100
AcDbEntity
  8
0
  6
ByLayer
 62
  256
370
   -1
100
AcDbCircle
 10
20.39020013188649
 20
28.97743427496461
 40
0.1699999999999999
  0
CIRCLE
  5
2AF
100
AcDbEntity
  8
0
  6
ByLayer
 62
  256
370
   -1
100
AcDbCircle
 10
20.20024015826378
 20
32.97292112995754
 40
0.1699999999999999
  0
CIRCLE
  5
2B0
100
AcDbEntity
  8
0
  6
ByLayer
 62
  256
370
   -1
100
AcDbCircle
 10
20.01028018464108
 20
36.96840798495045
 40
0.1699999999999999
  0
CIRCLE
  5
2B1
100
AcDbEntity
  8
0
  6
ByLayer
 62
  256
370
   -1
100
AcDbCircle
 10
19.82032021101838
 20
40.96389483994339
 40
0.1699999999999999
  0
CIRCLE
  5
2B2
100
AcDbEntity
  8
0
  6
ByLayer
 62
  256
370
   -1
100
AcDbCircle
 10
19.65
 20
44
 40
0.1699999999999999
  0
ARC
  5
2B3
100
AcDbEntity
  8
0
  6
ByLayer
 62
  256
370
   -1
100
AcDbCircle
 10
19.95414062027023
 20
44.10844567474084
 40
0.7177133829043584
100
AcDbArc
 50
4.119181027296122
 51
91.32481897270374
  0
LINE
  5
2B4
100
AcDbEntity
  8
0
  6
ByLayer
 62
  256
370
   -1
100
AcDbLine
 10
19.93754680499224
 20
44.82596720423989
 11
19.63788529086778
 21
44.81172020621809
  0
ARC
  5
2B5
100
AcDbEntity
  8
0
  6
ByLayer
 62
  256
370
   -1
100
AcDbCircle
 10
19.38977810200248
 20
44.08161382846664
 40
0.7177133829043584
100
AcDbArc
 50
94.11918102729618
 51
181.3248189727037
  0
LINE
  5
2B6
100
AcDbEntity
  8
0
  6
ByLayer
 62
  256
370
   -1
100
AcDbLine
 10
19.33822377674331
 20
44.79747320819651
 11
19.63788529086778
 21
44.81172020621809
  0
LINE
  5
2B7
100
AcDbEntity
  8
0
  6
ByLayer
 62
  256
370
   -1
100
AcDbLine
 10
20.54533525789618
 20
4.657361637476921
 11
18.67225657250351
 21
44.06502001318865
  0
ARC
  5
2B8
100
AcDbEntity
  8
0
  6
ByLayer
 62
  256
370
   -1
100
AcDbCircle
 10
21.1611278602452
 20
5.371603591714086
 40
1.385130685178548
100
AcDbArc
 50
274.8313761734521
 51
351.2126317671589
  0
ARC
  5
2B9
100
AcDbEntity
  8
0
  6
ByLayer
 62
  256
370
   -1
100
AcDbCircle
 10
26.05249999999999
 20
8.717499999999987
 40
0.7177133829043584
100
AcDbArc
 50
271.3971810272962
 51
358.6028189727038
  0
CIRCLE
  5
2BA
100
AcDbEntity
  8
0
  6
ByLayer
 62
  256
370
   -1
100
AcDbCircle
 10
25.77
 20
9
 40
0.1699999999999999
  0
LINE
  5
2BB
100
AcDbEntity
  8
0
  6
ByLayer
 62
  256
370
   -1
100
AcDbLine
 10
26.06999999999999
 20
7.999999999999975
 11
25.77
 21
8
  0
ARC
  5
2BC
100
AcDbEntity
  8
0
  6
ByLayer
 62
  256
370
   -1
100
AcDbCircle
 10
25.4875
 20
8.717499999999987
 40
0.7177133829043584
100
AcDbArc
 50
181.3971810272962
 51
268.6028189727038
  0
LINE
  5
2BD
100
AcDbEntity
  8
0
  6
ByLayer
 62
  256
370
   -1
100
AcDbLine
 10
25.47
 20
7.999999999999975
 11
25.77
 21
8
  0
CIRCLE
  5
2BE
100
AcDbEntity
  8
0
  6
ByLayer
 62
  256
370
   -1
100
AcDbCircle
 10
25.77
 20
13
 40
0.1699999999999999
  0
CIRCLE
  5
2BF
100
AcDbEntity
  8
0
  6
ByLayer
 62
  256
370
   -1
100
AcDbCircle
 10
25.77
 20
17
 40
0.1699999999999999
  0
CIRCLE
  5
2C0
100
AcDbEntity
  8
0
  6
ByLayer
 62
  256
370
   -1
100
AcDbCircle
 10
25.77
 20
21
 40
0.1699999999999999
  0
CIRCLE
  5
2C1
100
AcDbEntity
  8
0
  6
ByLayer
 62
  256
370
   -1
100
AcDbCircle
 10
25.77
 20
25
 40
0.1699999999999999
  0
CIRCLE
  5
2C2
100
AcDbEntity
  8
0
  6
ByLayer
 62
  256
370
   -1
100
AcDbCircle
 10
25.77
 20
28.99999999999999
 40
0.1699999999999999
  0
CIRCLE
  5
2C3
100
AcDbEntity
  8
0
  6
ByLayer
 62
  256
370
   -1
100
AcDbCircle
 10
25.77
 20
32.99999999999999
 40
0.1699999999999999
  0
CIRCLE
  5
2C4
100
AcDbEntity
  8
0
  6
ByLayer
 62
  256
370
   -1
100
AcDbCircle
 10
25.77
 20
37.00000000000001
 40
0.1699999999999999
  0
CIRCLE
  5
2C5
100
AcDbEntity
  8
0
  6
ByLayer
 62
  256
370
   -1
100
AcDbCircle
 10
25.77
 20
41.00000000000001
 40
0.1699999999999999
  0
LINE
  5
2C6
100
AcDbEntity
  8
0
  6
ByLayer
 62
  256
370
   -1
100
AcDbLine
 10
25.97
 20
9.1
 11
26.55
 21
44.6
  0
ARC
  5
2C7
100
AcDbEntity
  8
0
  6
ByLayer
 62
  256
370
   -1
100
AcDbCircle
 10
20.87857142857142
 20
1.021428571428555
 40
8.5565883435884
100
AcDbArc
 50
20.37131105523867
 51
44.32357594364544
  0
ARC
  5
2C8
100
AcDbEntity
  8
0
  6
ByLayer
 62
  256
370
   -1
100
AcDbCircle
 10
29.40673913043482
 20
9.483043478260882
 40
3.458019397993609
100
AcDbArc
 50
186.3596824055593
 51
225.8940197591421
  0
LINE
  5
2C9
100
AcDbEntity
  8
0
  6
ByLayer
 62
  256
370
   -1
100
AcDbLine
 10
25.58
 20
9.109999999999999
 11
24.59134881013159
 21
44.63009325665612
  0
ARC
  5
2CA
100
AcDbEntity
  8
0
  6
ByLayer
 62
  256
370
   -1
100
AcDbCircle
 10
31.40000000000001
 20
-1.19999999999998
 40
10.88531120363583
100
AcDbArc
 50
128.6598082540902
 51
141.34019174591
  0
ARC
  5
2CB
100
AcDbEntity
  8
0
  6
ByLayer
 62
  256
370
   -1
100
AcDbCircle
 10
23.50625
 20
9.0625
 40
2.074293931076312
100
AcDbArc
 50
301.8223886865457
 51
1.312151280430017
  0
CIRCLE
  5
2CC
100
AcDbEntity
  8
0
  6
ByLayer
 62
  256
370
   -1
100
AcDbCircle
 10
25.8
 20
44
 40
0.1699999999999999
  0
ARC
  5
2CD
100
AcDbEntity
  8
0
  6
ByLayer
 62
  256
370
   -1
100
AcDbCircle
 10
26.05250000000002
 20
44.4825
 40
0.7177133829043584
100
AcDbArc
 50
1.39718102729622
 51
88.60281897270377
  0
LINE
  5
2CE
100
AcDbEntity
  8
0
  6
ByLayer
 62
  256
370
   -1
100
AcDbLine
 10
26.07000000000001
 20
45.2000000000001
 11
25.77000000000002
 21
45.2
  0
ARC
  5
2CF
100
AcDbEntity
  8
0
  6
ByLayer
 62
  256
370
   -1
100
AcDbCircle
 10
25.48750000000002
 20
44.4825
 40
0.7177133829043584
100
AcDbArc
 50
91.39718102729621
 51
178.6028189727038
  0
LINE
  5
2D0
100
AcDbEntity
  8
0
  6
ByLayer
 62
  256
370
   -1
100
AcDbLine
 10
25.47000000000002
 20
45.2000000000001
 11
25.77000000000002
 21
45.2
  0
LINE
  5
2D1
100
AcDbEntity
  8
0
  6
ByLayer
 62
  256
370
   -1
100
AcDbLine
 10
24.77
 20
8.699999999999989
 11
24.77000000000001
 21
44.5
  0
LINE
  5
2D2
100
AcDbEntity
  8
0
  6
ByLayer
 62
  256
370
   -1
100
AcDbLine
 10
26.77000000000001
 20
8.699999999999989
 11
26.77000000000003
 21
44.5
  0
CIRCLE
  5
2D3
100
AcDbEntity
  8
0
  6
ByLayer
 62
  256
370
   -1
100
AcDbCircle
 10
29.99989714178576
 20
4.95281735068863
 40
0.1699999999999999
  0
CIRCLE
  5
2D4
100
AcDbEntity
  8
0
  6
ByLayer
 62
  256
370
   -1
100
AcDbCircle
 10
30.15000000000001
 20
8.950000000000003
 40
0.1699999999999999
  0
CIRCLE
  5
2D5
100
AcDbEntity
  8
0
  6
ByLayer
 62
  256
370
   -1
100
AcDbCircle
 10
30.30010285821425
 20
12.94718264931138
 40
0.1699999999999999
  0
CIRCLE
  5
2D6
100
AcDbEntity
  8
0
  6
ByLayer
 62
  256
370
   -1
100
AcDbCircle
 10
30.4502057164285
 20
16.94436529862276
 40
0.1699999999999999
  0
CIRCLE
  5
2D7
100
AcDbEntity
  8
0
  6
ByLayer
 62
  256
370
   -1
100
AcDbCircle
 10
30.60030857464274
 20
20.94154794793412
 40
0.1699999999999999
  0
CIRCLE
  5
2D8
100
AcDbEntity
  8
0
  6
ByLayer
 62
  256
370
   -1
100
AcDbCircle
 10
30.75041143285699
 20
24.9387305972455
 40
0.1699999999999999
  0
CIRCLE
  5
2D9
100
AcDbEntity
  8
0
  6
ByLayer
 62
  256
370
   -1
100
AcDbCircle
 10
30.90051429107123
 20
28.93591324655686
 40
0.1699999999999999
  0
CIRCLE
  5
2DA
100
AcDbEntity
  8
0
  6
ByLayer
 62
  256
370
   -1
100
AcDbCircle
 10
31.05061714928548
 20
32.93309589586825
 40
0.1699999999999999
  0
CIRCLE
  5
2DB
100
AcDbEntity
  8
0
  6
ByLayer
 62
  256
370
   -1
100
AcDbCircle
 10
31.20072000749973
 20
36.93027854517962
 40
0.1699999999999999
  0
CIRCLE
  5
2DC
100
AcDbEntity
  8
0
  6
ByLayer
 62
  256
370
   -1
100
AcDbCircle
 10
31.35082286571397
 20
40.927461194491
 40
0.1699999999999999
  0
CIRCLE
  5
2DD
100
AcDbEntity
  8
0
  6
ByLayer
 62
  256
370
   -1
100
AcDbCircle
 10
31.4
 20
43.1
 40
0.1699999999999999
  0
ARC
  5
2DE
100
AcDbEntity
  8
0
  6
ByLayer
 62
  256
370
   -1
100
AcDbCircle
 10
31.74093998693079
 20
43.78438559699433
 40
0.7177133829043584
100
AcDbArc
 50
359.2466110272962
 51
86.4522489727038
  0
LINE
  5
2DF
100
AcDbEntity
  8
0
  6
ByLayer
 62
  256
370
   -1
100
AcDbLine
 10
31.7853523612137
 20
44.50072353470996
 11
31.48556366251535
 21
44.51198124907592
  0
ARC
  5
2E0
100
AcDbEntity
  8
0
  6
ByLayer
 62
  256
370
   -1
100
AcDbCircle
 10
31.17633793771556
 20
43.80558762571708
 40
0.7177133829043584
100
AcDbArc
 50
89.24661102729624
 51
176.4522489727038
  0
LINE
  5
2E1
100
AcDbEntity
  8
0
  6
ByLayer
 62
  256
370
   -1
100
AcDbLine
 10
31.185774963817
 20
44.5232389634421
 11
31.48556366251535
 21
44.51198124907592
  0
ARC
  5
2E2
100
AcDbEntity
  8
0
  6
ByLayer
 62
  256
370
   -1
100
AcDbCircle
 10
30.25225338694016
 20
4.169360945175796
 40
0.7177133829043584
100
AcDbArc
 50
269.2466110272962
 51
356.4522489727038
  0
LINE
  5
2E3
100
AcDbEntity
  8
0
  6
ByLayer
 62
  256
370
   -1
100
AcDbLine
 10
30.24281636083872
 20
3.45170960745086
 11
29.94302766214037
 21
3.462967321816957
  0
ARC
  5
2E4
100
AcDbEntity
  8
0
  6
ByLayer
 62
  256
370
   -1
100
AcDbCircle
 10
29.68765133772493
 20
4.190562973898555
 40
0.7177133829043584
100
AcDbArc
 50
179.2466110272962
 51
266.4522489727038
  0
LINE
  5
2E5
100
AcDbEntity
  8
0
  6
ByLayer
 62
  256
370
   -1
100
AcDbLine
 10
29.64323896344202
 20
3.474225036182995
 11
29.94302766214037
 21
3.462967321816957
  0
CIRCLE
  5
2E6
100
AcDbEntity
  8
0
  6
ByLayer
 62
  256
370
   -1
100
AcDbCircle
 10
34.24702275781684
 20
4.813060609812124
 40
0.1699999999999999
  0
CIRCLE
  5
2E7
100
AcDbEntity
  8
0
  6
ByLayer
 62
  256
370
   -1
100
AcDbCircle
 10
34.56999999999999
 20
8.800000000000011
 40
0.1699999999999999
  0
CIRCLE
  5
2E8
100
AcDbEntity
  8
0
  6
ByLayer
 62
  256
370
   -1
100
AcDbCircle
 10
34.89297724218315
 20
12.7869393901879
 40
0.1699999999999999
  0
CIRCLE
  5
2E9
100
AcDbEntity
  8
0
  6
ByLayer
 62
  256
370
   -1
100
AcDbCircle
 10
35.21595448436631
 20
16.77387878037579
 40
0.1699999999999999
  0
CIRCLE
  5
2EA
100
AcDbEntity
  8
0
  6
ByLayer
 62
  256
370
   -1
100
AcDbCircle
 10
35.53893172654946
 20
20.76081817056367
 40
0.1699999999999999
  0
CIRCLE
  5
2EB
100
AcDbEntity
  8
0
  6
ByLayer
 62
  256
370
   -1
100
AcDbCircle
 10
35.86190896873262
 20
24.74775756075154
 40
0.1699999999999999
  0
CIRCLE
  5
2EC
100
AcDbEntity
  8
0
  6
ByLayer
 62
  256
370
   -1
100
AcDbCircle
 10
36.18488621091578
 20
28.73469695093943
 40
0.1699999999999999
  0
CIRCLE
  5
2ED
100
AcDbEntity
  8
0
  6
ByLayer
 62
  256
370
   -1
100
AcDbCircle
 10
36.50786345309893
 20
32.72163634112732
 40
0.1699999999999999
  0
CIRCLE
  5
2EE
100
AcDbEntity
  8
0
  6
ByLayer
 62
  256
370
   -1
100
AcDbCircle
 10
36.83084069528208
 20
36.70857573131521
 40
0.1699999999999999
  0
CIRCLE
  5
2EF
100
AcDbEntity
  8
0
  6
ByLayer
 62
  256
370
   -1
100
AcDbCircle
 10
37.15381793746524
 20
40.6955151215031
 40
0.1699999999999999
  0
ARC
  5
2F0
100
AcDbEntity
  8
0
  6
ByLayer
 62
  256
370
   -1
100
AcDbCircle
 10
33.7227941532523
 20
4.596208309066196
 40
0.4967315768187311
100
AcDbArc
 50
180.1642341830685
 51
267.3698721284766
  0
ARC
  5
2F1
100
AcDbEntity
  8
0
  6
ByLayer
 62
  256
370
   -1
100
AcDbCircle
 10
33.94050632911392
 20
5.438607594936718
 40
1.360041759493478
100
AcDbArc
 50
259.8143953559848
 51
358.3733224164744
  0
LINE
  5
2F2
100
AcDbEntity
  8
0
  6
ByLayer
 62
  256
370
   -1
100
AcDbLine
 10
33.22606461710613
 20
4.594784466093812
 11
36.23999999999999
 21
41.8
  0
ARC
  5
2F3
100
AcDbEntity
  8
0
  6
ByLayer
 62
  256
370
   -1
100
AcDbCircle
 10
37.01000000000001
 20
41.11
 40
1.19507321951419
100
AcDbArc
 50
354.7187593715553
 51
65.79411495550363
  0
ARC
  5
2F4
100
AcDbEntity
  8
0
  6
ByLayer
 62
  256
370
   -1
100
AcDbCircle
 10
36.98971138606903
 20
41.55403551032337
 40
0.7890283217879087
100
AcDbArc
 50
74.63078995905792
 51
161.8364279044652
  0
LINE
  5
2F5
100
AcDbEntity
  8
0
  6
ByLayer
 62
  256
370
   -1
100
AcDbLine
 10
37.1988338646654
 20
42.31484657854543
 11
37.50000000000001
 21
42.2
  0
LINE
  5
2F6
100
AcDbEntity
  8
0
  6
ByLayer
 62
  256
370
   -1
100
AcDbLine
 10
35.3
 20
5.400000000000003
 11
38.20000000000001
 21
40.99999999999999
  0
CIRCLE
  5
2F7
100
AcDbEntity
  8
0
  6
ByLayer
 62
  256
370
   -1
100
AcDbCircle
 10
38.93000000000001
 20
8.549999999999997
 40
0.1699999999999999
  0
CIRCLE
  5
2F8
100
AcDbEntity
  8
0
  6
ByLayer
 62
  256
370
   -1
100
AcDbCircle
 10
39.45219198079896
 20
12.51576796285275
 40
0.1699999999999999
  0
CIRCLE
  5
2F9
100
AcDbEntity
  8
0
  6
ByLayer
 62
  256
370
   -1
100
AcDbCircle
 10
39.97438396159792
 20
16.4815359257055
 40
0.1699999999999999
  0
CIRCLE
  5
2FA
100
AcDbEntity
  8
0
  6
ByLayer
 62
  256
370
   -1
100
AcDbCircle
 10
40.49657594239687
 20
20.44730388855825
 40
0.1699999999999999
  0
CIRCLE
  5
2FB
100
AcDbEntity
  8
0
  6
ByLayer
 62
  256
370
   -1
100
AcDbCircle
 10
41.01876792319582
 20
24.413071851411
 40
0.1699999999999999
  0
CIRCLE
  5
2FC
100
AcDbEntity
  8
0
  6
ByLayer
 62
  256
370
   -1
100
AcDbCircle
 10
41.54095990399478
 20
28.37883981426374
 40
0.1699999999999999
  0
CIRCLE
  5
2FD
100
AcDbEntity
  8
0
  6
ByLayer
 62
  256
370
   -1
100
AcDbCircle
 10
42.06315188479373
 20
32.34460777711648
 40
0.1699999999999999
  0
CIRCLE
  5
2FE
100
AcDbEntity
  8
0
  6
ByLayer
 62
  256
370
   -1
100
AcDbCircle
 10
42.58534386559268
 20
36.31037573996925
 40
0.1699999999999999
  0
CIRCLE
  5
2FF
100
AcDbEntity
  8
0
  6
ByLayer
 62
  256
370
   -1
100
AcDbCircle
 10
42.90000000000001
 20
38.7
 40
0.1699999999999999
  0
LINE
  5
300
100
AcDbEntity
  8
0
  6
ByLayer
 62
  256
370
   -1
100
AcDbLine
 10
43.4358048720365
 20
39.26472113229231
 11
43.16747673539628
 21
39.3988852522618
  0
ARC
  5
301
100
AcDbEntity
  8
0
  6
ByLayer
 62
  256
370
   -1
100
AcDbCircle
 10
42.59392521979954
 20
38.88347167176873
 40
0.7177133829043584
100
AcDbArc
 50
64.83212102729618
 51
152.0377589727038
  0
LINE
  5
302
100
AcDbEntity
  8
0
  6
ByLayer
 62
  256
370
   -1
100
AcDbLine
 10
42.89914859875616
 20
39.53304937223147
 11
43.16747673539628
 21
39.3988852522618
  0
ARC
  5
303
100
AcDbEntity
  8
0
  6
ByLayer
 62
  256
370
   -1
100
AcDbCircle
 10
43.08183389737041
 20
38.54706515070644
 40
0.8002034483880116
100
AcDbArc
 50
355.9105775410127
 51
63.74600504010757
  0
LINE
  5
304
100
AcDbEntity
  8
0
  6
ByLayer
 62
  256
370
   -1
100
AcDbLine
 10
39.8
 20
7.5
 11
43.88
 21
38.49000000000002
  0
ARC
  5
305
100
AcDbEntity
  8
0
  6
ByLayer
 62
  256
370
   -1
100
AcDbCircle
 10
39.09092496157927
 20
7.611018421393299
 40
0.7177133829043584
100
AcDbArc
 50
263.8959210272963
 51
351.1015589727038
  0
LINE
  5
306
100
AcDbEntity
  8
0
  6
ByLayer
 62
  256
370
   -1
100
AcDbLine
 10
39.01460700986094
 20
6.897374203140568
 11
38.71717441264698
 21
6.936538601700525
  0
ARC
  5
307
100
AcDbEntity
  8
0
  6
ByLayer
 62
  256
370
   -1
100
AcDbCircle
 10
38.53076023682632
 20
7.684778038681145
 40
0.7177133829043584
100
AcDbArc
 50
173.8959210272962
 51
261.1015589727038
  0
LINE
  5
308
100
AcDbEntity
  8
0
  6
ByLayer
 62
  256
370
   -1
100
AcDbLine
 10
38.41974181543303
 20
6.975703000260411
 11
38.71717441264698
 21
6.936538601700525
  0
LINE
  5
309
100
AcDbEntity
  8
0
  6
ByLayer
 62
  256
370
   -1
100
AcDbLine
 10
37.81711601857361
 20
7.761095990399481
 11
41.96
 21
39.21999999999999
  0
ARC
  5
30A
100
AcDbEntity
  8
0
  6
ByLayer
 62
  256
370
   -1
100
AcDbCircle
 10
43.43347492436964
 20
7.808833186780467
 40
0.7177133829043584
100
AcDbArc
 50
260.4090810272962
 51
347.6147189727038
  0
CIRCLE
  5
30B
100
AcDbEntity
  8
0
  6
ByLayer
 62
  256
370
   -1
100
AcDbCircle
 10
43.21
 20
8.140000000000011
 40
0.1699999999999999
  0
LINE
  5
30C
100
AcDbEntity
  8
0
  6
ByLayer
 62
  256
370
   -1
100
AcDbLine
 10
43.3138949246493
 20
7.101151673904155
 11
43.01939488699134
 21
7.158333207806779
  0
ARC
  5
30D
100
AcDbEntity
  8
0
  6
ByLayer
 62
  256
370
   -1
100
AcDbCircle
 10
42.87883318678046
 20
7.916525075630359
 40
0.7177133829043584
100
AcDbArc
 50
170.4090810272962
 51
257.6147189727038
  0
LINE
  5
30E
100
AcDbEntity
  8
0
  6
ByLayer
 62
  256
370
   -1
100
AcDbLine
 10
42.72489484933337
 20
7.21551474170934
 11
43.01939488699134
 21
7.158333207806779
  0
CIRCLE
  5
30F
100
AcDbEntity
  8
0
  6
ByLayer
 62
  256
370
   -1
100
AcDbCircle
 10
43.97242045203463
 20
12.06666716877296
 40
0.1699999999999999
  0
CIRCLE
  5
310
100
AcDbEntity
  8
0
  6
ByLayer
 62
  256
370
   -1
100
AcDbCircle
 10
44.73484090406927
 20
15.9933343375459
 40
0.1699999999999999
  0
CIRCLE
  5
311
100
AcDbEntity
  8
0
  6
ByLayer
 62
  256
370
   -1
100
AcDbCircle
 10
45.4972613561039
 20
19.92000150631884
 40
0.1699999999999999
  0
CIRCLE
  5
312
100
AcDbEntity
  8
0
  6
ByLayer
 62
  256
370
   -1
100
AcDbCircle
 10
46.25968180813852
 20
23.84666867509177
 40
0.1699999999999999
  0
CIRCLE
  5
313
100
AcDbEntity
  8
0
  6
ByLayer
 62
  256
370
   -1
100
AcDbCircle
 10
47.02210226017316
 20
27.7733358438647
 40
0.1699999999999999
  0
CIRCLE
  5
314
100
AcDbEntity
  8
0
  6
ByLayer
 62
  256
370
   -1
100
AcDbCircle
 10
47.78452271220779
 20
31.70000301263764
 40
0.1699999999999999
  0
CIRCLE
  5
315
100
AcDbEntity
  8
0
  6
ByLayer
 62
  256
370
   -1
100
AcDbCircle
 10
48.54694316424242
 20
35.6266701814106
 40
0.1699999999999999
  0
LINE
  5
316
100
AcDbEntity
  8
0
  6
ByLayer
 62
  256
370
   -1
100
AcDbLine
 10
49.06699314392804
 20
36.16712604724667
 11
48.7884501182153
 21
36.27854320403498
  0
ARC
  5
317
100
AcDbEntity
  8
0
  6
ByLayer
 62
  256
370
   -1
100
AcDbCircle
 10
48.25968273568358
 20
35.71727895684784
 40
0.7177133829043584
100
AcDbArc
 50
69.59578102729621
 51
156.8014189727038
  0
LINE
  5
318
100
AcDbEntity
  8
0
  6
ByLayer
 62
  256
370
   -1
100
AcDbLine
 10
48.50990709250264
 20
36.38996036082345
 11
48.7884501182153
 21
36.27854320403498
  0
ARC
  5
319
100
AcDbEntity
  8
0
  6
ByLayer
 62
  256
370
   -1
100
AcDbCircle
 10
48.82825539715955
 20
35.5062344241855
 40
0.7026901516062433
100
AcDbArc
 50
342.9328254271313
 51
70.13846337253911
  0
LINE
  5
31A
100
AcDbEntity
  8
0
  6
ByLayer
 62
  256
370
   -1
100
AcDbLine
 10
44.13448525829065
 20
7.65489484933337
 11
49.50000000000001
 21
35.3
  0
LINE
  5
31B
100
AcDbEntity
  8
0
  6
ByLayer
 62
  256
370
   -1
100
AcDbLine
 10
42.17115167390415
 20
8.03610507535069
 11
47.6
 21
36
  0
LINE
  5
31C
100
AcDbEntity
  8
0
  6
ByLayer
 62
  256
370
   -1
100
AcDbLine
 10
30.96859132465572
 20
4.124948570892879
 11
32.45859132465572
 21
43.77494857089287
  0
LINE
  5
31D
100
AcDbEntity
  8
0
  6
ByLayer
 62
  256
370
   -1
100
AcDbLine
 10
28.97
 20
4.2
 11
30.46
 21
43.85
  0
LINE
  5
31E
100
AcDbEntity
  8
0
  6
ByLayer
 62
  256
370
   -1
100
AcDbLine
 10
22.53
 20
5.16
 11
20.67
 21
44.16
  0
ARC
  5
31F
100
AcDbEntity
  8
0
  6
ByLayer
 62
  256
370
   -1
100
AcDbCircle
 10
43.94255894993304
 20
16.18754210709502
 40
19.61074453234635
100
AcDbArc
 50
213.0235706339458
 51
223.5560667787738
  0
ARC
  5
320
100
AcDbEntity
  8
0
  6
ByLayer
 62
  256
370
   -1
100
AcDbCircle
 10
21.91606786937958
 20
1.320309385707124
 40
6.974963202095271
100
AcDbArc
 50
36.81562623919655
 51
51.98615477950121
  0
ARC
  5
321
100
AcDbEntity
  8
0
  6
ByLayer
 62
  256
370
   -1
100
AcDbCircle
 10
31.75000000000002
 20
-1.500000000000011
 40
11.02054898814031
100
AcDbArc
 50
131.137017128495
 51
150.0616615445461
  0
ARC
  5
322
100
AcDbEntity
  8
0
  6
ByLayer
 62
  256
370
   -1
100
AcDbCircle
 10
14.50466299724471
 20
8.834002752066461
 40
9.087672649967146
100
AcDbArc
 50
312.980575106206
 51
327.8640719100143
  0
ARC
  5
323
100
AcDbEntity
  8
0
  6
ByLayer
 62
  256
370
   -1
100
AcDbCircle
 10
2.049318051249911
 20
35.46042461753705
 40
0.6921056968131708
100
AcDbArc
 50
119.5707393171649
 51
199.5871419922656
  0
ARC
  5
324
100
AcDbEntity
  8
0
  6
ByLayer
 62
  256
370
   -1
100
AcDbCircle
 10
-31.643090642318
 20
56.1592716096516
 40
3.0865284197426
100
AcDbArc
 50
195.99910445
 51
302.053579471
  0
ARC
  5
325
100
AcDbEntity
  8
0
  6
ByLayer
 62
  256
370
   -1
100
AcDbCircle
 10
-27.324878125598
 20
54.7749938835974
 40
2.94963615685
100
AcDbArc
 50
204.682048376
 51
310.736523397
  0
ARC
  5
326
100
AcDbEntity
  8
0
  6
ByLayer
 62
  256
370
   -1
100
AcDbCircle
 10
-36.184208108198
 20
57.9063317296214
 40
3.0374934721942
100
AcDbArc
 50
195.159616771
 51
301.214091792
  0
ARC
  5
327
100
AcDbEntity
  8
0
  6
ByLayer
 62
  256
370
   -1
100
AcDbCircle
 10
-19.1569093577836
 20
56.1592716096516
 40
3.0865284197426
100
AcDbArc
 50
237.946420529
 51
344.00089555
  0
ARC
  5
328
100
AcDbEntity
  8
0
  6
ByLayer
 62
  256
370
   -1
100
AcDbCircle
 10
-23.4751218744782
 20
54.7749938835974
 40
2.94963615685
100
AcDbArc
 50
229.263476603
 51
335.317951624
  0
ARC
  5
329
100
AcDbEntity
  8
0
  6
ByLayer
 62
  256
370
   -1
100
AcDbCircle
 10
-14.6157918918274
 20
57.9063317296214
 40
3.0374934721942
100
AcDbArc
 50
238.785908208
 51
344.840383229
  0
LINE
  5
32A
100
AcDbEntity
  8
0
  6
ByLayer
 62
  256
370
   -1
100
AcDbLine
 10
-39.116
 20
62.52
 11
-38.77
 21
62.84
  0
LINE
  5
32B
100
AcDbEntity
  8
0
  6
ByLayer
 62
  256
370
   -1
100
AcDbLine
 10
-39.116
 20
57.112
 11
-39.116
 21
62.52
  0
LINE
  5
32C
100
AcDbEntity
  8
0
  6
ByLayer
 62
  256
370
   -1
100
AcDbLine
 10
-11.684
 20
62.52
 11
-12.03
 21
62.84
  0
ARC
  5
32D
100
AcDbEntity
  8
0
  6
ByLayer
 62
  256
370
   -1
100
AcDbCircle
 10
-25.4
 20
81.17198063973063
 40
22.68961026936027
100
AcDbArc
 50
233.8957361215196
 51
306.1042638784803
  0
LINE
  5
32E
100
AcDbEntity
  8
0
  6
ByLayer
 62
  256
370
   -1
100
AcDbLine
 10
-11.684
 20
57.112
 11
-11.684
 21
62.52
  0
ARC
  5
32F
100
AcDbEntity
  8
0
  6
ByLayer
 62
  256
370
   -1
100
AcDbCircle
 10
31.643090642318
 20
56.1592716096516
 40
3.0865284197426
100
AcDbArc
 50
237.946420529
 51
344.00089555
  0
ARC
  5
330
100
AcDbEntity
  8
0
  6
ByLayer
 62
  256
370
   -1
100
AcDbCircle
 10
27.324878125598
 20
54.7749938835974
 40
2.94963615685
100
AcDbArc
 50
229.263476603
 51
335.317951624
  0
ARC
  5
331
100
AcDbEntity
  8
0
  6
ByLayer
 62
  256
370
   -1
100
AcDbCircle
 10
36.184208108198
 20
57.9063317296214
 40
3.0374934721942
100
AcDbArc
 50
238.7859082080001
 51
344.840383229
  0
ARC
  5
332
100
AcDbEntity
  8
0
  6
ByLayer
 62
  256
370
   -1
100
AcDbCircle
 10
19.1569093577836
 20
56.1592716096516
 40
3.0865284197426
100
AcDbArc
 50
195.99910445
 51
302.053579471
  0
ARC
  5
333
100
AcDbEntity
  8
0
  6
ByLayer
 62
  256
370
   -1
100
AcDbCircle
 10
23.4751218744782
 20
54.7749938835974
 40
2.94963615685
100
AcDbArc
 50
204.682048376
 51
310.736523397
  0
ARC
  5
334
100
AcDbEntity
  8
0
  6
ByLayer
 62
  256
370
   -1
100
AcDbCircle
 10
14.6157918918274
 20
57.9063317296214
 40
3.0374934721942
100
AcDbArc
 50
195.159616771
 51
301.214091792
  0
LINE
  5
335
100
AcDbEntity
  8
0
  6
ByLayer
 62
  256
370
   -1
100
AcDbLine
 10
39.116
 20
62.52
 11
38.77
 21
62.84
  0
LINE
  5
336
100
AcDbEntity
  8
0
  6
ByLayer
 62
  256
370
   -1
100
AcDbLine
 10
39.116
 20
57.112
 11
39.116
 21
62.52
  0
LINE
  5
337
100
AcDbEntity
  8
0
  6
ByLayer
 62
  256
370
   -1
100
AcDbLine
 10
11.684
 20
62.52
 11
12.03
 21
62.84
  0
ARC
  5
338
100
AcDbEntity
  8
0
  6
ByLayer
 62
  256
370
   -1
100
AcDbCircle
 10
25.4
 20
81.17198063973063
 40
22.68961026936027
100
AcDbArc
 50
233.8957361215197
 51
306.1042638784804
  0
LINE
  5
339
100
AcDbEntity
  8
0
  6
ByLayer
 62
  256
370
   -1
100
AcDbLine
 10
11.684
 20
57.112
 11
11.684
 21
62.52
  0
ELLIPSE
  5
33A
100
AcDbEntity
  8
0
  6
ByLayer
 62
  256
370
   -1
100
AcDbEllipse
 10
-30.56462508983
 20
106.20775250694
 30
0
 11
0
 21
21.75828588755763
 31
0
 40
0.9607843137249998
 41
0.481745855987
 42
0.6307234364049994
  0
ELLIPSE
  5
33B
100
AcDbEntity
  8
0
  6
ByLayer
 62
  256
370
   -1
100
AcDbEllipse
 10
-34.591743048532
 20
99.11452519535339
 30
0
 11
0
 21
27.26413942309803
 31
0
 40
0.9607843137249998
 41
6.19705342161
 42
0.1080094382499999
  0
ELLIPSE
  5
33C
100
AcDbEntity
  8
0
  6
ByLayer
 62
  256
370
   -1
100
AcDbEllipse
 10
-35.880406019842
 20
113.435174977644
 30
0
 11
0
 21
12.8840703605098
 31
0
 40
0.9607843137249998
 41
0.1243337466010002
 42
0.3608065912480005
  0
ELLIPSE
  5
33D
100
AcDbEntity
  8
0
  6
ByLayer
 62
  256
370
   -1
100
AcDbEllipse
 10
-49.233412413598
 20
111.747372501338
 30
0
 11
0
 21
3.950672154418399
 31
0
 40
0.9607843137250001
 41
1.022274779759998
 42
1.763465174219999
  0
ELLIPSE
  5
33E
100
AcDbEntity
  8
0
  6
ByLayer
 62
  256
370
   -1
100
AcDbEllipse
 10
-47.10896379229801
 20
101.0915929963026
 30
0
 11
0
 21
2.881358795208399
 31
0
 40
0.9607843137250001
 41
1.94823567386
 42
2.897035439440001
  0
ELLIPSE
  5
33F
100
AcDbEntity
  8
0
  6
ByLayer
 62
  256
370
   -1
100
AcDbEllipse
 10
-4.667012490315
 20
107.3778111065184
 30
0
 11
0
 21
3.291986580148802
 31
0
 40
0.9607843137250002
 41
4.592322635400002
 42
5.554801712320001
  0
ELLIPSE
  5
340
100
AcDbEntity
  8
0
  6
ByLayer
 62
  256
370
   -1
100
AcDbEllipse
 10
-37.4588427606
 20
76.72272356322199
 30
0
 11
0
 21
49.14924153215599
 31
0
 40
0.9607843137249998
 41
5.45159020038
 42
5.56815172712
  0
ELLIPSE
  5
341
100
AcDbEntity
  8
0
  6
ByLayer
 62
  256
370
   -1
100
AcDbEllipse
 10
-4.696589131949001
 20
89.01785240278559
 30
0
 11
0
 21
0.7801038971169731
 31
0
 40
0.9607843137250001
 41
3.097695488730001
 42
4.542814799959996
  0
LINE
  5
342
100
AcDbEntity
  8
0
  6
ByLayer
 62
  256
370
   -1
100
AcDbLine
 10
-11.9481600000508
 20
89.4561759999238
 11
-4.7294800000508
 21
88.2384999999238
  0
ELLIPSE
  5
343
100
AcDbEntity
  8
0
  6
ByLayer
 62
  256
370
   -1
100
AcDbEllipse
 10
-17.17548
 20
37.743808022098
 30
0
 11
3.552713678800501e-15
 21
51.99778842153798
 31
0
 40
0.9607843137249999
 41
6.178360527799999
 42
0.05483519211670007
  0
ELLIPSE
  5
344
100
AcDbEntity
  8
0
  6
ByLayer
 62
  256
370
   -1
100
AcDbEllipse
 10
-52.962725252138
 20
68.25530286246098
 30
0
 11
0
 21
30.508243328832
 31
0
 40
0.9607843137249997
 41
5.720982035859999
 42
6.02420324717
  0
ELLIPSE
  5
345
100
AcDbEntity
  8
0
  6
ByLayer
 62
  256
370
   -1
100
AcDbEllipse
 10
6.8262723460564
 20
60.8120874855484
 30
0
 11
4.440892098500626e-15
 21
81.51524262400201
 31
0
 40
0.9607843137249999
 41
0.6864925343290005
 42
0.7995556236189998
  0
ELLIPSE
  5
346
100
AcDbEntity
  8
0
  6
ByLayer
 62
  256
370
   -1
100
AcDbEllipse
 10
-42.25742515986
 20
39.120227435116
 30
0
 11
7.105427357601002e-15
 21
87.76668607740203
 31
0
 40
0.9607843137250002
 41
6.09396962341
 42
6.165282550619999
  0
ELLIPSE
  5
347
100
AcDbEntity
  8
0
  6
ByLayer
 62
  256
370
   -1
100
AcDbEllipse
 10
-30.983073054558
 20
102.542606798257
 30
0
 11
0
 21
23.2726397339264
 31
0
 40
0.9607843137249999
 41
5.836542149049998
 42
6.076612051589999
  0
ELLIPSE
  5
348
100
AcDbEntity
  8
0
  6
ByLayer
 62
  256
370
   -1
100
AcDbEllipse
 10
-43.07832821833
 20
70.3790600944148
 30
0
 11
0
 21
57.77448911855799
 31
0
 40
0.9607843137250001
 41
5.56370125506
 42
5.88049862457
  0
ARC
  5
349
100
AcDbEntity
  8
0
  6
ByLayer
 62
  256
370
   -1
100
AcDbCircle
 10
-28.02636
 20
91.74624
 40
2.27679796802564
100
AcDbArc
 50
252.737489908
 51
268.337865676
  0
LINE
  5
34A
100
AcDbEntity
  8
0
  6
ByLayer
 62
  256
370
   -1
100
AcDbLine
 10
-28.0924
 20
89.47039999999997
 11
-19.9136
 21
89.6634399999492
  0
LINE
  5
34B
100
AcDbEntity
  8
0
  6
ByLayer
 62
  256
370
   -1
100
AcDbLine
 10
-31.9786
 20
90.715
 11
-28.702
 21
89.572
  0
ARC
  5
34C
100
AcDbEntity
  8
0
  6
ByLayer
 62
  256
370
   -1
100
AcDbCircle
 10
-31.100799090886
 20
92.819664204557
 40
2.28038282967988
100
AcDbArc
 50
236.494778664
 51
247.360247464
  0
LINE
  5
34D
100
AcDbEntity
  8
0
  6
ByLayer
 62
  256
370
   -1
100
AcDbLine
 10
-37.338
 20
94.06780000000001
 11
-32.3596
 21
90.9182
  0
LINE
  5
34E
100
AcDbEntity
  8
0
  6
ByLayer
 62
  256
370
   -1
100
AcDbLine
 10
-52.472336
 20
113.80741
 11
-49.33188000000001
 21
117.630364
  0
LINE
  5
34F
100
AcDbEntity
  8
0
  6
ByLayer
 62
  256
370
   -1
100
AcDbLine
 10
-52.959
 20
110.990804
 11
-49.68239999999999
 21
100.029688
  0
LINE
  5
350
100
AcDbEntity
  8
0
  6
ByLayer
 62
  256
370
   -1
100
AcDbLine
 10
-47.779178
 20
98.2959602
 11
-45.456094
 21
97.74612639999999
  0
LINE
  5
351
100
AcDbEntity
  8
0
  6
ByLayer
 62
  256
370
   -1
100
AcDbLine
 10
-3.957828
 20
88.8862
 11
-1.52689306
 21
106.9834968
  0
CIRCLE
  5
352
100
AcDbEntity
  8
0
  6
ByLayer
 62
  256
370
   -1
100
AcDbCircle
 10
-15
 20
91.09999999999999
 40
0.4000000000000057
  0
CIRCLE
  5
353
100
AcDbEntity
  8
0
  6
ByLayer
 62
  256
370
   -1
100
AcDbCircle
 10
-9.000000000000002
 20
90.40000000000001
 40
0.4000000000000057
  0
CIRCLE
  5
354
100
AcDbEntity
  8
0
  6
ByLayer
 62
  256
370
   -1
100
AcDbCircle
 10
-7
 20
90.09999999999999
 40
0.4000000000000057
  0
CIRCLE
  5
355
100
AcDbEntity
  8
0
  6
ByLayer
 62
  256
370
   -1
100
AcDbCircle
 10
-23
 20
91
 40
0.4000000000000057
  0
CIRCLE
  5
356
100
AcDbEntity
  8
0
  6
ByLayer
 62
  256
370
   -1
100
AcDbCircle
 10
-48.38120476042774
 20
100.7756715883159
 40
0.1699999999999999
  0
CIRCLE
  5
357
100
AcDbEntity
  8
0
  6
ByLayer
 62
  256
370
   -1
100
AcDbCircle
 10
-49.3218071406416
 20
104.6635073824739
 40
0.1699999999999999
  0
CIRCLE
  5
358
100
AcDbEntity
  8
0
  6
ByLayer
 62
  256
370
   -1
100
AcDbCircle
 10
-50.26240952085547
 20
108.5513431766319
 40
0.1699999999999999
  0
CIRCLE
  5
359
100
AcDbEntity
  8
0
  6
ByLayer
 62
  256
370
   -1
100
AcDbCircle
 10
-51.20301190106934
 20
112.4391789707899
 40
0.1699999999999999
  0
CIRCLE
  5
35A
100
AcDbEntity
  8
0
  6
ByLayer
 62
  256
370
   -1
100
AcDbCircle
 10
-43.39753119990171
 20
100.8769858794657
 40
0.1699999999999999
  0
CIRCLE
  5
35B
100
AcDbEntity
  8
0
  6
ByLayer
 62
  256
370
   -1
100
AcDbCircle
 10
-44.09629679985255
 20
104.8154788191985
 40
0.1699999999999999
  0
CIRCLE
  5
35C
100
AcDbEntity
  8
0
  6
ByLayer
 62
  256
370
   -1
100
AcDbCircle
 10
-44.79506239980341
 20
108.7539717589313
 40
0.1699999999999999
  0
CIRCLE
  5
35D
100
AcDbEntity
  8
0
  6
ByLayer
 62
  256
370
   -1
100
AcDbCircle
 10
-45.49382799975426
 20
112.6924646986642
 40
0.1699999999999999
  0
CIRCLE
  5
35E
100
AcDbEntity
  8
0
  6
ByLayer
 62
  256
370
   -1
100
AcDbCircle
 10
-46.19259359970511
 20
116.630957638397
 40
0.1699999999999999
  0
CIRCLE
  5
35F
100
AcDbEntity
  8
0
  6
ByLayer
 62
  256
370
   -1
100
AcDbCircle
 10
-38.00925069680762
 20
96.95340778136071
 40
0.1699999999999999
  0
CIRCLE
  5
360
100
AcDbEntity
  8
0
  6
ByLayer
 62
  256
370
   -1
100
AcDbCircle
 10
-38.50454196223742
 20
100.9226251554017
 40
0.1699999999999999
  0
CIRCLE
  5
361
100
AcDbEntity
  8
0
  6
ByLayer
 62
  256
370
   -1
100
AcDbCircle
 10
-38.99983322766722
 20
104.8918425294427
 40
0.1699999999999999
  0
CIRCLE
  5
362
100
AcDbEntity
  8
0
  6
ByLayer
 62
  256
370
   -1
100
AcDbCircle
 10
-39.49512449309703
 20
108.8610599034837
 40
0.1699999999999999
  0
CIRCLE
  5
363
100
AcDbEntity
  8
0
  6
ByLayer
 62
  256
370
   -1
100
AcDbCircle
 10
-39.99041575852683
 20
112.8302772775247
 40
0.1699999999999999
  0
CIRCLE
  5
364
100
AcDbEntity
  8
0
  6
ByLayer
 62
  256
370
   -1
100
AcDbCircle
 10
-40.48570702395663
 20
116.7994946515658
 40
0.1699999999999999
  0
CIRCLE
  5
365
100
AcDbEntity
  8
0
  6
ByLayer
 62
  256
370
   -1
100
AcDbCircle
 10
-40.98099828938643
 20
120.7687120256067
 40
0.1699999999999999
  0
ARC
  5
366
100
AcDbEntity
  8
0
  6
ByLayer
 62
  256
370
   -1
100
AcDbCircle
 10
-32.0303639107513
 20
93.10514682318761
 40
1.02530483272051
100
AcDbArc
 50
276.1173210272975
 51
3.322958972702564
  0
LINE
  5
367
100
AcDbEntity
  8
0
  6
ByLayer
 62
  256
370
   -1
100
AcDbLine
 10
-31.92110264601954
 20
92.08568030778399
 11
-32.91771116911778
 21
92.00339147690174
  0
CIRCLE
  5
368
100
AcDbEntity
  8
0
  6
ByLayer
 62
  256
370
   -1
100
AcDbCircle
 10
-33
 20
93
 40
0.1699999999999999
  0
CIRCLE
  5
369
100
AcDbEntity
  8
0
  6
ByLayer
 62
  256
370
   -1
100
AcDbCircle
 10
-33.32915532352889
 20
96.98643409239293
 40
0.1699999999999999
  0
CIRCLE
  5
36A
100
AcDbEntity
  8
0
  6
ByLayer
 62
  256
370
   -1
100
AcDbCircle
 10
-33.65831064705778
 20
100.9728681847859
 40
0.1699999999999999
  0
CIRCLE
  5
36B
100
AcDbEntity
  8
0
  6
ByLayer
 62
  256
370
   -1
100
AcDbCircle
 10
-33.98746597058668
 20
104.9593022771788
 40
0.1699999999999999
  0
CIRCLE
  5
36C
100
AcDbEntity
  8
0
  6
ByLayer
 62
  256
370
   -1
100
AcDbCircle
 10
-34.31662129411557
 20
108.9457363695717
 40
0.1699999999999999
  0
CIRCLE
  5
36D
100
AcDbEntity
  8
0
  6
ByLayer
 62
  256
370
   -1
100
AcDbCircle
 10
-34.64577661764446
 20
112.9321704619646
 40
0.1699999999999999
  0
CIRCLE
  5
36E
100
AcDbEntity
  8
0
  6
ByLayer
 62
  256
370
   -1
100
AcDbCircle
 10
-34.97493194117335
 20
116.9186045543575
 40
0.1699999999999999
  0
CIRCLE
  5
36F
100
AcDbEntity
  8
0
  6
ByLayer
 62
  256
370
   -1
100
AcDbCircle
 10
-35.30408726470224
 20
120.9050386467505
 40
0.1699999999999999
  0
ARC
  5
370
100
AcDbEntity
  8
0
  6
ByLayer
 62
  256
370
   -1
100
AcDbCircle
 10
-29.48025497538853
 20
92.97750166808214
 40
1.02530483272051
100
AcDbArc
 50
183.8757210272975
 51
271.0813589727026
  0
LINE
  5
371
100
AcDbEntity
  8
0
  6
ByLayer
 62
  256
370
   -1
100
AcDbLine
 10
-29.46090526464269
 20
91.9523794369828
 11
-28.46184077559807
 21
91.99562463012619
  0
ARC
  5
372
100
AcDbEntity
  8
0
  6
ByLayer
 62
  256
370
   -1
100
AcDbCircle
 10
-27.53207922175155
 20
93.06182979471174
 40
1.02530483272051
100
AcDbArc
 50
273.8757210272974
 51
1.081358972702534
  0
LINE
  5
373
100
AcDbEntity
  8
0
  6
ByLayer
 62
  256
370
   -1
100
AcDbLine
 10
-27.46277628655344
 20
92.03886982326958
 11
-28.46184077559806
 21
91.99562463012619
  0
CIRCLE
  5
374
100
AcDbEntity
  8
0
  6
ByLayer
 62
  256
370
   -1
100
AcDbCircle
 10
-28.50508596874145
 20
92.99468911917081
 40
0.1699999999999999
  0
CIRCLE
  5
375
100
AcDbEntity
  8
0
  6
ByLayer
 62
  256
370
   -1
100
AcDbCircle
 10
-28.67806674131501
 20
96.99094707534933
 40
0.1699999999999999
  0
CIRCLE
  5
376
100
AcDbEntity
  8
0
  6
ByLayer
 62
  256
370
   -1
100
AcDbCircle
 10
-28.85104751388857
 20
100.9872050315278
 40
0.1699999999999999
  0
CIRCLE
  5
377
100
AcDbEntity
  8
0
  6
ByLayer
 62
  256
370
   -1
100
AcDbCircle
 10
-29.02402828646214
 20
104.9834629877063
 40
0.1699999999999999
  0
CIRCLE
  5
378
100
AcDbEntity
  8
0
  6
ByLayer
 62
  256
370
   -1
100
AcDbCircle
 10
-29.1970090590357
 20
108.9797209438848
 40
0.1699999999999999
  0
CIRCLE
  5
379
100
AcDbEntity
  8
0
  6
ByLayer
 62
  256
370
   -1
100
AcDbCircle
 10
-29.36998983160926
 20
112.9759789000632
 40
0.1699999999999999
  0
CIRCLE
  5
37A
100
AcDbEntity
  8
0
  6
ByLayer
 62
  256
370
   -1
100
AcDbCircle
 10
-29.54297060418283
 20
116.9722368562417
 40
0.1699999999999999
  0
CIRCLE
  5
37B
100
AcDbEntity
  8
0
  6
ByLayer
 62
  256
370
   -1
100
AcDbCircle
 10
-29.71595137675639
 20
120.9684948124202
 40
0.1699999999999999
  0
ARC
  5
37C
100
AcDbEntity
  8
0
  6
ByLayer
 62
  256
370
   -1
100
AcDbCircle
 10
-6.960503739903177
 20
93.16935927973391
 40
1.02530483272051
100
AcDbArc
 50
172.8661810272974
 51
260.0718189727025
  0
LINE
  5
37D
100
AcDbEntity
  8
0
  6
ByLayer
 62
  256
370
   -1
100
AcDbLine
 10
-7.137280244564421
 20
92.1594087525298
 11
-6.148344498547115
 21
92.0110642539827
  0
ARC
  5
37E
100
AcDbEntity
  8
0
  6
ByLayer
 62
  256
370
   -1
100
AcDbCircle
 10
-5.032079035169462
 20
92.88008750756703
 40
1.02530483272051
100
AcDbArc
 50
262.8661810272974
 51
350.0718189727025
  0
LINE
  5
37F
100
AcDbEntity
  8
0
  6
ByLayer
 62
  256
370
   -1
100
AcDbLine
 10
-5.159408752529801
 20
91.86271975543561
 11
-6.148344498547107
 21
92.0110642539827
  0
CIRCLE
  5
380
100
AcDbEntity
  8
0
  6
ByLayer
 62
  256
370
   -1
100
AcDbCircle
 10
-5.999999999999999
 20
93
 40
0.1699999999999999
  0
CIRCLE
  5
381
100
AcDbEntity
  8
0
  6
ByLayer
 62
  256
370
   -1
100
AcDbCircle
 10
-5.406622005811557
 20
96.9557429840692
 40
0.1699999999999999
  0
CIRCLE
  5
382
100
AcDbEntity
  8
0
  6
ByLayer
 62
  256
370
   -1
100
AcDbCircle
 10
-4.813244011623116
 20
100.9114859681384
 40
0.1699999999999999
  0
CIRCLE
  5
383
100
AcDbEntity
  8
0
  6
ByLayer
 62
  256
370
   -1
100
AcDbCircle
 10
-4.219866017434674
 20
104.8672289522077
 40
0.1699999999999999
  0
CIRCLE
  5
384
100
AcDbEntity
  8
0
  6
ByLayer
 62
  256
370
   -1
100
AcDbCircle
 10
-3.626488023246232
 20
108.8229719362769
 40
0.1699999999999999
  0
ARC
  5
385
100
AcDbEntity
  8
0
  6
ByLayer
 62
  256
370
   -1
100
AcDbCircle
 10
-11.47006940834418
 20
93.10904927398991
 40
1.02530483272051
100
AcDbArc
 50
177.1841810272976
 51
264.3898189727026
  0
LINE
  5
386
100
AcDbEntity
  8
0
  6
ByLayer
 62
  256
370
   -1
100
AcDbLine
 10
-11.57030294488798
 20
92.08865560576578
 11
-10.57300511055424
 21
92.01519112704825
  0
ARC
  5
387
100
AcDbEntity
  8
0
  6
ByLayer
 62
  256
370
   -1
100
AcDbCircle
 10
-9.525338631393421
 20
92.96579354049079
 40
1.02530483272051
100
AcDbArc
 50
267.1841810272975
 51
354.3898189727025
  0
LINE
  5
388
100
AcDbEntity
  8
0
  6
ByLayer
 62
  256
370
   -1
100
AcDbLine
 10
-9.575707276220493
 20
91.94172664833076
 11
-10.57300511055423
 21
92.01519112704825
  0
CIRCLE
  5
389
100
AcDbEntity
  8
0
  6
ByLayer
 62
  256
370
   -1
100
AcDbCircle
 10
-10.49954063183674
 20
93.01248896138199
 40
0.1699999999999999
  0
CIRCLE
  5
38A
100
AcDbEntity
  8
0
  6
ByLayer
 62
  256
370
   -1
100
AcDbCircle
 10
-10.20568271696675
 20
97.00168029871695
 40
0.1699999999999999
  0
CIRCLE
  5
38B
100
AcDbEntity
  8
0
  6
ByLayer
 62
  256
370
   -1
100
AcDbCircle
 10
-9.911824802096767
 20
100.9908716360519
 40
0.1699999999999999
  0
CIRCLE
  5
38C
100
AcDbEntity
  8
0
  6
ByLayer
 62
  256
370
   -1
100
AcDbCircle
 10
-9.617966887226784
 20
104.9800629733869
 40
0.1699999999999999
  0
CIRCLE
  5
38D
100
AcDbEntity
  8
0
  6
ByLayer
 62
  256
370
   -1
100
AcDbCircle
 10
-9.3241089723568
 20
108.9692543107218
 40
0.1699999999999999
  0
CIRCLE
  5
38E
100
AcDbEntity
  8
0
  6
ByLayer
 62
  256
370
   -1
100
AcDbCircle
 10
-9.030251057486815
 20
112.9584456480568
 40
0.1699999999999999
  0
ARC
  5
38F
100
AcDbEntity
  8
0
  6
ByLayer
 62
  256
370
   -1
100
AcDbCircle
 10
-15.97348692092499
 20
93.05977637315819
 40
1.02530483272051
100
AcDbArc
 50
179.3521810272974
 51
266.5578189727025
  0
LINE
  5
390
100
AcDbEntity
  8
0
  6
ByLayer
 62
  256
370
   -1
100
AcDbLine
 10
-16.03504751436205
 20
92.03632129679391
 11
-15.03568440557798
 21
92.00063689121593
  0
ARC
  5
391
100
AcDbEntity
  8
0
  6
ByLayer
 62
  256
370
   -1
100
AcDbCircle
 10
-14.02472885879611
 20
92.99019178228109
 40
1.02530483272051
100
AcDbArc
 50
269.3521810272974
 51
356.5578189727025
  0
LINE
  5
392
100
AcDbEntity
  8
0
  6
ByLayer
 62
  256
370
   -1
100
AcDbLine
 10
-14.03632129679391
 20
91.96495248563795
 11
-15.03568440557798
 21
92.00063689121593
  0
CIRCLE
  5
393
100
AcDbEntity
  8
0
  6
ByLayer
 62
  256
370
   -1
100
AcDbCircle
 10
-15
 20
93
 40
0.1699999999999999
  0
CIRCLE
  5
394
100
AcDbEntity
  8
0
  6
ByLayer
 62
  256
370
   -1
100
AcDbCircle
 10
-14.85726237768808
 20
96.99745243513625
 40
0.1699999999999999
  0
CIRCLE
  5
395
100
AcDbEntity
  8
0
  6
ByLayer
 62
  256
370
   -1
100
AcDbCircle
 10
-14.71452475537616
 20
100.9949048702725
 40
0.1699999999999999
  0
CIRCLE
  5
396
100
AcDbEntity
  8
0
  6
ByLayer
 62
  256
370
   -1
100
AcDbCircle
 10
-14.57178713306424
 20
104.9923573054087
 40
0.1699999999999999
  0
CIRCLE
  5
397
100
AcDbEntity
  8
0
  6
ByLayer
 62
  256
370
   -1
100
AcDbCircle
 10
-14.42904951075232
 20
108.989809740545
 40
0.1699999999999999
  0
CIRCLE
  5
398
100
AcDbEntity
  8
0
  6
ByLayer
 62
  256
370
   -1
100
AcDbCircle
 10
-14.28631188844039
 20
112.9872621756813
 40
0.1699999999999999
  0
CIRCLE
  5
399
100
AcDbEntity
  8
0
  6
ByLayer
 62
  256
370
   -1
100
AcDbCircle
 10
-14.14357426612847
 20
116.9847146108175
 40
0.1699999999999999
  0
ARC
  5
39A
100
AcDbEntity
  8
0
  6
ByLayer
 62
  256
370
   -1
100
AcDbCircle
 10
-20.5575492408076
 20
93.04616140905233
 40
1.02530483272051
100
AcDbArc
 50
180.2041810272975
 51
267.4098189727025
  0
LINE
  5
39B
100
AcDbEntity
  8
0
  6
ByLayer
 62
  256
370
   -1
100
AcDbLine
 10
-20.60388460198408
 20
92.02190410041123
 11
-19.60410136737147
 21
92.00108382693698
  0
ARC
  5
39C
100
AcDbEntity
  8
0
  6
ByLayer
 62
  256
370
   -1
100
AcDbCircle
 10
-18.60797193331304
 20
93.00556187577746
 40
1.02530483272051
100
AcDbArc
 50
270.2041810272974
 51
357.4098189727026
  0
LINE
  5
39D
100
AcDbEntity
  8
0
  6
ByLayer
 62
  256
370
   -1
100
AcDbLine
 10
-18.60431813275886
 20
91.98026355346265
 11
-19.60410136737147
 21
92.00108382693698
  0
CIRCLE
  5
39E
100
AcDbEntity
  8
0
  6
ByLayer
 62
  256
370
   -1
100
AcDbCircle
 10
-19.58328109389718
 20
93.00086706154958
 40
0.1699999999999999
  0
CIRCLE
  5
39F
100
AcDbEntity
  8
0
  6
ByLayer
 62
  256
370
   -1
100
AcDbCircle
 10
-19.5
 20
97
 40
0.1699999999999999
  0
CIRCLE
  5
3A0
100
AcDbEntity
  8
0
  6
ByLayer
 62
  256
370
   -1
100
AcDbCircle
 10
-19.41671890610283
 20
100.9991329384504
 40
0.1699999999999999
  0
CIRCLE
  5
3A1
100
AcDbEntity
  8
0
  6
ByLayer
 62
  256
370
   -1
100
AcDbCircle
 10
-19.33343781220566
 20
104.9982658769009
 40
0.1699999999999999
  0
CIRCLE
  5
3A2
100
AcDbEntity
  8
0
  6
ByLayer
 62
  256
370
   -1
100
AcDbCircle
 10
-19.25015671830849
 20
108.9973988153513
 40
0.1699999999999999
  0
CIRCLE
  5
3A3
100
AcDbEntity
  8
0
  6
ByLayer
 62
  256
370
   -1
100
AcDbCircle
 10
-19.16687562441131
 20
112.9965317538018
 40
0.1699999999999999
  0
CIRCLE
  5
3A4
100
AcDbEntity
  8
0
  6
ByLayer
 62
  256
370
   -1
100
AcDbCircle
 10
-19.08359453051414
 20
116.9956646922522
 40
0.1699999999999999
  0
ARC
  5
3A5
100
AcDbEntity
  8
0
  6
ByLayer
 62
  256
370
   -1
100
AcDbCircle
 10
-24.9752318754976
 20
93.01314492348432
 40
1.02530483272051
100
AcDbArc
 50
182.0937520272975
 51
269.2993899727026
  0
LINE
  5
3A6
100
AcDbEntity
  8
0
  6
ByLayer
 62
  256
370
   -1
100
AcDbLine
 10
-24.98776894108496
 20
91.98791674303548
 11
-23.98784284206022
 21
92.00007390097527
  0
ARC
  5
3A7
100
AcDbEntity
  8
0
  6
ByLayer
 62
  256
370
   -1
100
AcDbCircle
 10
-23.02537598239939
 20
93.03685138146695
 40
1.02530483272051
100
AcDbArc
 50
272.0937520272975
 51
359.2993899727026
  0
LINE
  5
3A8
100
AcDbEntity
  8
0
  6
ByLayer
 62
  256
370
   -1
100
AcDbLine
 10
-22.98791674303548
 20
92.01223105891505
 11
-23.98784284206022
 21
92.00007390097527
  0
CIRCLE
  5
3A9
100
AcDbEntity
  8
0
  6
ByLayer
 62
  256
370
   -1
100
AcDbCircle
 10
-24
 20
93
 40
0.1699999999999999
  0
CIRCLE
  5
3AA
100
AcDbEntity
  8
0
  6
ByLayer
 62
  256
370
   -1
100
AcDbCircle
 10
-24.04862863175912
 20
96.99970439609895
 40
0.1699999999999999
  0
CIRCLE
  5
3AB
100
AcDbEntity
  8
0
  6
ByLayer
 62
  256
370
   -1
100
AcDbCircle
 10
-24.09725726351824
 20
100.9994087921979
 40
0.1699999999999999
  0
CIRCLE
  5
3AC
100
AcDbEntity
  8
0
  6
ByLayer
 62
  256
370
   -1
100
AcDbCircle
 10
-24.14588589527737
 20
104.9991131882968
 40
0.1699999999999999
  0
CIRCLE
  5
3AD
100
AcDbEntity
  8
0
  6
ByLayer
 62
  256
370
   -1
100
AcDbCircle
 10
-24.19451452703649
 20
108.9988175843958
 40
0.1699999999999999
  0
CIRCLE
  5
3AE
100
AcDbEntity
  8
0
  6
ByLayer
 62
  256
370
   -1
100
AcDbCircle
 10
-24.24314315879561
 20
112.9985219804947
 40
0.1699999999999999
  0
CIRCLE
  5
3AF
100
AcDbEntity
  8
0
  6
ByLayer
 62
  256
370
   -1
100
AcDbCircle
 10
-24.29177179055473
 20
116.9982263765937
 40
0.1699999999999999
  0
CIRCLE
  5
3B0
100
AcDbEntity
  8
0
  6
ByLayer
 62
  256
370
   -1
100
AcDbCircle
 10
-24.34040042231386
 20
120.9979307726926
 40
0.1699999999999999
  0
CIRCLE
  5
3B1
100
AcDbEntity
  8
0
  6
ByLayer
 62
  256
370
   -1
100
AcDbCircle
 10
-18
 20
120
 40
0.4000000000000057
  0
CIRCLE
  5
3B2
100
AcDbEntity
  8
0
  6
ByLayer
 62
  256
370
   -1
100
AcDbCircle
 10
-16
 20
119.1
 40
0.4000000000000057
  0
CIRCLE
  5
3B3
100
AcDbEntity
  8
0
  6
ByLayer
 62
  256
370
   -1
100
AcDbCircle
 10
-26
 20
123.5
 40
0.4000000000000057
  0
CIRCLE
  5
3B4
100
AcDbEntity
  8
0
  6
ByLayer
 62
  256
370
   -1
100
AcDbCircle
 10
-34
 20
124.6
 40
0.4000000000000057
  0
CIRCLE
  5
3B5
100
AcDbEntity
  8
0
  6
ByLayer
 62
  256
370
   -1
100
AcDbCircle
 10
-32
 20
124.5
 40
0.4000000000000057
  0
LINE
  5
3B6
100
AcDbEntity
  8
0
  6
ByLayer
 62
  256
370
   -1
100
AcDbLine
 10
-16.99872621756813
 20
93.07136881115593
 11
-16.2
 21
115.9
  0
LINE
  5
3B7
100
AcDbEntity
  8
0
  6
ByLayer
 62
  256
370
   -1
100
AcDbLine
 10
-17.58371462467196
 20
92.95922651460097
 11
-17.1
 21
116.7
  0
LINE
  5
3B8
100
AcDbEntity
  8
0
  6
ByLayer
 62
  256
370
   -1
100
AcDbLine
 10
-21.5828475631224
 20
93.04250760849814
 11
-21.06
 21
118.23
  0
LINE
  5
3B9
100
AcDbEntity
  8
0
  6
ByLayer
 62
  256
370
   -1
100
AcDbLine
 10
-13.00127378243188
 20
92.92863118884407
 11
-12.15
 21
116.72
  0
ARC
  5
3BA
100
AcDbEntity
  8
0
  6
ByLayer
 62
  256
370
   -1
100
AcDbCircle
 10
-13.64975972540047
 20
116.7009610983982
 40
1.49988056648104
100
AcDbArc
 50
0.7273099133298391
 51
91.91954900917949
  0
ARC
  5
3BB
100
AcDbEntity
  8
0
  6
ByLayer
 62
  256
370
   -1
100
AcDbCircle
 10
-13.70048076923076
 20
115.6918269230769
 40
2.508173123000268
100
AcDbArc
 50
89.9890174853729
 51
175.2390944538496
  0
ARC
  5
3BC
100
AcDbEntity
  8
0
  6
ByLayer
 62
  256
370
   -1
100
AcDbCircle
 10
-19.94930555555554
 20
117.9921296296296
 40
1.135880478756433
100
AcDbArc
 50
102.7504414713912
 51
167.9119301054399
  0
ARC
  5
3BD
100
AcDbEntity
  8
0
  6
ByLayer
 62
  256
370
   -1
100
AcDbCircle
 10
-19.10454545454546
 20
116.8227272727273
 40
2.0082988977764
100
AcDbArc
 50
356.4964683552155
 51
56.63363399894045
  0
ARC
  5
3BE
100
AcDbEntity
  8
0
  6
ByLayer
 62
  256
370
   -1
100
AcDbCircle
 10
-19.84999999999999
 20
116.0500000000001
 40
3.070016286601712
100
AcDbArc
 50
52.94347181059024
 51
96.54629078329442
  0
LINE
  5
3BF
100
AcDbEntity
  8
0
  6
ByLayer
 62
  256
370
   -1
100
AcDbLine
 10
-25.99985219804947
 20
92.97568568412044
 11
-26.34
 21
120.75
  0
LINE
  5
3C0
100
AcDbEntity
  8
0
  6
ByLayer
 62
  256
370
   -1
100
AcDbLine
 10
-26.50695699065221
 20
93.08117950545758
 11
-27.7
 21
121
  0
LINE
  5
3C1
100
AcDbEntity
  8
0
  6
ByLayer
 62
  256
370
   -1
100
AcDbLine
 10
-30.50321494683069
 20
92.90819873288403
 11
-31.8
 21
122
  0
ARC
  5
3C2
100
AcDbEntity
  8
0
  6
ByLayer
 62
  256
370
   -1
100
AcDbCircle
 10
-30.43260869565218
 20
121.8282608695652
 40
1.378133994983269
100
AcDbArc
 50
84.47826371577875
 51
172.8413527924014
  0
ARC
  5
3C3
100
AcDbEntity
  8
0
  6
ByLayer
 62
  256
370
   -1
100
AcDbCircle
 10
-30.75602409638553
 20
120.0246987951807
 40
3.207880253034852
100
AcDbArc
 50
17.69999160830862
 51
81.82729177314368
  0
ARC
  5
3C4
100
AcDbEntity
  8
0
  6
ByLayer
 62
  256
370
   -1
100
AcDbCircle
 10
-42.925
 20
117.0964285714286
 40
10.31295623604264
100
AcDbArc
 50
21.04605838182493
 51
50.02929720212398
  0
ARC
  5
3C5
100
AcDbEntity
  8
0
  6
ByLayer
 62
  256
370
   -1
100
AcDbCircle
 10
-36.80000000000001
 20
124.36
 40
0.8121576201698646
100
AcDbArc
 50
52.00126755749375
 51
170.0737544933491
  0
LINE
  5
3C6
100
AcDbEntity
  8
0
  6
ByLayer
 62
  256
370
   -1
100
AcDbLine
 10
-12.49413630050422
 20
93.15941791881698
 11
-10.9
 21
114.8
  0
LINE
  5
3C7
100
AcDbEntity
  8
0
  6
ByLayer
 62
  256
370
   -1
100
AcDbLine
 10
-8.50494496316926
 20
92.865560003947
 11
-7.100000000000001
 21
112.2
  0
ARC
  5
3C8
100
AcDbEntity
  8
0
  6
ByLayer
 62
  256
370
   -1
100
AcDbCircle
 10
-9.677884615384613
 20
114.3596153846154
 40
1.299039884984711
100
AcDbArc
 50
53.21492209902356
 51
160.1835663689635
  0
ARC
  5
3C9
100
AcDbEntity
  8
0
  6
ByLayer
 62
  256
370
   -1
100
AcDbCircle
 10
-10.83076923076923
 20
112.2076923076924
 40
3.730777160974916
100
AcDbArc
 50
359.8818645395453
 51
58.83364254603692
  0
LINE
  5
3CA
100
AcDbEntity
  8
0
  6
ByLayer
 62
  256
370
   -1
100
AcDbLine
 10
-7.977871492034613
 20
93.29668899709422
 11
-5.5
 21
109.9
  0
ARC
  5
3CB
100
AcDbEntity
  8
0
  6
ByLayer
 62
  256
370
   -1
100
AcDbCircle
 10
-4.348181818181819
 20
109.5654545454546
 40
1.199418936453797
100
AcDbArc
 50
37.76452858578487
 51
163.8040671493407
  0
ARC
  5
3CC
100
AcDbEntity
  8
0
  6
ByLayer
 62
  256
370
   -1
100
AcDbCircle
 10
-6.710000000000032
 20
106.8807317073171
 40
4.758938501110003
100
AcDbArc
 50
351.7760437479234
 51
45.93027378091485
  0
LINE
  5
3CD
100
AcDbEntity
  8
0
  6
ByLayer
 62
  256
370
   -1
100
AcDbLine
 10
-4.022128507965387
 20
92.70331100290578
 11
-1.999999999999999
 21
106.2
  0
LINE
  5
3CE
100
AcDbEntity
  8
0
  6
ByLayer
 62
  256
370
   -1
100
AcDbLine
 10
-31.00678295380354
 20
93.16457766176444
 11
-33.3
 21
120.8
  0
LINE
  5
3CF
100
AcDbEntity
  8
0
  6
ByLayer
 62
  256
370
   -1
100
AcDbLine
 10
-49.5
 20
100.4
 11
-52.6
 21
110.6
  0
ARC
  5
3D0
100
AcDbEntity
  8
0
  6
ByLayer
 62
  256
370
   -1
100
AcDbCircle
 10
-46.71788990825686
 20
101.3977064220183
 40
2.955597176056936
100
AcDbArc
 50
199.72859535182
 51
258.6412368984165
  0
ARC
  5
3D1
100
AcDbEntity
  8
0
  6
ByLayer
 62
  256
370
   -1
100
AcDbCircle
 10
-47.15740740740743
 20
99.57222222222227
 40
1.081662212194482
100
AcDbArc
 50
262.424803099555
 51
12.15641698572263
  0
LINE
  5
3D2
100
AcDbEntity
  8
0
  6
ByLayer
 62
  256
370
   -1
100
AcDbLine
 10
-46.10000000000001
 20
99.80000000000001
 11
-49.6
 21
114.2
  0
ARC
  5
3D3
100
AcDbEntity
  8
0
  6
ByLayer
 62
  256
370
   -1
100
AcDbCircle
 10
-49.04754098360655
 20
111.5901639344262
 40
3.687870615977954
100
AcDbArc
 50
143.1861348375951
 51
195.5745546100948
  0
LINE
  5
3D4
100
AcDbEntity
  8
0
  6
ByLayer
 62
  256
370
   -1
100
AcDbLine
 10
-52.00000000000001
 20
113.8
 11
-51.1
 21
114.8
  0
ARC
  5
3D5
100
AcDbEntity
  8
0
  6
ByLayer
 62
  256
370
   -1
100
AcDbCircle
 10
-50.6
 20
113.875
 40
1.051487042240657
100
AcDbArc
 50
18.00416160591352
 51
118.3930194213831
  0
ARC
  5
3D6
100
AcDbEntity
  8
0
  6
ByLayer
 62
  256
370
   -1
100
AcDbCircle
 10
-44.21111111111117
 20
116.5444444444445
 40
3.991503321485742
100
AcDbArc
 50
134.3233096597205
 51
182.0738713675761
  0
ARC
  5
3D7
100
AcDbEntity
  8
0
  6
ByLayer
 62
  256
370
   -1
100
AcDbCircle
 10
-45.91951219512196
 20
118.4829268292683
 40
1.417207499615399
100
AcDbArc
 50
21.39856948032478
 51
139.6767861036245
  0
LINE
  5
3D8
100
AcDbEntity
  8
0
  6
ByLayer
 62
  256
370
   -1
100
AcDbLine
 10
-45.2
 20
99.50000000000001
 11
-48.2
 21
116.4
  0
LINE
  5
3D9
100
AcDbEntity
  8
0
  6
ByLayer
 62
  256
370
   -1
100
AcDbLine
 10
-40.90000000000001
 20
98.2
 11
-44.6
 21
119
  0
ARC
  5
3DA
100
AcDbEntity
  8
0
  6
ByLayer
 62
  256
370
   -1
100
AcDbCircle
 10
-42.00544554455445
 20
97.98663366336632
 40
1.125848589102358
100
AcDbArc
 50
254.8332665403898
 51
10.92454066628668
  0
ARC
  5
3DB
100
AcDbEntity
  8
0
  6
ByLayer
 62
  256
370
   -1
100
AcDbCircle
 10
-40.72225806451608
 20
101.5770967741936
 40
4.936041313659835
100
AcDbArc
 50
204.8852406363158
 51
251.3590202879155
  0
LINE
  5
3DC
100
AcDbEntity
  8
0
  6
ByLayer
 62
  256
370
   -1
100
AcDbLine
 10
-35.8
 20
95.2
 11
-39.3
 21
123.3
  0
ARC
  5
3DD
100
AcDbEntity
  8
0
  6
ByLayer
 62
  256
370
   -1
100
AcDbCircle
 10
-40.54285714285714
 20
121.9428571428572
 40
2.580025312326394
100
AcDbArc
 50
127.1236978884302
 51
187.6365722154888
  0
ARC
  5
3DE
100
AcDbEntity
  8
0
  6
ByLayer
 62
  256
370
   -1
100
AcDbCircle
 10
-40.95333333333334
 20
122.6366666666667
 40
1.781438245413591
100
AcDbArc
 50
21.86113404378181
 51
130.0663790203651
  0
ARC
  5
3DF
100
AcDbEntity
  8
0
  6
ByLayer
 62
  256
370
   -1
100
AcDbCircle
 10
-36.52421875
 20
95.17031249999999
 40
0.7248269762555855
100
AcDbArc
 50
247.6366603334743
 51
2.347380063642877
  0
ARC
  5
3E0
100
AcDbEntity
  8
0
  6
ByLayer
 62
  256
370
   -1
100
AcDbCircle
 10
-35.09576271186447
 20
99.41779661016948
 40
5.204723646195421
100
AcDbArc
 50
191.2769996627524
 51
250.8865026091132
  0
LINE
  5
3E1
100
AcDbEntity
  8
0
  6
ByLayer
 62
  256
370
   -1
100
AcDbLine
 10
-35.1
 20
94.09999999999999
 11
-37.6
 21
124.5
  0
ARC
  5
3E2
100
AcDbEntity
  8
0
  6
ByLayer
 62
  256
370
   -1
100
AcDbCircle
 10
-32.90813610993228
 20
94.19739737466409
 40
2.194026791352886
100
AcDbArc
 50
182.5443139587613
 51
269.7499519041664
  0
LINE
  5
3E3
100
AcDbEntity
  8
0
  6
ByLayer
 62
  256
370
   -1
100
AcDbLine
 10
-40.20000000000001
 20
98.40000000000001
 11
-43.1
 21
121.6
  0
CIRCLE
  5
3E4
100
AcDbEntity
  8
0
  6
ByLayer
 62
  256
370
   -1
100
AcDbCircle
 10
-45.8
 20
100.7
 40
0.1699999999999999
  0
CIRCLE
  5
3E5
100
AcDbEntity
  8
0
  6
ByLayer
 62
  256
370
   -1
100
AcDbCircle
 10
-46.64222145802465
 20
104.6103277376255
 40
0.1699999999999999
  0
CIRCLE
  5
3E6
100
AcDbEntity
  8
0
  6
ByLayer
 62
  256
370
   -1
100
AcDbCircle
 10
-47.4844429160493
 20
108.5206554752509
 40
0.1699999999999999
  0
CIRCLE
  5
3E7
100
AcDbEntity
  8
0
  6
ByLayer
 62
  256
370
   -1
100
AcDbCircle
 10
-48.32666437407394
 20
112.4309832128763
 40
0.1699999999999999
  0
CIRCLE
  5
3E8
100
AcDbEntity
  8
0
  6
ByLayer
 62
  256
370
   -1
100
AcDbCircle
 10
-49.16888583209858
 20
116.3413109505018
 40
0.1699999999999999
  0
ARC
  5
3E9
100
AcDbEntity
  8
0
  6
ByLayer
 62
  256
370
   -1
100
AcDbCircle
 10
-48.8625
 20
116.43
 40
0.6839636320741056
100
AcDbArc
 50
14.39179781921183
 51
101.5974357646197
  0
ARC
  5
3EA
100
AcDbEntity
  8
0
  6
ByLayer
 62
  256
370
   -1
100
AcDbCircle
 10
-48.34750000000001
 20
115.5775
 40
1.656430650525398
100
AcDbArc
 50
113.1985905136479
 51
200.404228459056
  0
LINE
  5
3EB
100
AcDbEntity
  8
0
  6
ByLayer
 62
  256
370
   -1
100
AcDbLine
 10
-46.50000000000001
 20
99.2
 11
-49.90000000000001
 21
115
  0
LINE
  5
3EC
100
AcDbEntity
  8
0
  6
ByLayer
 62
  256
370
   -1
100
AcDbLine
 10
-44.40000000000001
 20
98.90000000000001
 11
-48.2
 21
116.6
  0
ARC
  5
3ED
100
AcDbEntity
  8
0
  6
ByLayer
 62
  256
370
   -1
100
AcDbCircle
 10
-45.10509975681543
 20
98.76603420981894
 40
0.7177133829043584
100
AcDbArc
 50
283.5520810272962
 51
10.75771897270377
  0
LINE
  5
3EE
100
AcDbEntity
  8
0
  6
ByLayer
 62
  256
370
   -1
100
AcDbLine
 10
-45.52982178404321
 20
98.16031374394436
 11
-45.23337019148668
 21
98.11430881735285
  0
LINE
  5
3EF
100
AcDbEntity
  8
0
  6
ByLayer
 62
  256
370
   -1
100
AcDbLine
 10
-44.93691859893015
 20
98.06830389076123
 11
-45.23337019148668
 21
98.11430881735285
  0
ARC
  5
3F0
100
AcDbEntity
  8
0
  6
ByLayer
 62
  256
370
   -1
100
AcDbCircle
 10
-45.21985770744126
 20
99.42205691702351
 40
1.299258851651791
100
AcDbArc
 50
189.8407588417095
 51
256.1978489179631
  0
CIRCLE
  5
3F1
100
AcDbEntity
  8
0
  6
ByLayer
 62
  256
370
   -1
100
AcDbCircle
 10
-40.2
 20
97
 40
0.1699999999999999
  0
ARC
  5
3F2
100
AcDbEntity
  8
0
  6
ByLayer
 62
  256
370
   -1
100
AcDbCircle
 10
-39.87679702964385
 20
96.76515464672904
 40
0.7177133829043584
100
AcDbArc
 50
280.3943210272962
 51
7.599958972703768
  0
LINE
  5
3F3
100
AcDbEntity
  8
0
  6
ByLayer
 62
  256
370
   -1
100
AcDbLine
 10
-39.74730599261355
 20
96.0592194008822
 11
-40.04361483701733
 21
96.01230385198743
  0
CIRCLE
  5
3F4
100
AcDbEntity
  8
0
  6
ByLayer
 62
  256
370
   -1
100
AcDbCircle
 10
-40.8255406519307
 20
100.9507845920503
 40
0.1699999999999999
  0
CIRCLE
  5
3F5
100
AcDbEntity
  8
0
  6
ByLayer
 62
  256
370
   -1
100
AcDbCircle
 10
-41.4510813038614
 20
104.9015691841006
 40
0.1699999999999999
  0
CIRCLE
  5
3F6
100
AcDbEntity
  8
0
  6
ByLayer
 62
  256
370
   -1
100
AcDbCircle
 10
-42.0766219557921
 20
108.8523537761509
 40
0.1699999999999999
  0
CIRCLE
  5
3F7
100
AcDbEntity
  8
0
  6
ByLayer
 62
  256
370
   -1
100
AcDbCircle
 10
-42.70216260772279
 20
112.8031383682012
 40
0.1699999999999999
  0
CIRCLE
  5
3F8
100
AcDbEntity
  8
0
  6
ByLayer
 62
  256
370
   -1
100
AcDbCircle
 10
-43.32770325965349
 20
116.7539229602515
 40
0.1699999999999999
  0
CIRCLE
  5
3F9
100
AcDbEntity
  8
0
  6
ByLayer
 62
  256
370
   -1
100
AcDbCircle
 10
-43.95324391158419
 20
120.7047075523018
 40
0.1699999999999999
  0
ARC
  5
3FA
100
AcDbEntity
  8
0
  6
ByLayer
 62
  256
370
   -1
100
AcDbCircle
 10
-40.15576694080208
 20
97.06325413655959
 40
1.056917496792285
100
AcDbArc
 50
188.8856253272114
 51
276.0912632726204
  0
ARC
  5
3FB
100
AcDbEntity
  8
0
  6
ByLayer
 62
  256
370
   -1
100
AcDbCircle
 10
-43.41585365853658
 20
120.4207317073171
 40
1.500470875923412
100
AcDbArc
 50
121.5068282257974
 51
188.4593848180025
  0
ARC
  5
3FC
100
AcDbEntity
  8
0
  6
ByLayer
 62
  256
370
   -1
100
AcDbCircle
 10
-43.78260613207548
 20
121.0456367924528
 40
0.7761500166671568
100
AcDbArc
 50
10.71938789599043
 51
122.5322833739127
  0
LINE
  5
3FD
100
AcDbEntity
  8
0
  6
ByLayer
 62
  256
370
   -1
100
AcDbLine
 10
-39.16538830309261
 20
96.86007631857886
 11
-43.02
 21
121.19
  0
LINE
  5
3FE
100
AcDbEntity
  8
0
  6
ByLayer
 62
  256
370
   -1
100
AcDbLine
 10
-41.2
 20
96.90000000000001
 11
-44.90000000000001
 21
120.2
  0
CIRCLE
  5
3FF
100
AcDbEntity
  8
0
  6
ByLayer
 62
  256
370
   -1
100
AcDbCircle
 10
-35.53356732637947
 20
96.97643299622872
 40
0.1699999999999999
  0
CIRCLE
  5
400
100
AcDbEntity
  8
0
  6
ByLayer
 62
  256
370
   -1
100
AcDbCircle
 10
-35.96713465275894
 20
100.9528659924574
 40
0.1699999999999999
  0
CIRCLE
  5
401
100
AcDbEntity
  8
0
  6
ByLayer
 62
  256
370
   -1
100
AcDbCircle
 10
-36.40070197913841
 20
104.929298988686
 40
0.1699999999999999
  0
CIRCLE
  5
402
100
AcDbEntity
  8
0
  6
ByLayer
 62
  256
370
   -1
100
AcDbCircle
 10
-36.83426930551788
 20
108.9057319849147
 40
0.1699999999999999
  0
CIRCLE
  5
403
100
AcDbEntity
  8
0
  6
ByLayer
 62
  256
370
   -1
100
AcDbCircle
 10
-37.26783663189735
 20
112.8821649811434
 40
0.1699999999999999
  0
CIRCLE
  5
404
100
AcDbEntity
  8
0
  6
ByLayer
 62
  256
370
   -1
100
AcDbCircle
 10
-37.70140395827682
 20
116.8585979773721
 40
0.1699999999999999
  0
CIRCLE
  5
405
100
AcDbEntity
  8
0
  6
ByLayer
 62
  256
370
   -1
100
AcDbCircle
 10
-38.13497128465629
 20
120.8350309736007
 40
0.1699999999999999
  0
CIRCLE
  5
406
100
AcDbEntity
  8
0
  6
ByLayer
 62
  256
370
   -1
100
AcDbCircle
 10
-38.56853861103576
 20
124.8114639698294
 40
0.1699999999999999
  0
ARC
  5
407
100
AcDbEntity
  8
0
  6
ByLayer
 62
  256
370
   -1
100
AcDbCircle
 10
-38.79199999999999
 20
124.75125
 40
0.7771039586181629
100
AcDbArc
 50
105.5250976642167
 51
192.7307356096231
  0
ARC
  5
408
100
AcDbEntity
  8
0
  6
ByLayer
 62
  256
370
   -1
100
AcDbCircle
 10
-38.20647761075428
 20
125.0951917915857
 40
0.611996246929339
100
AcDbArc
 50
11.58447470817164
 51
98.79011265357951
  0
LINE
  5
409
100
AcDbEntity
  8
0
  6
ByLayer
 62
  256
370
   -1
100
AcDbLine
 10
-38.3
 20
125.7
 11
-39.00000000000001
 21
125.5
  0
CIRCLE
  5
40A
100
AcDbEntity
  8
0
  6
ByLayer
 62
  256
370
   -1
100
AcDbCircle
 10
-35.2
 20
93.99999999999999
 40
0.1699999999999999
  0
LINE
  5
40B
100
AcDbEntity
  8
0
  6
ByLayer
 62
  256
370
   -1
100
AcDbLine
 10
-36.2
 20
93.99999999999999
 11
-39.55
 21
124.58
  0
LINE
  5
40C
100
AcDbEntity
  8
0
  6
ByLayer
 62
  256
370
   -1
100
AcDbLine
 10
-34.2
 20
93.99999999999999
 11
-37.60694791145704
 21
125.2180882761414
  0
ARC
  5
40D
100
AcDbEntity
  8
0
  6
ByLayer
 62
  256
370
   -1
100
AcDbCircle
 10
-35.02
 20
94.01999999999997
 40
0.8202438661763948
100
AcDbArc
 50
271.3971810272967
 51
358.6028189727049
  0
ARC
  5
40E
100
AcDbEntity
  8
0
  6
ByLayer
 62
  256
370
   -1
100
AcDbCircle
 10
-35.18000000000001
 20
94.23000000000003
 40
1.045609869884554
100
AcDbArc
 50
192.7071135013161
 51
279.9127514467246
  0
CIRCLE
  5
40F
100
AcDbEntity
  8
0
  6
ByLayer
 62
  256
370
   -1
100
AcDbCircle
 10
-30.7
 20
92.99999999999999
 40
0.1699999999999999
  0
ARC
  5
410
100
AcDbEntity
  8
0
  6
ByLayer
 62
  256
370
   -1
100
AcDbCircle
 10
-30.9634703438486
 20
92.69967371425012
 40
0.7177133829043584
100
AcDbArc
 50
185.1373410272962
 51
272.3429789727037
  0
LINE
  5
411
100
AcDbEntity
  8
0
  6
ByLayer
 62
  256
370
   -1
100
AcDbLine
 10
-30.93412928668722
 20
91.98256033244454
 11
-30.63476824442256
 21
92.0021298591178
  0
ARC
  5
412
100
AcDbEntity
  8
0
  6
ByLayer
 62
  256
370
   -1
100
AcDbCircle
 10
-30.39967371425015
 20
92.73652965615138
 40
0.7177133829043584
100
AcDbArc
 50
275.1373410272962
 51
2.342978972703773
  0
LINE
  5
413
100
AcDbEntity
  8
0
  6
ByLayer
 62
  256
370
   -1
100
AcDbLine
 10
-30.3354072021579
 20
92.02169938579101
 11
-30.63476824442256
 21
92.0021298591178
  0
CIRCLE
  5
414
100
AcDbEntity
  8
0
  6
ByLayer
 62
  256
370
   -1
100
AcDbCircle
 10
-30.96092702230976
 20
96.99148056352884
 40
0.1699999999999999
  0
CIRCLE
  5
415
100
AcDbEntity
  8
0
  6
ByLayer
 62
  256
370
   -1
100
AcDbCircle
 10
-31.22185404461953
 20
100.9829611270577
 40
0.1699999999999999
  0
CIRCLE
  5
416
100
AcDbEntity
  8
0
  6
ByLayer
 62
  256
370
   -1
100
AcDbCircle
 10
-31.48278106692929
 20
104.9744416905866
 40
0.1699999999999999
  0
CIRCLE
  5
417
100
AcDbEntity
  8
0
  6
ByLayer
 62
  256
370
   -1
100
AcDbCircle
 10
-31.74370808923905
 20
108.9659222541154
 40
0.1699999999999999
  0
CIRCLE
  5
418
100
AcDbEntity
  8
0
  6
ByLayer
 62
  256
370
   -1
100
AcDbCircle
 10
-32.00463511154881
 20
112.9574028176443
 40
0.1699999999999999
  0
CIRCLE
  5
419
100
AcDbEntity
  8
0
  6
ByLayer
 62
  256
370
   -1
100
AcDbCircle
 10
-32.26556213385857
 20
116.9488833811731
 40
0.1699999999999999
  0
CIRCLE
  5
41A
100
AcDbEntity
  8
0
  6
ByLayer
 62
  256
370
   -1
100
AcDbCircle
 10
-32.52648915616833
 20
120.9403639447019
 40
0.1699999999999999
  0
ARC
  5
41B
100
AcDbEntity
  8
0
  6
ByLayer
 62
  256
370
   -1
100
AcDbCircle
 10
-32.90862689995885
 20
122.4688775460065
 40
0.7177133829043584
100
AcDbArc
 50
95.13734102729622
 51
182.3429789727038
  0
LINE
  5
41C
100
AcDbEntity
  8
0
  6
ByLayer
 62
  256
370
   -1
100
AcDbLine
 10
-32.97289341205109
 20
123.1837078163669
 11
-32.67353236978643
 21
123.2032773430401
  0
ARC
  5
41D
100
AcDbEntity
  8
0
  6
ByLayer
 62
  256
370
   -1
100
AcDbCircle
 10
-32.34483027036039
 20
122.5057334879078
 40
0.7177133829043584
100
AcDbArc
 50
5.137341027296213
 51
92.34297897270378
  0
LINE
  5
41E
100
AcDbEntity
  8
0
  6
ByLayer
 62
  256
370
   -1
100
AcDbLine
 10
-32.37417132752178
 20
123.2228468697135
 11
-32.67353236978643
 21
123.2032773430401
  0
LINE
  5
41F
100
AcDbEntity
  8
0
  6
ByLayer
 62
  256
370
   -1
100
AcDbLine
 10
-29.68256033244455
 20
92.76587071331278
 11
-31.63
 21
122.57
  0
LINE
  5
420
100
AcDbEntity
  8
0
  6
ByLayer
 62
  256
370
   -1
100
AcDbLine
 10
-31.678300614209
 20
92.63540720215789
 11
-33.62574028176445
 21
122.4395364888451
  0
ARC
  5
421
100
AcDbEntity
  8
0
  6
ByLayer
 62
  256
370
   -1
100
AcDbCircle
 10
-26.47425699185396
 20
92.70949078772055
 40
0.7177133829043584
100
AcDbArc
 50
183.0455210272962
 51
270.2511589727038
  0
CIRCLE
  5
422
100
AcDbEntity
  8
0
  6
ByLayer
 62
  256
370
   -1
100
AcDbCircle
 10
-26.2
 20
93
 40
0.1699999999999999
  0
LINE
  5
423
100
AcDbEntity
  8
0
  6
ByLayer
 62
  256
370
   -1
100
AcDbLine
 10
-26.4711108686983
 20
91.99178430042292
 11
-26.1712350080965
 21
92.000413797994
  0
ARC
  5
424
100
AcDbEntity
  8
0
  6
ByLayer
 62
  256
370
   -1
100
AcDbCircle
 10
-25.90949078772057
 20
92.72574300814603
 40
0.7177133829043584
100
AcDbArc
 50
273.0455210272962
 51
0.2511589727037798
  0
LINE
  5
425
100
AcDbEntity
  8
0
  6
ByLayer
 62
  256
370
   -1
100
AcDbLine
 10
-25.8713591474947
 20
92.00904329556502
 11
-26.1712350080965
 21
92.000413797994
  0
CIRCLE
  5
426
100
AcDbEntity
  8
0
  6
ByLayer
 62
  256
370
   -1
100
AcDbCircle
 10
-26.31505996761402
 20
96.99834480802403
 40
0.1699999999999999
  0
CIRCLE
  5
427
100
AcDbEntity
  8
0
  6
ByLayer
 62
  256
370
   -1
100
AcDbCircle
 10
-26.43011993522805
 20
100.996689616048
 40
0.1699999999999999
  0
CIRCLE
  5
428
100
AcDbEntity
  8
0
  6
ByLayer
 62
  256
370
   -1
100
AcDbCircle
 10
-26.54517990284207
 20
104.9950344240721
 40
0.1699999999999999
  0
CIRCLE
  5
429
100
AcDbEntity
  8
0
  6
ByLayer
 62
  256
370
   -1
100
AcDbCircle
 10
-26.66023987045609
 20
108.9933792320961
 40
0.1699999999999999
  0
CIRCLE
  5
42A
100
AcDbEntity
  8
0
  6
ByLayer
 62
  256
370
   -1
100
AcDbCircle
 10
-26.77529983807011
 20
112.9917240401201
 40
0.1699999999999999
  0
CIRCLE
  5
42B
100
AcDbEntity
  8
0
  6
ByLayer
 62
  256
370
   -1
100
AcDbCircle
 10
-26.89035980568413
 20
116.9900688481441
 40
0.1699999999999999
  0
CIRCLE
  5
42C
100
AcDbEntity
  8
0
  6
ByLayer
 62
  256
370
   -1
100
AcDbCircle
 10
-27.00541977329815
 20
120.9884136561681
 40
0.1699999999999999
  0
ARC
  5
42D
100
AcDbEntity
  8
0
  6
ByLayer
 62
  256
370
   -1
100
AcDbCircle
 10
-27.3154659167144
 20
121.9456161393487
 40
0.7177133829043584
100
AcDbArc
 50
93.04552102729622
 51
180.2511589727038
  0
LINE
  5
42E
100
AcDbEntity
  8
0
  6
ByLayer
 62
  256
370
   -1
100
AcDbLine
 10
-27.35359755694027
 20
122.6623158519298
 11
-27.05372169633847
 21
122.6709453495007
  0
ARC
  5
42F
100
AcDbEntity
  8
0
  6
ByLayer
 62
  256
370
   -1
100
AcDbCircle
 10
-26.75069971258101
 20
121.9618683597741
 40
0.7177133829043584
100
AcDbArc
 50
3.04552102729622
 51
90.25115897270378
  0
LINE
  5
430
100
AcDbEntity
  8
0
  6
ByLayer
 62
  256
370
   -1
100
AcDbLine
 10
-26.75384583573667
 20
122.6795748470719
 11
-27.05372169633847
 21
122.6709453495007
  0
ARC
  5
431
100
AcDbEntity
  8
0
  6
ByLayer
 62
  256
370
   -1
100
AcDbCircle
 10
-24.94787009063445
 20
120.6243655589124
 40
1.397787429238616
100
AcDbArc
 50
79.78570311198305
 51
174.8432425912554
  0
ARC
  5
432
100
AcDbEntity
  8
0
  6
ByLayer
 62
  256
370
   -1
100
AcDbCircle
 10
-25.02157323688971
 20
119.316329113924
 40
2.702868618977892
100
AcDbArc
 50
1.773950317910066
 51
83.16706127241453
  0
LINE
  5
433
100
AcDbEntity
  8
0
  6
ByLayer
 62
  256
370
   -1
100
AcDbLine
 10
-22.00014780195053
 20
93.02431431587956
 11
-22.32
 21
119.4
  0
LINE
  5
434
100
AcDbEntity
  8
0
  6
ByLayer
 62
  256
370
   -1
100
AcDbLine
 10
-25.19178430042294
 20
92.72888913130167
 11
-26.034
 21
122
  0
LINE
  5
435
100
AcDbEntity
  8
0
  6
ByLayer
 62
  256
370
   -1
100
AcDbLine
 10
-27.19095670443497
 20
92.67135914749468
 11
-28.03317240401203
 21
121.942470016193
  0
ARC
  5
436
100
AcDbEntity
  8
0
  6
ByLayer
 62
  256
370
   -1
100
AcDbCircle
 10
-22.0825
 20
92.71750000000002
 40
0.7177133829043584
100
AcDbArc
 50
181.3971810272962
 51
268.6028189727038
  0
CIRCLE
  5
437
100
AcDbEntity
  8
0
  6
ByLayer
 62
  256
370
   -1
100
AcDbCircle
 10
-21.8
 20
93
 40
0.1699999999999999
  0
LINE
  5
438
100
AcDbEntity
  8
0
  6
ByLayer
 62
  256
370
   -1
100
AcDbLine
 10
-22.1
 20
92
 11
-21.8
 21
92
  0
ARC
  5
439
100
AcDbEntity
  8
0
  6
ByLayer
 62
  256
370
   -1
100
AcDbCircle
 10
-21.51750000000001
 20
92.71750000000002
 40
0.7177133829043584
100
AcDbArc
 50
271.3971810272962
 51
358.6028189727038
  0
LINE
  5
43A
100
AcDbEntity
  8
0
  6
ByLayer
 62
  256
370
   -1
100
AcDbLine
 10
-21.50000000000001
 20
92
 11
-21.8
 21
92
  0
CIRCLE
  5
43B
100
AcDbEntity
  8
0
  6
ByLayer
 62
  256
370
   -1
100
AcDbCircle
 10
-21.8
 20
97
 40
0.1699999999999999
  0
CIRCLE
  5
43C
100
AcDbEntity
  8
0
  6
ByLayer
 62
  256
370
   -1
100
AcDbCircle
 10
-21.8
 20
101
 40
0.1699999999999999
  0
CIRCLE
  5
43D
100
AcDbEntity
  8
0
  6
ByLayer
 62
  256
370
   -1
100
AcDbCircle
 10
-21.8
 20
105
 40
0.1699999999999999
  0
CIRCLE
  5
43E
100
AcDbEntity
  8
0
  6
ByLayer
 62
  256
370
   -1
100
AcDbCircle
 10
-21.8
 20
109
 40
0.1699999999999999
  0
CIRCLE
  5
43F
100
AcDbEntity
  8
0
  6
ByLayer
 62
  256
370
   -1
100
AcDbCircle
 10
-21.8
 20
113
 40
0.1699999999999999
  0
CIRCLE
  5
440
100
AcDbEntity
  8
0
  6
ByLayer
 62
  256
370
   -1
100
AcDbCircle
 10
-21.8
 20
117
 40
0.1699999999999999
  0
ARC
  5
441
100
AcDbEntity
  8
0
  6
ByLayer
 62
  256
370
   -1
100
AcDbCircle
 10
-17.59065114649963
 20
92.72589343123803
 40
0.7177133829043584
100
AcDbArc
 50
179.7191810272962
 51
266.9248189727037
  0
CIRCLE
  5
442
100
AcDbEntity
  8
0
  6
ByLayer
 62
  256
370
   -1
100
AcDbCircle
 10
-17.3
 20
93
 40
0.1699999999999999
  0
LINE
  5
443
100
AcDbEntity
  8
0
  6
ByLayer
 62
  256
370
   -1
100
AcDbLine
 10
-17.62915379171001
 20
92.00921355408798
 11
-17.32928243847377
 21
92.00042882254587
  0
ARC
  5
444
100
AcDbEntity
  8
0
  6
ByLayer
 62
  256
370
   -1
100
AcDbCircle
 10
-17.02589343123805
 20
92.70934885350036
 40
0.7177133829043584
100
AcDbArc
 50
269.7191810272962
 51
356.9248189727039
  0
LINE
  5
445
100
AcDbEntity
  8
0
  6
ByLayer
 62
  256
370
   -1
100
AcDbLine
 10
-17.02941108523753
 20
91.99164409100372
 11
-17.32928243847377
 21
92.00042882254587
  0
CIRCLE
  5
446
100
AcDbEntity
  8
0
  6
ByLayer
 62
  256
370
   -1
100
AcDbCircle
 10
-17.18287024610494
 20
96.99828470981653
 40
0.1699999999999999
  0
CIRCLE
  5
447
100
AcDbEntity
  8
0
  6
ByLayer
 62
  256
370
   -1
100
AcDbCircle
 10
-17.06574049220988
 20
100.996569419633
 40
0.1699999999999999
  0
CIRCLE
  5
448
100
AcDbEntity
  8
0
  6
ByLayer
 62
  256
370
   -1
100
AcDbCircle
 10
-16.94861073831481
 20
104.9948541294495
 40
0.1699999999999999
  0
CIRCLE
  5
449
100
AcDbEntity
  8
0
  6
ByLayer
 62
  256
370
   -1
100
AcDbCircle
 10
-16.83148098441975
 20
108.9931388392661
 40
0.1699999999999999
  0
CIRCLE
  5
44A
100
AcDbEntity
  8
0
  6
ByLayer
 62
  256
370
   -1
100
AcDbCircle
 10
-16.71435123052468
 20
112.9914235490825
 40
0.1699999999999999
  0
CIRCLE
  5
44B
100
AcDbEntity
  8
0
  6
ByLayer
 62
  256
370
   -1
100
AcDbCircle
 10
-16.59722147662962
 20
116.989708258899
 40
0.1699999999999999
  0
ARC
  5
44C
100
AcDbEntity
  8
0
  6
ByLayer
 62
  256
370
   -1
100
AcDbCircle
 10
-16.87246247775822
 20
117.3200622317372
 40
0.7177133829043584
100
AcDbArc
 50
89.71918102729624
 51
176.9248189727039
  0
LINE
  5
44D
100
AcDbEntity
  8
0
  6
ByLayer
 62
  256
370
   -1
100
AcDbLine
 10
-16.86894482375874
 20
118.0377669942339
 11
-16.5690734705225
 21
118.0289822626916
  0
ARC
  5
44E
100
AcDbEntity
  8
0
  6
ByLayer
 62
  256
370
   -1
100
AcDbCircle
 10
-16.30770476249664
 20
117.3035176539995
 40
0.7177133829043584
100
AcDbArc
 50
359.7191810272963
 51
86.9248189727038
  0
LINE
  5
44F
100
AcDbEntity
  8
0
  6
ByLayer
 62
  256
370
   -1
100
AcDbLine
 10
-16.26920211728626
 20
118.0201975311496
 11
-16.5690734705225
 21
118.0289822626916
  0
LINE
  5
450
100
AcDbEntity
  8
0
  6
ByLayer
 62
  256
370
   -1
100
AcDbLine
 10
-16.30921355408801
 20
92.67084620828999
 11
-15.59
 21
117.3
  0
LINE
  5
451
100
AcDbEntity
  8
0
  6
ByLayer
 62
  256
370
   -1
100
AcDbLine
 10
-18.30835590899628
 20
92.72941108523752
 11
-17.58914235490828
 21
117.3585648769475
  0
ARC
  5
452
100
AcDbEntity
  8
0
  6
ByLayer
 62
  256
370
   -1
100
AcDbCircle
 10
-13.09840933632952
 20
92.73436045476741
 40
0.7177133829043584
100
AcDbArc
 50
178.0721810272962
 51
265.2778189727039
  0
CIRCLE
  5
453
100
AcDbEntity
  8
0
  6
ByLayer
 62
  256
370
   -1
100
AcDbCircle
 10
-12.8
 20
92.99999999999999
 40
0.1699999999999999
  0
LINE
  5
454
100
AcDbEntity
  8
0
  6
ByLayer
 62
  256
370
   -1
100
AcDbLine
 10
-13.15749461162047
 20
92.01908328454327
 11
-12.85799963026007
 21
92.00168339546531
  0
ARC
  5
455
100
AcDbEntity
  8
0
  6
ByLayer
 62
  256
370
   -1
100
AcDbCircle
 10
-12.53436045476742
 20
92.70159066367049
 40
0.7177133829043584
100
AcDbArc
 50
268.0721810272963
 51
355.2778189727038
  0
LINE
  5
456
100
AcDbEntity
  8
0
  6
ByLayer
 62
  256
370
   -1
100
AcDbLine
 10
-12.55850464889966
 20
91.98428350638727
 11
-12.85799963026007
 21
92.00168339546531
  0
CIRCLE
  5
457
100
AcDbEntity
  8
0
  6
ByLayer
 62
  256
370
   -1
100
AcDbCircle
 10
-12.56800147895976
 20
96.99326641813882
 40
0.1699999999999999
  0
CIRCLE
  5
458
100
AcDbEntity
  8
0
  6
ByLayer
 62
  256
370
   -1
100
AcDbCircle
 10
-12.33600295791951
 20
100.9865328362776
 40
0.1699999999999999
  0
CIRCLE
  5
459
100
AcDbEntity
  8
0
  6
ByLayer
 62
  256
370
   -1
100
AcDbCircle
 10
-12.10400443687926
 20
104.9797992544164
 40
0.1699999999999999
  0
CIRCLE
  5
45A
100
AcDbEntity
  8
0
  6
ByLayer
 62
  256
370
   -1
100
AcDbCircle
 10
-11.87200591583901
 20
108.9730656725552
 40
0.1699999999999999
  0
CIRCLE
  5
45B
100
AcDbEntity
  8
0
  6
ByLayer
 62
  256
370
   -1
100
AcDbCircle
 10
-11.64000739479877
 20
112.966332090694
 40
0.1699999999999999
  0
CIRCLE
  5
45C
100
AcDbEntity
  8
0
  6
ByLayer
 62
  256
370
   -1
100
AcDbCircle
 10
-11.4
 20
116.1
 40
0.1699999999999999
  0
ARC
  5
45D
100
AcDbEntity
  8
0
  6
ByLayer
 62
  256
370
   -1
100
AcDbCircle
 10
-11.70472282977589
 20
116.740914724709
 40
0.7177133829043584
100
AcDbArc
 50
88.07218102729625
 51
175.277818972704
  0
ARC
  5
45E
100
AcDbEntity
  8
0
  6
ByLayer
 62
  256
370
   -1
100
AcDbCircle
 10
-12.12216966762789
 20
115.8718528531795
 40
1.646684345922157
100
AcDbArc
 50
355.7562955436501
 51
74.44461099897192
  0
LINE
  5
45F
100
AcDbEntity
  8
0
  6
ByLayer
 62
  256
370
   -1
100
AcDbLine
 10
-13.81571649361274
 20
92.75850464889963
 11
-12.42
 21
116.8
  0
ARC
  5
460
100
AcDbEntity
  8
0
  6
ByLayer
 62
  256
370
   -1
100
AcDbCircle
 10
-8.611802632065796
 20
92.75021685678003
 40
0.7177133829043584
100
AcDbArc
 50
175.0951810272961
 51
262.3008189727038
  0
CIRCLE
  5
461
100
AcDbEntity
  8
0
  6
ByLayer
 62
  256
370
   -1
100
AcDbCircle
 10
-8.299999999999997
 20
93
 40
0.1699999999999999
  0
LINE
  5
462
100
AcDbEntity
  8
0
  6
ByLayer
 62
  256
370
   -1
100
AcDbLine
 10
-8.707956144126669
 20
92.03897357764245
 11
-8.409769006806799
 21
92.00604287560044
  0
ARC
  5
463
100
AcDbEntity
  8
0
  6
ByLayer
 62
  256
370
   -1
100
AcDbCircle
 10
-8.050216856780045
 20
92.68819736793422
 40
0.7177133829043584
100
AcDbArc
 50
265.0951810272962
 51
352.3008189727037
  0
LINE
  5
464
100
AcDbEntity
  8
0
  6
ByLayer
 62
  256
370
   -1
100
AcDbLine
 10
-8.111581869486937
 20
91.97311217355836
 11
-8.409769006806799
 21
92.00604287560044
  0
CIRCLE
  5
465
100
AcDbEntity
  8
0
  6
ByLayer
 62
  256
370
   -1
100
AcDbCircle
 10
-7.860923972772785
 20
96.97582849759829
 40
0.1699999999999999
  0
CIRCLE
  5
466
100
AcDbEntity
  8
0
  6
ByLayer
 62
  256
370
   -1
100
AcDbCircle
 10
-7.421847945545573
 20
100.9516569951965
 40
0.1699999999999999
  0
CIRCLE
  5
467
100
AcDbEntity
  8
0
  6
ByLayer
 62
  256
370
   -1
100
AcDbCircle
 10
-6.982771918318361
 20
104.9274854927947
 40
0.1699999999999999
  0
CIRCLE
  5
468
100
AcDbEntity
  8
0
  6
ByLayer
 62
  256
370
   -1
100
AcDbCircle
 10
-6.543695891091149
 20
108.903313990393
 40
0.1699999999999999
  0
CIRCLE
  5
469
100
AcDbEntity
  8
0
  6
ByLayer
 62
  256
370
   -1
100
AcDbCircle
 10
-6.2
 20
111.67
 40
0.1699999999999999
  0
ARC
  5
46A
100
AcDbEntity
  8
0
  6
ByLayer
 62
  256
370
   -1
100
AcDbCircle
 10
-6.450000000000055
 20
112.2000000000001
 40
0.7433034373658554
100
AcDbArc
 50
109.6538240580507
 51
162.7839264122124
  0
ARC
  5
46B
100
AcDbEntity
  8
0
  6
ByLayer
 62
  256
370
   -1
100
AcDbCircle
 10
-6.516666666666656
 20
111.6833333333334
 40
1.230401921686108
100
AcDbArc
 50
24.82934658814974
 51
98.56914187983828
  0
ARC
  5
46C
100
AcDbEntity
  8
0
  6
ByLayer
 62
  256
370
   -1
100
AcDbCircle
 10
-8.100000000000007
 20
111.4
 40
2.816025568065752
100
AcDbArc
 50
353.8844964337144
 51
16.50436138175492
  0
LINE
  5
46D
100
AcDbEntity
  8
0
  6
ByLayer
 62
  256
370
   -1
100
AcDbLine
 10
-7.338973577642476
 20
92.59204385587331
 11
-5.300000000000001
 21
111.1
  0
LINE
  5
46E
100
AcDbEntity
  8
0
  6
ByLayer
 62
  256
370
   -1
100
AcDbLine
 10
-9.326887826441617
 20
92.81158186948693
 11
-7.16
 21
112.42
  0
LINE
  5
46F
100
AcDbEntity
  8
0
  6
ByLayer
 62
  256
370
   -1
100
AcDbLine
 10
-11.81908328454331
 20
92.6425053883795
 11
-10.48
 21
115.75
  0
CIRCLE
  5
470
100
AcDbEntity
  8
0
  6
ByLayer
 62
  256
370
   -1
100
AcDbCircle
 10
-51
 20
76
 40
0.1700000000000088
  0
CIRCLE
  5
471
100
AcDbEntity
  8
0
  6
ByLayer
 62
  256
370
   -1
100
AcDbCircle
 10
-51
 20
74
 40
0.1700000000000088
  0
CIRCLE
  5
472
100
AcDbEntity
  8
0
  6
ByLayer
 62
  256
370
   -1
100
AcDbCircle
 10
-55
 20
75
 40
7
  0
ARC
  5
473
100
AcDbEntity
  8
0
  6
ByLayer
 62
  256
370
   -1
100
AcDbCircle
 10
-40.96500000164205
 20
77.56500000328411
 40
2.134537416978816
100
AcDbArc
 50
108.4349488089836
 51
145.3048465148112
  0
ARC
  5
474
100
AcDbEntity
  8
0
  6
ByLayer
 62
  256
370
   -1
100
AcDbCircle
 10
-24.71999999999997
 20
64.56000000000003
 40
17.6409183434423
100
AcDbArc
 50
90.58463052070525
 51
98.21278018928601
  0
LINE
  5
475
100
AcDbEntity
  8
0
  6
ByLayer
 62
  256
370
   -1
100
AcDbLine
 10
-41.64023963138931
 20
79.59095935711889
 11
-27.23999999999999
 21
82.01999999999998
  0
CIRCLE
  5
476
100
AcDbEntity
  8
0
  6
ByLayer
 62
  256
370
   -1
100
AcDbCircle
 10
-33
 20
78.33000000000003
 40
0.1350000000000115
  0
CIRCLE
  5
477
100
AcDbEntity
  8
0
  6
ByLayer
 62
  256
370
   -1
100
AcDbCircle
 10
-25.79999999999999
 20
79.5
 40
0.1350000000000019
  0
ARC
  5
478
100
AcDbEntity
  8
0
  6
ByLayer
 62
  256
370
   -1
100
AcDbCircle
 10
-40.96500000164205
 20
72.43499999671589
 40
2.134537416978816
100
AcDbArc
 50
214.6951534851888
 51
251.5650511910164
  0
ARC
  5
479
100
AcDbEntity
  8
0
  6
ByLayer
 62
  256
370
   -1
100
AcDbCircle
 10
-24.71999999999997
 20
85.44
 40
17.6409183434423
100
AcDbArc
 50
261.787219810714
 51
269.4153694792947
  0
LINE
  5
47A
100
AcDbEntity
  8
0
  6
ByLayer
 62
  256
370
   -1
100
AcDbLine
 10
-41.64023963138931
 20
70.40904064288114
 11
-27.23999999999999
 21
67.98000000000002
  0
ARC
  5
47B
100
AcDbEntity
  8
0
  6
ByLayer
 62
  256
370
   -1
100
AcDbCircle
 10
-8.834999998357928
 20
77.56500000328411
 40
2.134537416978816
100
AcDbArc
 50
34.69515348518875
 51
71.56505119101635
  0
ARC
  5
47C
100
AcDbEntity
  8
0
  6
ByLayer
 62
  256
370
   -1
100
AcDbCircle
 10
-25.08000000000001
 20
64.56000000000003
 40
17.6409183434423
100
AcDbArc
 50
81.78721981071399
 51
89.41536947929475
  0
LINE
  5
47D
100
AcDbEntity
  8
0
  6
ByLayer
 62
  256
370
   -1
100
AcDbLine
 10
-8.159760368610662
 20
79.59095935711889
 11
-22.55999999999999
 21
82.01999999999998
  0
CIRCLE
  5
47E
100
AcDbEntity
  8
0
  6
ByLayer
 62
  256
370
   -1
100
AcDbCircle
 10
-16.79999999999998
 20
78.33000000000003
 40
0.1350000000000115
  0
CIRCLE
  5
47F
100
AcDbEntity
  8
0
  6
ByLayer
 62
  256
370
   -1
100
AcDbCircle
 10
-23.99999999999999
 20
79.5
 40
0.1350000000000019
  0
ARC
  5
480
100
AcDbEntity
  8
0
  6
ByLayer
 62
  256
370
   -1
100
AcDbCircle
 10
-8.834999998357928
 20
72.43499999671589
 40
2.134537416978816
100
AcDbArc
 50
288.4349488089836
 51
325.3048465148112
  0
ARC
  5
481
100
AcDbEntity
  8
0
  6
ByLayer
 62
  256
370
   -1
100
AcDbCircle
 10
-25.08000000000001
 20
85.44
 40
17.6409183434423
100
AcDbArc
 50
270.5846305207053
 51
278.212780189286
  0
LINE
  5
482
100
AcDbEntity
  8
0
  6
ByLayer
 62
  256
370
   -1
100
AcDbLine
 10
-8.159760368610662
 20
70.40904064288114
 11
-22.55999999999999
 21
67.98000000000002
  0
ARC
  5
483
100
AcDbEntity
  8
0
  6
ByLayer
 62
  256
370
   -1
100
AcDbCircle
 10
-35.78537608031104
 20
74.75439316580315
 40
8.018386327126841
100
AcDbArc
 50
149.864478630537
 51
178.2447295676172
  0
ARC
  5
484
100
AcDbEntity
  8
0
  6
ByLayer
 62
  256
370
   -1
100
AcDbCircle
 10
-35.78537608031105
 20
75.24560683419688
 40
8.018386327126828
100
AcDbArc
 50
181.7552704323828
 51
210.135521369463
  0
ARC
  5
485
100
AcDbEntity
  8
0
  6
ByLayer
 62
  256
370
   -1
100
AcDbCircle
 10
-14.01462391968895
 20
75.24560683419688
 40
8.018386327126843
100
AcDbArc
 50
329.8644786305371
 51
358.2447295676172
  0
ARC
  5
486
100
AcDbEntity
  8
0
  6
ByLayer
 62
  256
370
   -1
100
AcDbCircle
 10
-14.01462391968894
 20
74.75439316580318
 40
8.018386327126832
100
AcDbArc
 50
1.755270432382788
 51
30.13552136946293
  0
CIRCLE
  5
487
100
AcDbEntity
  8
0
  6
ByLayer
 62
  256
370
   -1
100
AcDbCircle
 10
-10.49999999999999
 20
75
 40
0.1530000000000079
  0
CIRCLE
  5
488
100
AcDbEntity
  8
0
  6
ByLayer
 62
  256
370
   -1
100
AcDbCircle
 10
-31.2
 20
78.60000000000001
 40
0.1350000000000115
  0
CIRCLE
  5
489
100
AcDbEntity
  8
0
  6
ByLayer
 62
  256
370
   -1
100
AcDbCircle
 10
-18.59999999999998
 20
78.60000000000001
 40
0.1350000000000115
  0
CIRCLE
  5
48A
100
AcDbEntity
  8
0
  6
ByLayer
 62
  256
370
   -1
100
AcDbCircle
 10
-39
 20
76.09999999999999
 40
0.1530000000000079
  0
CIRCLE
  5
48B
100
AcDbEntity
  8
0
  6
ByLayer
 62
  256
370
   -1
100
AcDbCircle
 10
-39.00000000000001
 20
73.89999999999999
 40
0.1530000000000079
  0
CIRCLE
  5
48C
100
AcDbEntity
  8
0
  6
ByLayer
 62
  256
370
   -1
100
AcDbCircle
 10
-54.99999999999999
 20
75
 40
0.1700000000000088
  0
CIRCLE
  5
48D
100
AcDbEntity
  8
0
  6
ByLayer
 62
  256
370
   -1
100
AcDbCircle
 10
-39.5
 20
75
 40
0.1530000000000079
  0
CIRCLE
  5
48E
100
AcDbEntity
  8
0
  6
ByLayer
 62
  256
370
   -1
100
AcDbCircle
 10
-51.50000000000001
 20
75
 40
0.1700000000000088
  0
CIRCLE
  5
48F
100
AcDbEntity
  8
0
  6
ByLayer
 62
  256
370
   -1
100
AcDbCircle
 10
51
 20
76
 40
0.1700000000000088
  0
CIRCLE
  5
490
100
AcDbEntity
  8
0
  6
ByLayer
 62
  256
370
   -1
100
AcDbCircle
 10
51
 20
74
 40
0.1700000000000088
  0
CIRCLE
  5
491
100
AcDbEntity
  8
0
  6
ByLayer
 62
  256
370
   -1
100
AcDbCircle
 10
55
 20
75
 40
7
  0
ARC
  5
492
100
AcDbEntity
  8
0
  6
ByLayer
 62
  256
370
   -1
100
AcDbCircle
 10
40.96500000164205
 20
77.56500000328411
 40
2.134537416978816
100
AcDbArc
 50
34.6951534851888
 51
71.56505119101641
  0
ARC
  5
493
100
AcDbEntity
  8
0
  6
ByLayer
 62
  256
370
   -1
100
AcDbCircle
 10
24.71999999999997
 20
64.56000000000003
 40
17.6409183434423
100
AcDbArc
 50
81.78721981071399
 51
89.41536947929475
  0
LINE
  5
494
100
AcDbEntity
  8
0
  6
ByLayer
 62
  256
370
   -1
100
AcDbLine
 10
41.64023963138931
 20
79.59095935711889
 11
27.23999999999999
 21
82.01999999999998
  0
CIRCLE
  5
495
100
AcDbEntity
  8
0
  6
ByLayer
 62
  256
370
   -1
100
AcDbCircle
 10
33
 20
78.33000000000003
 40
0.1350000000000115
  0
CIRCLE
  5
496
100
AcDbEntity
  8
0
  6
ByLayer
 62
  256
370
   -1
100
AcDbCircle
 10
25.79999999999999
 20
79.5
 40
0.1350000000000019
  0
ARC
  5
497
100
AcDbEntity
  8
0
  6
ByLayer
 62
  256
370
   -1
100
AcDbCircle
 10
40.96500000164205
 20
72.43499999671589
 40
2.134537416978816
100
AcDbArc
 50
288.4349488089836
 51
325.3048465148112
  0
ARC
  5
498
100
AcDbEntity
  8
0
  6
ByLayer
 62
  256
370
   -1
100
AcDbCircle
 10
24.71999999999997
 20
85.44
 40
17.6409183434423
100
AcDbArc
 50
270.5846305207053
 51
278.212780189286
  0
LINE
  5
499
100
AcDbEntity
  8
0
  6
ByLayer
 62
  256
370
   -1
100
AcDbLine
 10
41.64023963138931
 20
70.40904064288114
 11
27.23999999999999
 21
67.98000000000002
  0
ARC
  5
49A
100
AcDbEntity
  8
0
  6
ByLayer
 62
  256
370
   -1
100
AcDbCircle
 10
8.834999998357928
 20
77.56500000328411
 40
2.134537416978816
100
AcDbArc
 50
108.4349488089836
 51
145.3048465148113
  0
ARC
  5
49B
100
AcDbEntity
  8
0
  6
ByLayer
 62
  256
370
   -1
100
AcDbCircle
 10
25.08000000000001
 20
64.56000000000003
 40
17.6409183434423
100
AcDbArc
 50
90.58463052070525
 51
98.21278018928601
  0
LINE
  5
49C
100
AcDbEntity
  8
0
  6
ByLayer
 62
  256
370
   -1
100
AcDbLine
 10
8.159760368610662
 20
79.59095935711889
 11
22.55999999999999
 21
82.01999999999998
  0
CIRCLE
  5
49D
100
AcDbEntity
  8
0
  6
ByLayer
 62
  256
370
   -1
100
AcDbCircle
 10
16.79999999999998
 20
78.33000000000003
 40
0.1350000000000115
  0
CIRCLE
  5
49E
100
AcDbEntity
  8
0
  6
ByLayer
 62
  256
370
   -1
100
AcDbCircle
 10
23.99999999999999
 20
79.5
 40
0.1350000000000019
  0
ARC
  5
49F
100
AcDbEntity
  8
0
  6
ByLayer
 62
  256
370
   -1
100
AcDbCircle
 10
8.834999998357928
 20
72.43499999671589
 40
2.134537416978816
100
AcDbArc
 50
214.6951534851888
 51
251.5650511910164
  0
ARC
  5
4A0
100
AcDbEntity
  8
0
  6
ByLayer
 62
  256
370
   -1
100
AcDbCircle
 10
25.08000000000001
 20
85.44
 40
17.6409183434423
100
AcDbArc
 50
261.787219810714
 51
269.4153694792947
  0
LINE
  5
4A1
100
AcDbEntity
  8
0
  6
ByLayer
 62
  256
370
   -1
100
AcDbLine
 10
8.159760368610662
 20
70.40904064288114
 11
22.55999999999999
 21
67.98000000000002
  0
ARC
  5
4A2
100
AcDbEntity
  8
0
  6
ByLayer
 62
  256
370
   -1
100
AcDbCircle
 10
35.78537608031104
 20
74.75439316580315
 40
8.018386327126841
100
AcDbArc
 50
1.755270432382788
 51
30.13552136946299
  0
ARC
  5
4A3
100
AcDbEntity
  8
0
  6
ByLayer
 62
  256
370
   -1
100
AcDbCircle
 10
35.78537608031105
 20
75.24560683419688
 40
8.018386327126828
100
AcDbArc
 50
329.864478630537
 51
358.2447295676172
  0
ARC
  5
4A4
100
AcDbEntity
  8
0
  6
ByLayer
 62
  256
370
   -1
100
AcDbCircle
 10
14.01462391968895
 20
75.24560683419688
 40
8.018386327126843
100
AcDbArc
 50
181.7552704323828
 51
210.1355213694629
  0
ARC
  5
4A5
100
AcDbEntity
  8
0
  6
ByLayer
 62
  256
370
   -1
100
AcDbCircle
 10
14.01462391968894
 20
74.75439316580318
 40
8.018386327126832
100
AcDbArc
 50
149.8644786305371
 51
178.2447295676172
  0
CIRCLE
  5
4A6
100
AcDbEntity
  8
0
  6
ByLayer
 62
  256
370
   -1
100
AcDbCircle
 10
10.49999999999999
 20
75
 40
0.1530000000000079
  0
CIRCLE
  5
4A7
100
AcDbEntity
  8
0
  6
ByLayer
 62
  256
370
   -1
100
AcDbCircle
 10
31.2
 20
78.60000000000001
 40
0.1350000000000115
  0
CIRCLE
  5
4A8
100
AcDbEntity
  8
0
  6
ByLayer
 62
  256
370
   -1
100
AcDbCircle
 10
18.59999999999998
 20
78.60000000000001
 40
0.1350000000000115
  0
CIRCLE
  5
4A9
100
AcDbEntity
  8
0
  6
ByLayer
 62
  256
370
   -1
100
AcDbCircle
 10
39
 20
76.09999999999999
 40
0.1530000000000079
  0
CIRCLE
  5
4AA
100
AcDbEntity
  8
0
  6
ByLayer
 62
  256
370
   -1
100
AcDbCircle
 10
39.00000000000001
 20
73.89999999999999
 40
0.1530000000000079
  0
CIRCLE
  5
4AB
100
AcDbEntity
  8
0
  6
ByLayer
 62
  256
370
   -1
100
AcDbCircle
 10
54.99999999999999
 20
75
 40
0.1700000000000088
  0
CIRCLE
  5
4AC
100
AcDbEntity
  8
0
  6
ByLayer
 62
  256
370
   -1
100
AcDbCircle
 10
39.5
 20
75
 40
0.1530000000000079
  0
CIRCLE
  5
4AD
100
AcDbEntity
  8
0
  6
ByLayer
 62
  256
370
   -1
100
AcDbCircle
 10
51.50000000000001
 20
75
 40
0.1700000000000088
  0
CIRCLE
  5
4AE
100
AcDbEntity
  8
0
  6
ByLayer
 62
  256
370
   -1
100
AcDbCircle
 10
-21
 20
91
 40
0.4000000000000057
  0
CIRCLE
  5
4AF
100
AcDbEntity
  8
0
  6
ByLayer
 62
  256
370
   -1
100
AcDbCircle
 10
-17
 20
91.10000000000001
 40
0.4000000000000057
  0
CIRCLE
  5
4B0
100
AcDbEntity
  8
0
  6
ByLayer
 62
  256
370
   -1
100
AcDbCircle
 10
-19
 20
91.10000000000001
 40
0.4000000000000057
  0
CIRCLE
  5
4B1
100
AcDbEntity
  8
0
  6
ByLayer
 62
  256
370
   -1
100
AcDbCircle
 10
-13
 20
90.90000000000001
 40
0.4000000000000057
  0
CIRCLE
  5
4B2
100
AcDbEntity
  8
0
  6
ByLayer
 62
  256
370
   -1
100
AcDbCircle
 10
-11
 20
90.7
 40
0.4000000000000057
  0
CIRCLE
  5
4B3
100
AcDbEntity
  8
0
  6
ByLayer
 62
  256
370
   -1
100
AcDbCircle
 10
-25
 20
91.10000000000001
 40
0.4000000000000057
  0
CIRCLE
  5
4B4
100
AcDbEntity
  8
0
  6
ByLayer
 62
  256
370
   -1
100
AcDbCircle
 10
-29
 20
91.10000000000001
 40
0.4000000000000057
  0
CIRCLE
  5
4B5
100
AcDbEntity
  8
0
  6
ByLayer
 62
  256
370
   -1
100
AcDbCircle
 10
-27
 20
91.10000000000001
 40
0.4000000000000057
  0
CIRCLE
  5
4B6
100
AcDbEntity
  8
0
  6
ByLayer
 62
  256
370
   -1
100
AcDbCircle
 10
-20.00000000000001
 20
121.2
 40
0.4000000000000057
  0
CIRCLE
  5
4B7
100
AcDbEntity
  8
0
  6
ByLayer
 62
  256
370
   -1
100
AcDbCircle
 10
-22
 20
122.1
 40
0.4000000000000057
  0
CIRCLE
  5
4B8
100
AcDbEntity
  8
0
  6
ByLayer
 62
  256
370
   -1
100
AcDbCircle
 10
-5.000000000000009
 20
88.80000000000001
 40
0.4000000000000057
  0
CIRCLE
  5
4B9
100
AcDbEntity
  8
0
  6
ByLayer
 62
  256
370
   -1
100
AcDbCircle
 10
-28
 20
123.9
 40
0.4000000000000057
  0
CIRCLE
  5
4BA
100
AcDbEntity
  8
0
  6
ByLayer
 62
  256
370
   -1
100
AcDbCircle
 10
-30
 20
124.3
 40
0.4000000000000057
  0
CIRCLE
  5
4BB
100
AcDbEntity
  8
0
  6
ByLayer
 62
  256
370
   -1
100
AcDbCircle
 10
-24
 20
122.9
 40
0.4000000000000057
  0
ELLIPSE
  5
4BC
100
AcDbEntity
  8
0
  6
ByLayer
 62
  256
370
   -1
100
AcDbEllipse
 10
30.56462508983
 20
106.20775250694
 30
0
 11
0
 21
21.75828588755763
 31
0
 40
0.9607843137249998
 41
5.652461870774587
 42
5.801439451192587
  0
ELLIPSE
  5
4BD
100
AcDbEntity
  8
0
  6
ByLayer
 62
  256
370
   -1
100
AcDbEllipse
 10
34.591743048532
 20
99.11452519535339
 30
0
 11
0
 21
27.26413942309803
 31
0
 40
0.9607843137249998
 41
6.175175868929586
 42
0.08613188556958673
  0
ELLIPSE
  5
4BE
100
AcDbEntity
  8
0
  6
ByLayer
 62
  256
370
   -1
100
AcDbEllipse
 10
35.880406019842
 20
113.435174977644
 30
0
 11
0
 21
12.8840703605098
 31
0
 40
0.9607843137249998
 41
5.922378715931586
 42
6.158851560578587
  0
ELLIPSE
  5
4BF
100
AcDbEntity
  8
0
  6
ByLayer
 62
  256
370
   -1
100
AcDbEllipse
 10
49.233412413598
 20
111.747372501338
 30
0
 11
0
 21
3.950672154418399
 31
0
 40
0.9607843137250001
 41
4.519720132959588
 42
5.260910527419588
  0
ELLIPSE
  5
4C0
100
AcDbEntity
  8
0
  6
ByLayer
 62
  256
370
   -1
100
AcDbEllipse
 10
47.10896379229801
 20
101.0915929963026
 30
0
 11
0
 21
2.881358795208399
 31
0
 40
0.9607843137250001
 41
3.386149867739586
 42
4.334949633319586
  0
ELLIPSE
  5
4C1
100
AcDbEntity
  8
0
  6
ByLayer
 62
  256
370
   -1
100
AcDbEllipse
 10
4.667012490315
 20
107.3778111065184
 30
0
 11
0
 21
3.291986580148802
 31
0
 40
0.9607843137250002
 41
0.7283835948595858
 42
1.690862671779584
  0
ELLIPSE
  5
4C2
100
AcDbEntity
  8
0
  6
ByLayer
 62
  256
370
   -1
100
AcDbEllipse
 10
37.4588427606
 20
76.72272356322199
 30
0
 11
0
 21
49.14924153215599
 31
0
 40
0.9607843137249998
 41
0.7150335800595864
 42
0.8315951067995865
  0
ELLIPSE
  5
4C3
100
AcDbEntity
  8
0
  6
ByLayer
 62
  256
370
   -1
100
AcDbEllipse
 10
4.696589131949001
 20
89.01785240278559
 30
0
 11
0
 21
0.7801038971169731
 31
0
 40
0.9607843137250001
 41
1.740370507219596
 42
3.185489818449585
  0
LINE
  5
4C4
100
AcDbEntity
  8
0
  6
ByLayer
 62
  256
370
   -1
100
AcDbLine
 10
11.9481600000508
 20
89.4561759999238
 11
4.7294800000508
 21
88.2384999999238
  0
ELLIPSE
  5
4C5
100
AcDbEntity
  8
0
  6
ByLayer
 62
  256
370
   -1
100
AcDbEllipse
 10
17.17548
 20
37.74380802209799
 30
0
 11
-3.552713678800501e-15
 21
51.997788421538
 31
0
 40
0.9607843137249999
 41
6.228350115062886
 42
0.1048247793795875
  0
ELLIPSE
  5
4C6
100
AcDbEntity
  8
0
  6
ByLayer
 62
  256
370
   -1
100
AcDbEllipse
 10
52.962725252138
 20
68.25530286246098
 30
0
 11
0
 21
30.508243328832
 31
0
 40
0.9607843137249997
 41
0.2589820600095866
 42
0.562203271319588
  0
ELLIPSE
  5
4C7
100
AcDbEntity
  8
0
  6
ByLayer
 62
  256
370
   -1
100
AcDbEllipse
 10
-6.8262723460564
 20
60.8120874855484
 30
0
 11
-4.440892098500626e-15
 21
81.51524262400201
 31
0
 40
0.9607843137249999
 41
5.483629683560586
 42
5.596692772850586
  0
ELLIPSE
  5
4C8
100
AcDbEntity
  8
0
  6
ByLayer
 62
  256
370
   -1
100
AcDbEllipse
 10
42.25742515986
 20
39.12022743511601
 30
0
 11
-7.105427357601002e-15
 21
87.766686077402
 31
0
 40
0.9607843137250002
 41
0.1179027565595875
 42
0.1892156837695868
  0
ELLIPSE
  5
4C9
100
AcDbEntity
  8
0
  6
ByLayer
 62
  256
370
   -1
100
AcDbEllipse
 10
30.983073054558
 20
102.542606798257
 30
0
 11
0
 21
23.2726397339264
 31
0
 40
0.9607843137249999
 41
0.2065732555895878
 42
0.4466431581295888
  0
ELLIPSE
  5
4CA
100
AcDbEntity
  8
0
  6
ByLayer
 62
  256
370
   -1
100
AcDbEllipse
 10
43.07832821833
 20
70.3790600944148
 30
0
 11
0
 21
57.77448911855799
 31
0
 40
0.9607843137250001
 41
0.4026866826095862
 42
0.7194840521195868
  0
ARC
  5
4CB
100
AcDbEntity
  8
0
  6
ByLayer
 62
  256
370
   -1
100
AcDbCircle
 10
28.02636
 20
91.74624
 40
2.27679796802564
100
AcDbArc
 50
271.662134324
 51
287.262510092
  0
LINE
  5
4CC
100
AcDbEntity
  8
0
  6
ByLayer
 62
  256
370
   -1
100
AcDbLine
 10
28.0924
 20
89.47039999999997
 11
19.9136
 21
89.6634399999492
  0
LINE
  5
4CD
100
AcDbEntity
  8
0
  6
ByLayer
 62
  256
370
   -1
100
AcDbLine
 10
31.9786
 20
90.715
 11
28.702
 21
89.572
  0
ARC
  5
4CE
100
AcDbEntity
  8
0
  6
ByLayer
 62
  256
370
   -1
100
AcDbCircle
 10
31.100799090886
 20
92.819664204557
 40
2.28038282967988
100
AcDbArc
 50
292.639752536
 51
303.505221336
  0
LINE
  5
4CF
100
AcDbEntity
  8
0
  6
ByLayer
 62
  256
370
   -1
100
AcDbLine
 10
37.338
 20
94.06780000000001
 11
32.3596
 21
90.9182
  0
LINE
  5
4D0
100
AcDbEntity
  8
0
  6
ByLayer
 62
  256
370
   -1
100
AcDbLine
 10
52.472336
 20
113.80741
 11
49.33188000000001
 21
117.630364
  0
LINE
  5
4D1
100
AcDbEntity
  8
0
  6
ByLayer
 62
  256
370
   -1
100
AcDbLine
 10
52.959
 20
110.990804
 11
49.68239999999999
 21
100.029688
  0
LINE
  5
4D2
100
AcDbEntity
  8
0
  6
ByLayer
 62
  256
370
   -1
100
AcDbLine
 10
47.779178
 20
98.2959602
 11
45.456094
 21
97.74612639999999
  0
LINE
  5
4D3
100
AcDbEntity
  8
0
  6
ByLayer
 62
  256
370
   -1
100
AcDbLine
 10
3.957828
 20
88.8862
 11
1.52689306
 21
106.9834968
  0
CIRCLE
  5
4D4
100
AcDbEntity
  8
0
  6
ByLayer
 62
  256
370
   -1
100
AcDbCircle
 10
15
 20
91.09999999999999
 40
0.4000000000000057
  0
CIRCLE
  5
4D5
100
AcDbEntity
  8
0
  6
ByLayer
 62
  256
370
   -1
100
AcDbCircle
 10
9.000000000000002
 20
90.40000000000001
 40
0.4000000000000057
  0
CIRCLE
  5
4D6
100
AcDbEntity
  8
0
  6
ByLayer
 62
  256
370
   -1
100
AcDbCircle
 10
7
 20
90.09999999999999
 40
0.4000000000000057
  0
CIRCLE
  5
4D7
100
AcDbEntity
  8
0
  6
ByLayer
 62
  256
370
   -1
100
AcDbCircle
 10
23
 20
91
 40
0.4000000000000057
  0
CIRCLE
  5
4D8
100
AcDbEntity
  8
0
  6
ByLayer
 62
  256
370
   -1
100
AcDbCircle
 10
48.38120476042774
 20
100.7756715883159
 40
0.1699999999999999
  0
CIRCLE
  5
4D9
100
AcDbEntity
  8
0
  6
ByLayer
 62
  256
370
   -1
100
AcDbCircle
 10
49.3218071406416
 20
104.6635073824739
 40
0.1699999999999999
  0
CIRCLE
  5
4DA
100
AcDbEntity
  8
0
  6
ByLayer
 62
  256
370
   -1
100
AcDbCircle
 10
50.26240952085547
 20
108.5513431766319
 40
0.1699999999999999
  0
CIRCLE
  5
4DB
100
AcDbEntity
  8
0
  6
ByLayer
 62
  256
370
   -1
100
AcDbCircle
 10
51.20301190106934
 20
112.4391789707899
 40
0.1699999999999999
  0
CIRCLE
  5
4DC
100
AcDbEntity
  8
0
  6
ByLayer
 62
  256
370
   -1
100
AcDbCircle
 10
43.39753119990171
 20
100.8769858794657
 40
0.1699999999999999
  0
CIRCLE
  5
4DD
100
AcDbEntity
  8
0
  6
ByLayer
 62
  256
370
   -1
100
AcDbCircle
 10
44.09629679985255
 20
104.8154788191985
 40
0.1699999999999999
  0
CIRCLE
  5
4DE
100
AcDbEntity
  8
0
  6
ByLayer
 62
  256
370
   -1
100
AcDbCircle
 10
44.79506239980341
 20
108.7539717589313
 40
0.1699999999999999
  0
CIRCLE
  5
4DF
100
AcDbEntity
  8
0
  6
ByLayer
 62
  256
370
   -1
100
AcDbCircle
 10
45.49382799975426
 20
112.6924646986642
 40
0.1699999999999999
  0
CIRCLE
  5
4E0
100
AcDbEntity
  8
0
  6
ByLayer
 62
  256
370
   -1
100
AcDbCircle
 10
46.19259359970511
 20
116.630957638397
 40
0.1699999999999999
  0
CIRCLE
  5
4E1
100
AcDbEntity
  8
0
  6
ByLayer
 62
  256
370
   -1
100
AcDbCircle
 10
38.00925069680762
 20
96.95340778136071
 40
0.1699999999999999
  0
CIRCLE
  5
4E2
100
AcDbEntity
  8
0
  6
ByLayer
 62
  256
370
   -1
100
AcDbCircle
 10
38.50454196223742
 20
100.9226251554017
 40
0.1699999999999999
  0
CIRCLE
  5
4E3
100
AcDbEntity
  8
0
  6
ByLayer
 62
  256
370
   -1
100
AcDbCircle
 10
38.99983322766722
 20
104.8918425294427
 40
0.1699999999999999
  0
CIRCLE
  5
4E4
100
AcDbEntity
  8
0
  6
ByLayer
 62
  256
370
   -1
100
AcDbCircle
 10
39.49512449309703
 20
108.8610599034837
 40
0.1699999999999999
  0
CIRCLE
  5
4E5
100
AcDbEntity
  8
0
  6
ByLayer
 62
  256
370
   -1
100
AcDbCircle
 10
39.99041575852683
 20
112.8302772775247
 40
0.1699999999999999
  0
CIRCLE
  5
4E6
100
AcDbEntity
  8
0
  6
ByLayer
 62
  256
370
   -1
100
AcDbCircle
 10
40.48570702395663
 20
116.7994946515658
 40
0.1699999999999999
  0
CIRCLE
  5
4E7
100
AcDbEntity
  8
0
  6
ByLayer
 62
  256
370
   -1
100
AcDbCircle
 10
40.98099828938643
 20
120.7687120256067
 40
0.1699999999999999
  0
ARC
  5
4E8
100
AcDbEntity
  8
0
  6
ByLayer
 62
  256
370
   -1
100
AcDbCircle
 10
32.0303639107513
 20
93.10514682318761
 40
1.02530483272051
100
AcDbArc
 50
176.6770410272974
 51
263.8826789727025
  0
LINE
  5
4E9
100
AcDbEntity
  8
0
  6
ByLayer
 62
  256
370
   -1
100
AcDbLine
 10
31.92110264601954
 20
92.08568030778399
 11
32.91771116911778
 21
92.00339147690174
  0
CIRCLE
  5
4EA
100
AcDbEntity
  8
0
  6
ByLayer
 62
  256
370
   -1
100
AcDbCircle
 10
33
 20
93
 40
0.1699999999999999
  0
CIRCLE
  5
4EB
100
AcDbEntity
  8
0
  6
ByLayer
 62
  256
370
   -1
100
AcDbCircle
 10
33.32915532352889
 20
96.98643409239293
 40
0.1699999999999999
  0
CIRCLE
  5
4EC
100
AcDbEntity
  8
0
  6
ByLayer
 62
  256
370
   -1
100
AcDbCircle
 10
33.65831064705778
 20
100.9728681847859
 40
0.1699999999999999
  0
CIRCLE
  5
4ED
100
AcDbEntity
  8
0
  6
ByLayer
 62
  256
370
   -1
100
AcDbCircle
 10
33.98746597058668
 20
104.9593022771788
 40
0.1699999999999999
  0
CIRCLE
  5
4EE
100
AcDbEntity
  8
0
  6
ByLayer
 62
  256
370
   -1
100
AcDbCircle
 10
34.31662129411557
 20
108.9457363695717
 40
0.1699999999999999
  0
CIRCLE
  5
4EF
100
AcDbEntity
  8
0
  6
ByLayer
 62
  256
370
   -1
100
AcDbCircle
 10
34.64577661764446
 20
112.9321704619646
 40
0.1699999999999999
  0
CIRCLE
  5
4F0
100
AcDbEntity
  8
0
  6
ByLayer
 62
  256
370
   -1
100
AcDbCircle
 10
34.97493194117335
 20
116.9186045543575
 40
0.1699999999999999
  0
CIRCLE
  5
4F1
100
AcDbEntity
  8
0
  6
ByLayer
 62
  256
370
   -1
100
AcDbCircle
 10
35.30408726470224
 20
120.9050386467505
 40
0.1699999999999999
  0
ARC
  5
4F2
100
AcDbEntity
  8
0
  6
ByLayer
 62
  256
370
   -1
100
AcDbCircle
 10
29.48025497538853
 20
92.97750166808214
 40
1.02530483272051
100
AcDbArc
 50
268.9186410272974
 51
356.1242789727025
  0
LINE
  5
4F3
100
AcDbEntity
  8
0
  6
ByLayer
 62
  256
370
   -1
100
AcDbLine
 10
29.46090526464269
 20
91.9523794369828
 11
28.46184077559807
 21
91.99562463012619
  0
ARC
  5
4F4
100
AcDbEntity
  8
0
  6
ByLayer
 62
  256
370
   -1
100
AcDbCircle
 10
27.53207922175155
 20
93.06182979471174
 40
1.02530483272051
100
AcDbArc
 50
178.9186410272975
 51
266.1242789727026
  0
LINE
  5
4F5
100
AcDbEntity
  8
0
  6
ByLayer
 62
  256
370
   -1
100
AcDbLine
 10
27.46277628655344
 20
92.03886982326958
 11
28.46184077559806
 21
91.99562463012619
  0
CIRCLE
  5
4F6
100
AcDbEntity
  8
0
  6
ByLayer
 62
  256
370
   -1
100
AcDbCircle
 10
28.50508596874145
 20
92.99468911917081
 40
0.1699999999999999
  0
CIRCLE
  5
4F7
100
AcDbEntity
  8
0
  6
ByLayer
 62
  256
370
   -1
100
AcDbCircle
 10
28.67806674131501
 20
96.99094707534933
 40
0.1699999999999999
  0
CIRCLE
  5
4F8
100
AcDbEntity
  8
0
  6
ByLayer
 62
  256
370
   -1
100
AcDbCircle
 10
28.85104751388857
 20
100.9872050315278
 40
0.1699999999999999
  0
CIRCLE
  5
4F9
100
AcDbEntity
  8
0
  6
ByLayer
 62
  256
370
   -1
100
AcDbCircle
 10
29.02402828646214
 20
104.9834629877063
 40
0.1699999999999999
  0
CIRCLE
  5
4FA
100
AcDbEntity
  8
0
  6
ByLayer
 62
  256
370
   -1
100
AcDbCircle
 10
29.1970090590357
 20
108.9797209438848
 40
0.1699999999999999
  0
CIRCLE
  5
4FB
100
AcDbEntity
  8
0
  6
ByLayer
 62
  256
370
   -1
100
AcDbCircle
 10
29.36998983160926
 20
112.9759789000632
 40
0.1699999999999999
  0
CIRCLE
  5
4FC
100
AcDbEntity
  8
0
  6
ByLayer
 62
  256
370
   -1
100
AcDbCircle
 10
29.54297060418283
 20
116.9722368562417
 40
0.1699999999999999
  0
CIRCLE
  5
4FD
100
AcDbEntity
  8
0
  6
ByLayer
 62
  256
370
   -1
100
AcDbCircle
 10
29.71595137675639
 20
120.9684948124202
 40
0.1699999999999999
  0
ARC
  5
4FE
100
AcDbEntity
  8
0
  6
ByLayer
 62
  256
370
   -1
100
AcDbCircle
 10
6.960503739903177
 20
93.16935927973391
 40
1.02530483272051
100
AcDbArc
 50
279.9281810272975
 51
7.133818972702623
  0
LINE
  5
4FF
100
AcDbEntity
  8
0
  6
ByLayer
 62
  256
370
   -1
100
AcDbLine
 10
7.137280244564421
 20
92.1594087525298
 11
6.148344498547115
 21
92.0110642539827
  0
ARC
  5
500
100
AcDbEntity
  8
0
  6
ByLayer
 62
  256
370
   -1
100
AcDbCircle
 10
5.032079035169462
 20
92.88008750756703
 40
1.02530483272051
100
AcDbArc
 50
189.9281810272975
 51
277.1338189727026
  0
LINE
  5
501
100
AcDbEntity
  8
0
  6
ByLayer
 62
  256
370
   -1
100
AcDbLine
 10
5.159408752529801
 20
91.86271975543561
 11
6.148344498547107
 21
92.0110642539827
  0
CIRCLE
  5
502
100
AcDbEntity
  8
0
  6
ByLayer
 62
  256
370
   -1
100
AcDbCircle
 10
5.999999999999999
 20
93
 40
0.1699999999999999
  0
CIRCLE
  5
503
100
AcDbEntity
  8
0
  6
ByLayer
 62
  256
370
   -1
100
AcDbCircle
 10
5.406622005811557
 20
96.9557429840692
 40
0.1699999999999999
  0
CIRCLE
  5
504
100
AcDbEntity
  8
0
  6
ByLayer
 62
  256
370
   -1
100
AcDbCircle
 10
4.813244011623116
 20
100.9114859681384
 40
0.1699999999999999
  0
CIRCLE
  5
505
100
AcDbEntity
  8
0
  6
ByLayer
 62
  256
370
   -1
100
AcDbCircle
 10
4.219866017434674
 20
104.8672289522077
 40
0.1699999999999999
  0
CIRCLE
  5
506
100
AcDbEntity
  8
0
  6
ByLayer
 62
  256
370
   -1
100
AcDbCircle
 10
3.626488023246232
 20
108.8229719362769
 40
0.1699999999999999
  0
ARC
  5
507
100
AcDbEntity
  8
0
  6
ByLayer
 62
  256
370
   -1
100
AcDbCircle
 10
11.47006940834418
 20
93.10904927398991
 40
1.02530483272051
100
AcDbArc
 50
275.6101810272974
 51
2.815818972702403
  0
LINE
  5
508
100
AcDbEntity
  8
0
  6
ByLayer
 62
  256
370
   -1
100
AcDbLine
 10
11.57030294488798
 20
92.08865560576578
 11
10.57300511055424
 21
92.01519112704825
  0
ARC
  5
509
100
AcDbEntity
  8
0
  6
ByLayer
 62
  256
370
   -1
100
AcDbCircle
 10
9.525338631393421
 20
92.96579354049079
 40
1.02530483272051
100
AcDbArc
 50
185.6101810272975
 51
272.8158189727025
  0
LINE
  5
50A
100
AcDbEntity
  8
0
  6
ByLayer
 62
  256
370
   -1
100
AcDbLine
 10
9.575707276220493
 20
91.94172664833076
 11
10.57300511055423
 21
92.01519112704825
  0
CIRCLE
  5
50B
100
AcDbEntity
  8
0
  6
ByLayer
 62
  256
370
   -1
100
AcDbCircle
 10
10.49954063183674
 20
93.01248896138199
 40
0.1699999999999999
  0
CIRCLE
  5
50C
100
AcDbEntity
  8
0
  6
ByLayer
 62
  256
370
   -1
100
AcDbCircle
 10
10.20568271696675
 20
97.00168029871695
 40
0.1699999999999999
  0
CIRCLE
  5
50D
100
AcDbEntity
  8
0
  6
ByLayer
 62
  256
370
   -1
100
AcDbCircle
 10
9.911824802096767
 20
100.9908716360519
 40
0.1699999999999999
  0
CIRCLE
  5
50E
100
AcDbEntity
  8
0
  6
ByLayer
 62
  256
370
   -1
100
AcDbCircle
 10
9.617966887226784
 20
104.9800629733869
 40
0.1699999999999999
  0
CIRCLE
  5
50F
100
AcDbEntity
  8
0
  6
ByLayer
 62
  256
370
   -1
100
AcDbCircle
 10
9.3241089723568
 20
108.9692543107218
 40
0.1699999999999999
  0
CIRCLE
  5
510
100
AcDbEntity
  8
0
  6
ByLayer
 62
  256
370
   -1
100
AcDbCircle
 10
9.030251057486815
 20
112.9584456480568
 40
0.1699999999999999
  0
ARC
  5
511
100
AcDbEntity
  8
0
  6
ByLayer
 62
  256
370
   -1
100
AcDbCircle
 10
15.97348692092499
 20
93.05977637315819
 40
1.02530483272051
100
AcDbArc
 50
273.4421810272975
 51
0.6478189727025584
  0
LINE
  5
512
100
AcDbEntity
  8
0
  6
ByLayer
 62
  256
370
   -1
100
AcDbLine
 10
16.03504751436205
 20
92.03632129679391
 11
15.03568440557798
 21
92.00063689121593
  0
ARC
  5
513
100
AcDbEntity
  8
0
  6
ByLayer
 62
  256
370
   -1
100
AcDbCircle
 10
14.02472885879611
 20
92.99019178228109
 40
1.02530483272051
100
AcDbArc
 50
183.4421810272976
 51
270.6478189727026
  0
LINE
  5
514
100
AcDbEntity
  8
0
  6
ByLayer
 62
  256
370
   -1
100
AcDbLine
 10
14.03632129679391
 20
91.96495248563795
 11
15.03568440557798
 21
92.00063689121593
  0
CIRCLE
  5
515
100
AcDbEntity
  8
0
  6
ByLayer
 62
  256
370
   -1
100
AcDbCircle
 10
15
 20
93
 40
0.1699999999999999
  0
CIRCLE
  5
516
100
AcDbEntity
  8
0
  6
ByLayer
 62
  256
370
   -1
100
AcDbCircle
 10
14.85726237768808
 20
96.99745243513625
 40
0.1699999999999999
  0
CIRCLE
  5
517
100
AcDbEntity
  8
0
  6
ByLayer
 62
  256
370
   -1
100
AcDbCircle
 10
14.71452475537616
 20
100.9949048702725
 40
0.1699999999999999
  0
CIRCLE
  5
518
100
AcDbEntity
  8
0
  6
ByLayer
 62
  256
370
   -1
100
AcDbCircle
 10
14.57178713306424
 20
104.9923573054087
 40
0.1699999999999999
  0
CIRCLE
  5
519
100
AcDbEntity
  8
0
  6
ByLayer
 62
  256
370
   -1
100
AcDbCircle
 10
14.42904951075232
 20
108.989809740545
 40
0.1699999999999999
  0
CIRCLE
  5
51A
100
AcDbEntity
  8
0
  6
ByLayer
 62
  256
370
   -1
100
AcDbCircle
 10
14.28631188844039
 20
112.9872621756813
 40
0.1699999999999999
  0
CIRCLE
  5
51B
100
AcDbEntity
  8
0
  6
ByLayer
 62
  256
370
   -1
100
AcDbCircle
 10
14.14357426612847
 20
116.9847146108175
 40
0.1699999999999999
  0
ARC
  5
51C
100
AcDbEntity
  8
0
  6
ByLayer
 62
  256
370
   -1
100
AcDbCircle
 10
20.5575492408076
 20
93.04616140905233
 40
1.02530483272051
100
AcDbArc
 50
272.5901810272975
 51
359.7958189727025
  0
LINE
  5
51D
100
AcDbEntity
  8
0
  6
ByLayer
 62
  256
370
   -1
100
AcDbLine
 10
20.60388460198408
 20
92.02190410041123
 11
19.60410136737147
 21
92.00108382693698
  0
ARC
  5
51E
100
AcDbEntity
  8
0
  6
ByLayer
 62
  256
370
   -1
100
AcDbCircle
 10
18.60797193331304
 20
93.00556187577746
 40
1.02530483272051
100
AcDbArc
 50
182.5901810272974
 51
269.7958189727026
  0
LINE
  5
51F
100
AcDbEntity
  8
0
  6
ByLayer
 62
  256
370
   -1
100
AcDbLine
 10
18.60431813275886
 20
91.98026355346265
 11
19.60410136737147
 21
92.00108382693698
  0
CIRCLE
  5
520
100
AcDbEntity
  8
0
  6
ByLayer
 62
  256
370
   -1
100
AcDbCircle
 10
19.58328109389718
 20
93.00086706154958
 40
0.1699999999999999
  0
CIRCLE
  5
521
100
AcDbEntity
  8
0
  6
ByLayer
 62
  256
370
   -1
100
AcDbCircle
 10
19.5
 20
97
 40
0.1699999999999999
  0
CIRCLE
  5
522
100
AcDbEntity
  8
0
  6
ByLayer
 62
  256
370
   -1
100
AcDbCircle
 10
19.41671890610283
 20
100.9991329384504
 40
0.1699999999999999
  0
CIRCLE
  5
523
100
AcDbEntity
  8
0
  6
ByLayer
 62
  256
370
   -1
100
AcDbCircle
 10
19.33343781220566
 20
104.9982658769009
 40
0.1699999999999999
  0
CIRCLE
  5
524
100
AcDbEntity
  8
0
  6
ByLayer
 62
  256
370
   -1
100
AcDbCircle
 10
19.25015671830849
 20
108.9973988153513
 40
0.1699999999999999
  0
CIRCLE
  5
525
100
AcDbEntity
  8
0
  6
ByLayer
 62
  256
370
   -1
100
AcDbCircle
 10
19.16687562441131
 20
112.9965317538018
 40
0.1699999999999999
  0
CIRCLE
  5
526
100
AcDbEntity
  8
0
  6
ByLayer
 62
  256
370
   -1
100
AcDbCircle
 10
19.08359453051414
 20
116.9956646922522
 40
0.1699999999999999
  0
ARC
  5
527
100
AcDbEntity
  8
0
  6
ByLayer
 62
  256
370
   -1
100
AcDbCircle
 10
24.9752318754976
 20
93.01314492348432
 40
1.02530483272051
100
AcDbArc
 50
270.7006100272974
 51
357.9062479727025
  0
LINE
  5
528
100
AcDbEntity
  8
0
  6
ByLayer
 62
  256
370
   -1
100
AcDbLine
 10
24.98776894108496
 20
91.98791674303548
 11
23.98784284206022
 21
92.00007390097527
  0
ARC
  5
529
100
AcDbEntity
  8
0
  6
ByLayer
 62
  256
370
   -1
100
AcDbCircle
 10
23.02537598239939
 20
93.03685138146695
 40
1.02530483272051
100
AcDbArc
 50
180.7006100272974
 51
267.9062479727025
  0
LINE
  5
52A
100
AcDbEntity
  8
0
  6
ByLayer
 62
  256
370
   -1
100
AcDbLine
 10
22.98791674303548
 20
92.01223105891505
 11
23.98784284206022
 21
92.00007390097527
  0
CIRCLE
  5
52B
100
AcDbEntity
  8
0
  6
ByLayer
 62
  256
370
   -1
100
AcDbCircle
 10
24
 20
93
 40
0.1699999999999999
  0
CIRCLE
  5
52C
100
AcDbEntity
  8
0
  6
ByLayer
 62
  256
370
   -1
100
AcDbCircle
 10
24.04862863175912
 20
96.99970439609895
 40
0.1699999999999999
  0
CIRCLE
  5
52D
100
AcDbEntity
  8
0
  6
ByLayer
 62
  256
370
   -1
100
AcDbCircle
 10
24.09725726351824
 20
100.9994087921979
 40
0.1699999999999999
  0
CIRCLE
  5
52E
100
AcDbEntity
  8
0
  6
ByLayer
 62
  256
370
   -1
100
AcDbCircle
 10
24.14588589527737
 20
104.9991131882968
 40
0.1699999999999999
  0
CIRCLE
  5
52F
100
AcDbEntity
  8
0
  6
ByLayer
 62
  256
370
   -1
100
AcDbCircle
 10
24.19451452703649
 20
108.9988175843958
 40
0.1699999999999999
  0
CIRCLE
  5
530
100
AcDbEntity
  8
0
  6
ByLayer
 62
  256
370
   -1
100
AcDbCircle
 10
24.24314315879561
 20
112.9985219804947
 40
0.1699999999999999
  0
CIRCLE
  5
531
100
AcDbEntity
  8
0
  6
ByLayer
 62
  256
370
   -1
100
AcDbCircle
 10
24.29177179055473
 20
116.9982263765937
 40
0.1699999999999999
  0
CIRCLE
  5
532
100
AcDbEntity
  8
0
  6
ByLayer
 62
  256
370
   -1
100
AcDbCircle
 10
24.34040042231386
 20
120.9979307726926
 40
0.1699999999999999
  0
CIRCLE
  5
533
100
AcDbEntity
  8
0
  6
ByLayer
 62
  256
370
   -1
100
AcDbCircle
 10
18
 20
120
 40
0.4000000000000057
  0
CIRCLE
  5
534
100
AcDbEntity
  8
0
  6
ByLayer
 62
  256
370
   -1
100
AcDbCircle
 10
16
 20
119.1
 40
0.4000000000000057
  0
CIRCLE
  5
535
100
AcDbEntity
  8
0
  6
ByLayer
 62
  256
370
   -1
100
AcDbCircle
 10
26
 20
123.5
 40
0.4000000000000057
  0
CIRCLE
  5
536
100
AcDbEntity
  8
0
  6
ByLayer
 62
  256
370
   -1
100
AcDbCircle
 10
34
 20
124.6
 40
0.4000000000000057
  0
CIRCLE
  5
537
100
AcDbEntity
  8
0
  6
ByLayer
 62
  256
370
   -1
100
AcDbCircle
 10
32
 20
124.5
 40
0.4000000000000057
  0
LINE
  5
538
100
AcDbEntity
  8
0
  6
ByLayer
 62
  256
370
   -1
100
AcDbLine
 10
16.99872621756813
 20
93.07136881115593
 11
16.2
 21
115.9
  0
LINE
  5
539
100
AcDbEntity
  8
0
  6
ByLayer
 62
  256
370
   -1
100
AcDbLine
 10
17.58371462467196
 20
92.95922651460097
 11
17.1
 21
116.7
  0
LINE
  5
53A
100
AcDbEntity
  8
0
  6
ByLayer
 62
  256
370
   -1
100
AcDbLine
 10
21.5828475631224
 20
93.04250760849814
 11
21.06
 21
118.23
  0
LINE
  5
53B
100
AcDbEntity
  8
0
  6
ByLayer
 62
  256
370
   -1
100
AcDbLine
 10
13.00127378243188
 20
92.92863118884407
 11
12.15
 21
116.72
  0
ARC
  5
53C
100
AcDbEntity
  8
0
  6
ByLayer
 62
  256
370
   -1
100
AcDbCircle
 10
13.64975972540047
 20
116.7009610983982
 40
1.49988056648104
100
AcDbArc
 50
88.08045099082051
 51
179.2726900866702
  0
ARC
  5
53D
100
AcDbEntity
  8
0
  6
ByLayer
 62
  256
370
   -1
100
AcDbCircle
 10
13.70048076923076
 20
115.6918269230769
 40
2.508173123000268
100
AcDbArc
 50
4.760905546150397
 51
90.01098251462709
  0
ARC
  5
53E
100
AcDbEntity
  8
0
  6
ByLayer
 62
  256
370
   -1
100
AcDbCircle
 10
19.94930555555554
 20
117.9921296296296
 40
1.135880478756433
100
AcDbArc
 50
12.0880698945601
 51
77.24955852860882
  0
ARC
  5
53F
100
AcDbEntity
  8
0
  6
ByLayer
 62
  256
370
   -1
100
AcDbCircle
 10
19.10454545454546
 20
116.8227272727273
 40
2.0082988977764
100
AcDbArc
 50
123.3663660010595
 51
183.5035316447845
  0
ARC
  5
540
100
AcDbEntity
  8
0
  6
ByLayer
 62
  256
370
   -1
100
AcDbCircle
 10
19.84999999999999
 20
116.0500000000001
 40
3.070016286601712
100
AcDbArc
 50
83.45370921670558
 51
127.0565281894098
  0
LINE
  5
541
100
AcDbEntity
  8
0
  6
ByLayer
 62
  256
370
   -1
100
AcDbLine
 10
25.99985219804947
 20
92.97568568412044
 11
26.34
 21
120.75
  0
LINE
  5
542
100
AcDbEntity
  8
0
  6
ByLayer
 62
  256
370
   -1
100
AcDbLine
 10
26.50695699065221
 20
93.08117950545758
 11
27.7
 21
121
  0
LINE
  5
543
100
AcDbEntity
  8
0
  6
ByLayer
 62
  256
370
   -1
100
AcDbLine
 10
30.50321494683069
 20
92.90819873288403
 11
31.8
 21
122
  0
ARC
  5
544
100
AcDbEntity
  8
0
  6
ByLayer
 62
  256
370
   -1
100
AcDbCircle
 10
30.43260869565218
 20
121.8282608695652
 40
1.378133994983269
100
AcDbArc
 50
7.158647207598602
 51
95.52173628422125
  0
ARC
  5
545
100
AcDbEntity
  8
0
  6
ByLayer
 62
  256
370
   -1
100
AcDbCircle
 10
30.75602409638553
 20
120.0246987951807
 40
3.207880253034852
100
AcDbArc
 50
98.17270822685632
 51
162.3000083916914
  0
ARC
  5
546
100
AcDbEntity
  8
0
  6
ByLayer
 62
  256
370
   -1
100
AcDbCircle
 10
42.925
 20
117.0964285714286
 40
10.31295623604264
100
AcDbArc
 50
129.9707027978761
 51
158.9539416181751
  0
ARC
  5
547
100
AcDbEntity
  8
0
  6
ByLayer
 62
  256
370
   -1
100
AcDbCircle
 10
36.80000000000001
 20
124.36
 40
0.8121576201698646
100
AcDbArc
 50
9.92624550665089
 51
127.9987324425063
  0
LINE
  5
548
100
AcDbEntity
  8
0
  6
ByLayer
 62
  256
370
   -1
100
AcDbLine
 10
12.49413630050422
 20
93.15941791881698
 11
10.9
 21
114.8
  0
LINE
  5
549
100
AcDbEntity
  8
0
  6
ByLayer
 62
  256
370
   -1
100
AcDbLine
 10
8.50494496316926
 20
92.865560003947
 11
7.100000000000001
 21
112.2
  0
ARC
  5
54A
100
AcDbEntity
  8
0
  6
ByLayer
 62
  256
370
   -1
100
AcDbCircle
 10
9.677884615384613
 20
114.3596153846154
 40
1.299039884984711
100
AcDbArc
 50
19.81643363103651
 51
126.7850779009765
  0
ARC
  5
54B
100
AcDbEntity
  8
0
  6
ByLayer
 62
  256
370
   -1
100
AcDbCircle
 10
10.83076923076923
 20
112.2076923076924
 40
3.730777160974916
100
AcDbArc
 50
121.1663574539631
 51
180.1181354604547
  0
LINE
  5
54C
100
AcDbEntity
  8
0
  6
ByLayer
 62
  256
370
   -1
100
AcDbLine
 10
7.977871492034613
 20
93.29668899709422
 11
5.5
 21
109.9
  0
ARC
  5
54D
100
AcDbEntity
  8
0
  6
ByLayer
 62
  256
370
   -1
100
AcDbCircle
 10
4.348181818181819
 20
109.5654545454546
 40
1.199418936453797
100
AcDbArc
 50
16.19593285065925
 51
142.2354714142151
  0
ARC
  5
54E
100
AcDbEntity
  8
0
  6
ByLayer
 62
  256
370
   -1
100
AcDbCircle
 10
6.710000000000032
 20
106.8807317073171
 40
4.758938501110003
100
AcDbArc
 50
134.0697262190851
 51
188.2239562520766
  0
LINE
  5
54F
100
AcDbEntity
  8
0
  6
ByLayer
 62
  256
370
   -1
100
AcDbLine
 10
4.022128507965387
 20
92.70331100290578
 11
1.999999999999999
 21
106.2
  0
LINE
  5
550
100
AcDbEntity
  8
0
  6
ByLayer
 62
  256
370
   -1
100
AcDbLine
 10
31.00678295380354
 20
93.16457766176444
 11
33.3
 21
120.8
  0
LINE
  5
551
100
AcDbEntity
  8
0
  6
ByLayer
 62
  256
370
   -1
100
AcDbLine
 10
49.5
 20
100.4
 11
52.6
 21
110.6
  0
ARC
  5
552
100
AcDbEntity
  8
0
  6
ByLayer
 62
  256
370
   -1
100
AcDbCircle
 10
46.71788990825686
 20
101.3977064220183
 40
2.955597176056936
100
AcDbArc
 50
281.3587631015835
 51
340.27140464818
  0
ARC
  5
553
100
AcDbEntity
  8
0
  6
ByLayer
 62
  256
370
   -1
100
AcDbCircle
 10
47.15740740740743
 20
99.57222222222227
 40
1.081662212194482
100
AcDbArc
 50
167.8435830142774
 51
277.575196900445
  0
LINE
  5
554
100
AcDbEntity
  8
0
  6
ByLayer
 62
  256
370
   -1
100
AcDbLine
 10
46.10000000000001
 20
99.80000000000001
 11
49.6
 21
114.2
  0
ARC
  5
555
100
AcDbEntity
  8
0
  6
ByLayer
 62
  256
370
   -1
100
AcDbCircle
 10
49.04754098360655
 20
111.5901639344262
 40
3.687870615977954
100
AcDbArc
 50
344.4254453899052
 51
36.81386516240492
  0
LINE
  5
556
100
AcDbEntity
  8
0
  6
ByLayer
 62
  256
370
   -1
100
AcDbLine
 10
52.00000000000001
 20
113.8
 11
51.1
 21
114.8
  0
ARC
  5
557
100
AcDbEntity
  8
0
  6
ByLayer
 62
  256
370
   -1
100
AcDbCircle
 10
50.6
 20
113.875
 40
1.051487042240657
100
AcDbArc
 50
61.60698057861689
 51
161.9958383940865
  0
ARC
  5
558
100
AcDbEntity
  8
0
  6
ByLayer
 62
  256
370
   -1
100
AcDbCircle
 10
44.21111111111117
 20
116.5444444444445
 40
3.991503321485742
100
AcDbArc
 50
357.9261286324239
 51
45.67669034027951
  0
ARC
  5
559
100
AcDbEntity
  8
0
  6
ByLayer
 62
  256
370
   -1
100
AcDbCircle
 10
45.91951219512196
 20
118.4829268292683
 40
1.417207499615399
100
AcDbArc
 50
40.32321389637551
 51
158.6014305196753
  0
LINE
  5
55A
100
AcDbEntity
  8
0
  6
ByLayer
 62
  256
370
   -1
100
AcDbLine
 10
45.2
 20
99.50000000000001
 11
48.2
 21
116.4
  0
LINE
  5
55B
100
AcDbEntity
  8
0
  6
ByLayer
 62
  256
370
   -1
100
AcDbLine
 10
40.90000000000001
 20
98.2
 11
44.6
 21
119
  0
ARC
  5
55C
100
AcDbEntity
  8
0
  6
ByLayer
 62
  256
370
   -1
100
AcDbCircle
 10
42.00544554455445
 20
97.98663366336632
 40
1.125848589102358
100
AcDbArc
 50
169.0754593337133
 51
285.1667334596102
  0
ARC
  5
55D
100
AcDbEntity
  8
0
  6
ByLayer
 62
  256
370
   -1
100
AcDbCircle
 10
40.72225806451608
 20
101.5770967741936
 40
4.936041313659835
100
AcDbArc
 50
288.6409797120845
 51
335.1147593636841
  0
LINE
  5
55E
100
AcDbEntity
  8
0
  6
ByLayer
 62
  256
370
   -1
100
AcDbLine
 10
35.8
 20
95.2
 11
39.3
 21
123.3
  0
ARC
  5
55F
100
AcDbEntity
  8
0
  6
ByLayer
 62
  256
370
   -1
100
AcDbCircle
 10
40.54285714285714
 20
121.9428571428572
 40
2.580025312326394
100
AcDbArc
 50
352.3634277845112
 51
52.87630211156979
  0
ARC
  5
560
100
AcDbEntity
  8
0
  6
ByLayer
 62
  256
370
   -1
100
AcDbCircle
 10
40.95333333333334
 20
122.6366666666667
 40
1.781438245413591
100
AcDbArc
 50
49.93362097963492
 51
158.1388659562182
  0
ARC
  5
561
100
AcDbEntity
  8
0
  6
ByLayer
 62
  256
370
   -1
100
AcDbCircle
 10
36.52421875
 20
95.17031249999999
 40
0.7248269762555855
100
AcDbArc
 50
177.6526199363571
 51
292.3633396665257
  0
ARC
  5
562
100
AcDbEntity
  8
0
  6
ByLayer
 62
  256
370
   -1
100
AcDbCircle
 10
35.09576271186447
 20
99.41779661016948
 40
5.204723646195421
100
AcDbArc
 50
289.1134973908868
 51
348.7230003372476
  0
LINE
  5
563
100
AcDbEntity
  8
0
  6
ByLayer
 62
  256
370
   -1
100
AcDbLine
 10
35.1
 20
94.09999999999999
 11
37.6
 21
124.5
  0
ARC
  5
564
100
AcDbEntity
  8
0
  6
ByLayer
 62
  256
370
   -1
100
AcDbCircle
 10
32.90813610993228
 20
94.19739737466409
 40
2.194026791352886
100
AcDbArc
 50
270.2500480958336
 51
357.4556860412387
  0
LINE
  5
565
100
AcDbEntity
  8
0
  6
ByLayer
 62
  256
370
   -1
100
AcDbLine
 10
40.20000000000001
 20
98.40000000000001
 11
43.1
 21
121.6
  0
CIRCLE
  5
566
100
AcDbEntity
  8
0
  6
ByLayer
 62
  256
370
   -1
100
AcDbCircle
 10
45.8
 20
100.7
 40
0.1699999999999999
  0
CIRCLE
  5
567
100
AcDbEntity
  8
0
  6
ByLayer
 62
  256
370
   -1
100
AcDbCircle
 10
46.64222145802465
 20
104.6103277376255
 40
0.1699999999999999
  0
CIRCLE
  5
568
100
AcDbEntity
  8
0
  6
ByLayer
 62
  256
370
   -1
100
AcDbCircle
 10
47.4844429160493
 20
108.5206554752509
 40
0.1699999999999999
  0
CIRCLE
  5
569
100
AcDbEntity
  8
0
  6
ByLayer
 62
  256
370
   -1
100
AcDbCircle
 10
48.32666437407394
 20
112.4309832128763
 40
0.1699999999999999
  0
CIRCLE
  5
56A
100
AcDbEntity
  8
0
  6
ByLayer
 62
  256
370
   -1
100
AcDbCircle
 10
49.16888583209858
 20
116.3413109505018
 40
0.1699999999999999
  0
ARC
  5
56B
100
AcDbEntity
  8
0
  6
ByLayer
 62
  256
370
   -1
100
AcDbCircle
 10
48.8625
 20
116.43
 40
0.6839636320741056
100
AcDbArc
 50
78.4025642353803
 51
165.6082021807882
  0
ARC
  5
56C
100
AcDbEntity
  8
0
  6
ByLayer
 62
  256
370
   -1
100
AcDbCircle
 10
48.34750000000001
 20
115.5775
 40
1.656430650525398
100
AcDbArc
 50
339.595771540944
 51
66.80140948635207
  0
LINE
  5
56D
100
AcDbEntity
  8
0
  6
ByLayer
 62
  256
370
   -1
100
AcDbLine
 10
46.50000000000001
 20
99.2
 11
49.90000000000001
 21
115
  0
LINE
  5
56E
100
AcDbEntity
  8
0
  6
ByLayer
 62
  256
370
   -1
100
AcDbLine
 10
44.40000000000001
 20
98.90000000000001
 11
48.2
 21
116.6
  0
ARC
  5
56F
100
AcDbEntity
  8
0
  6
ByLayer
 62
  256
370
   -1
100
AcDbCircle
 10
45.10509975681543
 20
98.76603420981894
 40
0.7177133829043584
100
AcDbArc
 50
169.2422810272963
 51
256.4479189727038
  0
LINE
  5
570
100
AcDbEntity
  8
0
  6
ByLayer
 62
  256
370
   -1
100
AcDbLine
 10
45.52982178404321
 20
98.16031374394436
 11
45.23337019148668
 21
98.11430881735285
  0
LINE
  5
571
100
AcDbEntity
  8
0
  6
ByLayer
 62
  256
370
   -1
100
AcDbLine
 10
44.93691859893015
 20
98.06830389076123
 11
45.23337019148668
 21
98.11430881735285
  0
ARC
  5
572
100
AcDbEntity
  8
0
  6
ByLayer
 62
  256
370
   -1
100
AcDbCircle
 10
45.21985770744126
 20
99.42205691702351
 40
1.299258851651791
100
AcDbArc
 50
283.8021510820369
 51
350.1592411582905
  0
CIRCLE
  5
573
100
AcDbEntity
  8
0
  6
ByLayer
 62
  256
370
   -1
100
AcDbCircle
 10
40.2
 20
97
 40
0.1699999999999999
  0
ARC
  5
574
100
AcDbEntity
  8
0
  6
ByLayer
 62
  256
370
   -1
100
AcDbCircle
 10
39.87679702964385
 20
96.76515464672904
 40
0.7177133829043584
100
AcDbArc
 50
172.4000410272962
 51
259.6056789727038
  0
LINE
  5
575
100
AcDbEntity
  8
0
  6
ByLayer
 62
  256
370
   -1
100
AcDbLine
 10
39.74730599261355
 20
96.0592194008822
 11
40.04361483701733
 21
96.01230385198743
  0
CIRCLE
  5
576
100
AcDbEntity
  8
0
  6
ByLayer
 62
  256
370
   -1
100
AcDbCircle
 10
40.8255406519307
 20
100.9507845920503
 40
0.1699999999999999
  0
CIRCLE
  5
577
100
AcDbEntity
  8
0
  6
ByLayer
 62
  256
370
   -1
100
AcDbCircle
 10
41.4510813038614
 20
104.9015691841006
 40
0.1699999999999999
  0
CIRCLE
  5
578
100
AcDbEntity
  8
0
  6
ByLayer
 62
  256
370
   -1
100
AcDbCircle
 10
42.0766219557921
 20
108.8523537761509
 40
0.1699999999999999
  0
CIRCLE
  5
579
100
AcDbEntity
  8
0
  6
ByLayer
 62
  256
370
   -1
100
AcDbCircle
 10
42.70216260772279
 20
112.8031383682012
 40
0.1699999999999999
  0
CIRCLE
  5
57A
100
AcDbEntity
  8
0
  6
ByLayer
 62
  256
370
   -1
100
AcDbCircle
 10
43.32770325965349
 20
116.7539229602515
 40
0.1699999999999999
  0
CIRCLE
  5
57B
100
AcDbEntity
  8
0
  6
ByLayer
 62
  256
370
   -1
100
AcDbCircle
 10
43.95324391158419
 20
120.7047075523018
 40
0.1699999999999999
  0
ARC
  5
57C
100
AcDbEntity
  8
0
  6
ByLayer
 62
  256
370
   -1
100
AcDbCircle
 10
40.15576694080208
 20
97.06325413655959
 40
1.056917496792285
100
AcDbArc
 50
263.9087367273796
 51
351.1143746727886
  0
ARC
  5
57D
100
AcDbEntity
  8
0
  6
ByLayer
 62
  256
370
   -1
100
AcDbCircle
 10
43.41585365853658
 20
120.4207317073171
 40
1.500470875923412
100
AcDbArc
 50
351.5406151819975
 51
58.4931717742026
  0
ARC
  5
57E
100
AcDbEntity
  8
0
  6
ByLayer
 62
  256
370
   -1
100
AcDbCircle
 10
43.78260613207548
 20
121.0456367924528
 40
0.7761500166671568
100
AcDbArc
 50
57.46771662608732
 51
169.2806121040096
  0
LINE
  5
57F
100
AcDbEntity
  8
0
  6
ByLayer
 62
  256
370
   -1
100
AcDbLine
 10
39.16538830309261
 20
96.86007631857886
 11
43.02
 21
121.19
  0
LINE
  5
580
100
AcDbEntity
  8
0
  6
ByLayer
 62
  256
370
   -1
100
AcDbLine
 10
41.2
 20
96.90000000000001
 11
44.90000000000001
 21
120.2
  0
CIRCLE
  5
581
100
AcDbEntity
  8
0
  6
ByLayer
 62
  256
370
   -1
100
AcDbCircle
 10
35.53356732637947
 20
96.97643299622872
 40
0.1699999999999999
  0
CIRCLE
  5
582
100
AcDbEntity
  8
0
  6
ByLayer
 62
  256
370
   -1
100
AcDbCircle
 10
35.96713465275894
 20
100.9528659924574
 40
0.1699999999999999
  0
CIRCLE
  5
583
100
AcDbEntity
  8
0
  6
ByLayer
 62
  256
370
   -1
100
AcDbCircle
 10
36.40070197913841
 20
104.929298988686
 40
0.1699999999999999
  0
CIRCLE
  5
584
100
AcDbEntity
  8
0
  6
ByLayer
 62
  256
370
   -1
100
AcDbCircle
 10
36.83426930551788
 20
108.9057319849147
 40
0.1699999999999999
  0
CIRCLE
  5
585
100
AcDbEntity
  8
0
  6
ByLayer
 62
  256
370
   -1
100
AcDbCircle
 10
37.26783663189735
 20
112.8821649811434
 40
0.1699999999999999
  0
CIRCLE
  5
586
100
AcDbEntity
  8
0
  6
ByLayer
 62
  256
370
   -1
100
AcDbCircle
 10
37.70140395827682
 20
116.8585979773721
 40
0.1699999999999999
  0
CIRCLE
  5
587
100
AcDbEntity
  8
0
  6
ByLayer
 62
  256
370
   -1
100
AcDbCircle
 10
38.13497128465629
 20
120.8350309736007
 40
0.1699999999999999
  0
CIRCLE
  5
588
100
AcDbEntity
  8
0
  6
ByLayer
 62
  256
370
   -1
100
AcDbCircle
 10
38.56853861103576
 20
124.8114639698294
 40
0.1699999999999999
  0
ARC
  5
589
100
AcDbEntity
  8
0
  6
ByLayer
 62
  256
370
   -1
100
AcDbCircle
 10
38.79199999999999
 20
124.75125
 40
0.7771039586181629
100
AcDbArc
 50
347.2692643903769
 51
74.47490233578331
  0
ARC
  5
58A
100
AcDbEntity
  8
0
  6
ByLayer
 62
  256
370
   -1
100
AcDbCircle
 10
38.20647761075428
 20
125.0951917915857
 40
0.611996246929339
100
AcDbArc
 50
81.20988734642049
 51
168.4155252918283
  0
LINE
  5
58B
100
AcDbEntity
  8
0
  6
ByLayer
 62
  256
370
   -1
100
AcDbLine
 10
38.3
 20
125.7
 11
39.00000000000001
 21
125.5
  0
CIRCLE
  5
58C
100
AcDbEntity
  8
0
  6
ByLayer
 62
  256
370
   -1
100
AcDbCircle
 10
35.2
 20
93.99999999999999
 40
0.1699999999999999
  0
LINE
  5
58D
100
AcDbEntity
  8
0
  6
ByLayer
 62
  256
370
   -1
100
AcDbLine
 10
36.2
 20
93.99999999999999
 11
39.55
 21
124.58
  0
LINE
  5
58E
100
AcDbEntity
  8
0
  6
ByLayer
 62
  256
370
   -1
100
AcDbLine
 10
34.2
 20
93.99999999999999
 11
37.60694791145704
 21
125.2180882761414
  0
ARC
  5
58F
100
AcDbEntity
  8
0
  6
ByLayer
 62
  256
370
   -1
100
AcDbCircle
 10
35.02
 20
94.01999999999997
 40
0.8202438661763948
100
AcDbArc
 50
181.3971810272951
 51
268.6028189727033
  0
ARC
  5
590
100
AcDbEntity
  8
0
  6
ByLayer
 62
  256
370
   -1
100
AcDbCircle
 10
35.18000000000001
 20
94.23000000000003
 40
1.045609869884554
100
AcDbArc
 50
260.0872485532754
 51
347.2928864986839
  0
CIRCLE
  5
591
100
AcDbEntity
  8
0
  6
ByLayer
 62
  256
370
   -1
100
AcDbCircle
 10
30.7
 20
92.99999999999999
 40
0.1699999999999999
  0
ARC
  5
592
100
AcDbEntity
  8
0
  6
ByLayer
 62
  256
370
   -1
100
AcDbCircle
 10
30.9634703438486
 20
92.69967371425012
 40
0.7177133829043584
100
AcDbArc
 50
267.6570210272963
 51
354.8626589727038
  0
LINE
  5
593
100
AcDbEntity
  8
0
  6
ByLayer
 62
  256
370
   -1
100
AcDbLine
 10
30.93412928668722
 20
91.98256033244454
 11
30.63476824442256
 21
92.0021298591178
  0
ARC
  5
594
100
AcDbEntity
  8
0
  6
ByLayer
 62
  256
370
   -1
100
AcDbCircle
 10
30.39967371425015
 20
92.73652965615138
 40
0.7177133829043584
100
AcDbArc
 50
177.6570210272962
 51
264.8626589727038
  0
LINE
  5
595
100
AcDbEntity
  8
0
  6
ByLayer
 62
  256
370
   -1
100
AcDbLine
 10
30.3354072021579
 20
92.02169938579101
 11
30.63476824442256
 21
92.0021298591178
  0
CIRCLE
  5
596
100
AcDbEntity
  8
0
  6
ByLayer
 62
  256
370
   -1
100
AcDbCircle
 10
30.96092702230976
 20
96.99148056352884
 40
0.1699999999999999
  0
CIRCLE
  5
597
100
AcDbEntity
  8
0
  6
ByLayer
 62
  256
370
   -1
100
AcDbCircle
 10
31.22185404461953
 20
100.9829611270577
 40
0.1699999999999999
  0
CIRCLE
  5
598
100
AcDbEntity
  8
0
  6
ByLayer
 62
  256
370
   -1
100
AcDbCircle
 10
31.48278106692929
 20
104.9744416905866
 40
0.1699999999999999
  0
CIRCLE
  5
599
100
AcDbEntity
  8
0
  6
ByLayer
 62
  256
370
   -1
100
AcDbCircle
 10
31.74370808923905
 20
108.9659222541154
 40
0.1699999999999999
  0
CIRCLE
  5
59A
100
AcDbEntity
  8
0
  6
ByLayer
 62
  256
370
   -1
100
AcDbCircle
 10
32.00463511154881
 20
112.9574028176443
 40
0.1699999999999999
  0
CIRCLE
  5
59B
100
AcDbEntity
  8
0
  6
ByLayer
 62
  256
370
   -1
100
AcDbCircle
 10
32.26556213385857
 20
116.9488833811731
 40
0.1699999999999999
  0
CIRCLE
  5
59C
100
AcDbEntity
  8
0
  6
ByLayer
 62
  256
370
   -1
100
AcDbCircle
 10
32.52648915616833
 20
120.9403639447019
 40
0.1699999999999999
  0
ARC
  5
59D
100
AcDbEntity
  8
0
  6
ByLayer
 62
  256
370
   -1
100
AcDbCircle
 10
32.90862689995885
 20
122.4688775460065
 40
0.7177133829043584
100
AcDbArc
 50
357.6570210272963
 51
84.86265897270378
  0
LINE
  5
59E
100
AcDbEntity
  8
0
  6
ByLayer
 62
  256
370
   -1
100
AcDbLine
 10
32.97289341205109
 20
123.1837078163669
 11
32.67353236978643
 21
123.2032773430401
  0
ARC
  5
59F
100
AcDbEntity
  8
0
  6
ByLayer
 62
  256
370
   -1
100
AcDbCircle
 10
32.34483027036039
 20
122.5057334879078
 40
0.7177133829043584
100
AcDbArc
 50
87.65702102729622
 51
174.8626589727038
  0
LINE
  5
5A0
100
AcDbEntity
  8
0
  6
ByLayer
 62
  256
370
   -1
100
AcDbLine
 10
32.37417132752178
 20
123.2228468697135
 11
32.67353236978643
 21
123.2032773430401
  0
LINE
  5
5A1
100
AcDbEntity
  8
0
  6
ByLayer
 62
  256
370
   -1
100
AcDbLine
 10
29.68256033244455
 20
92.76587071331278
 11
31.63
 21
122.57
  0
LINE
  5
5A2
100
AcDbEntity
  8
0
  6
ByLayer
 62
  256
370
   -1
100
AcDbLine
 10
31.678300614209
 20
92.63540720215789
 11
33.62574028176445
 21
122.4395364888451
  0
ARC
  5
5A3
100
AcDbEntity
  8
0
  6
ByLayer
 62
  256
370
   -1
100
AcDbCircle
 10
26.47425699185396
 20
92.70949078772055
 40
0.7177133829043584
100
AcDbArc
 50
269.7488410272962
 51
356.9544789727038
  0
CIRCLE
  5
5A4
100
AcDbEntity
  8
0
  6
ByLayer
 62
  256
370
   -1
100
AcDbCircle
 10
26.2
 20
93
 40
0.1699999999999999
  0
LINE
  5
5A5
100
AcDbEntity
  8
0
  6
ByLayer
 62
  256
370
   -1
100
AcDbLine
 10
26.4711108686983
 20
91.99178430042292
 11
26.1712350080965
 21
92.000413797994
  0
ARC
  5
5A6
100
AcDbEntity
  8
0
  6
ByLayer
 62
  256
370
   -1
100
AcDbCircle
 10
25.90949078772057
 20
92.72574300814603
 40
0.7177133829043584
100
AcDbArc
 50
179.7488410272962
 51
266.9544789727038
  0
LINE
  5
5A7
100
AcDbEntity
  8
0
  6
ByLayer
 62
  256
370
   -1
100
AcDbLine
 10
25.8713591474947
 20
92.00904329556502
 11
26.1712350080965
 21
92.000413797994
  0
CIRCLE
  5
5A8
100
AcDbEntity
  8
0
  6
ByLayer
 62
  256
370
   -1
100
AcDbCircle
 10
26.31505996761402
 20
96.99834480802403
 40
0.1699999999999999
  0
CIRCLE
  5
5A9
100
AcDbEntity
  8
0
  6
ByLayer
 62
  256
370
   -1
100
AcDbCircle
 10
26.43011993522805
 20
100.996689616048
 40
0.1699999999999999
  0
CIRCLE
  5
5AA
100
AcDbEntity
  8
0
  6
ByLayer
 62
  256
370
   -1
100
AcDbCircle
 10
26.54517990284207
 20
104.9950344240721
 40
0.1699999999999999
  0
CIRCLE
  5
5AB
100
AcDbEntity
  8
0
  6
ByLayer
 62
  256
370
   -1
100
AcDbCircle
 10
26.66023987045609
 20
108.9933792320961
 40
0.1699999999999999
  0
CIRCLE
  5
5AC
100
AcDbEntity
  8
0
  6
ByLayer
 62
  256
370
   -1
100
AcDbCircle
 10
26.77529983807011
 20
112.9917240401201
 40
0.1699999999999999
  0
CIRCLE
  5
5AD
100
AcDbEntity
  8
0
  6
ByLayer
 62
  256
370
   -1
100
AcDbCircle
 10
26.89035980568413
 20
116.9900688481441
 40
0.1699999999999999
  0
CIRCLE
  5
5AE
100
AcDbEntity
  8
0
  6
ByLayer
 62
  256
370
   -1
100
AcDbCircle
 10
27.00541977329815
 20
120.9884136561681
 40
0.1699999999999999
  0
ARC
  5
5AF
100
AcDbEntity
  8
0
  6
ByLayer
 62
  256
370
   -1
100
AcDbCircle
 10
27.3154659167144
 20
121.9456161393487
 40
0.7177133829043584
100
AcDbArc
 50
359.7488410272962
 51
86.95447897270378
  0
LINE
  5
5B0
100
AcDbEntity
  8
0
  6
ByLayer
 62
  256
370
   -1
100
AcDbLine
 10
27.35359755694027
 20
122.6623158519298
 11
27.05372169633847
 21
122.6709453495007
  0
ARC
  5
5B1
100
AcDbEntity
  8
0
  6
ByLayer
 62
  256
370
   -1
100
AcDbCircle
 10
26.75069971258101
 20
121.9618683597741
 40
0.7177133829043584
100
AcDbArc
 50
89.74884102729622
 51
176.9544789727038
  0
LINE
  5
5B2
100
AcDbEntity
  8
0
  6
ByLayer
 62
  256
370
   -1
100
AcDbLine
 10
26.75384583573667
 20
122.6795748470719
 11
27.05372169633847
 21
122.6709453495007
  0
ARC
  5
5B3
100
AcDbEntity
  8
0
  6
ByLayer
 62
  256
370
   -1
100
AcDbCircle
 10
24.94787009063445
 20
120.6243655589124
 40
1.397787429238616
100
AcDbArc
 50
5.156757408744594
 51
100.214296888017
  0
ARC
  5
5B4
100
AcDbEntity
  8
0
  6
ByLayer
 62
  256
370
   -1
100
AcDbCircle
 10
25.02157323688971
 20
119.316329113924
 40
2.702868618977892
100
AcDbArc
 50
96.83293872758547
 51
178.2260496820899
  0
LINE
  5
5B5
100
AcDbEntity
  8
0
  6
ByLayer
 62
  256
370
   -1
100
AcDbLine
 10
22.00014780195053
 20
93.02431431587956
 11
22.32
 21
119.4
  0
LINE
  5
5B6
100
AcDbEntity
  8
0
  6
ByLayer
 62
  256
370
   -1
100
AcDbLine
 10
25.19178430042294
 20
92.72888913130167
 11
26.034
 21
122
  0
LINE
  5
5B7
100
AcDbEntity
  8
0
  6
ByLayer
 62
  256
370
   -1
100
AcDbLine
 10
27.19095670443497
 20
92.67135914749468
 11
28.03317240401203
 21
121.942470016193
  0
ARC
  5
5B8
100
AcDbEntity
  8
0
  6
ByLayer
 62
  256
370
   -1
100
AcDbCircle
 10
22.0825
 20
92.71750000000002
 40
0.7177133829043584
100
AcDbArc
 50
271.3971810272962
 51
358.6028189727038
  0
CIRCLE
  5
5B9
100
AcDbEntity
  8
0
  6
ByLayer
 62
  256
370
   -1
100
AcDbCircle
 10
21.8
 20
93
 40
0.1699999999999999
  0
LINE
  5
5BA
100
AcDbEntity
  8
0
  6
ByLayer
 62
  256
370
   -1
100
AcDbLine
 10
22.1
 20
92
 11
21.8
 21
92
  0
ARC
  5
5BB
100
AcDbEntity
  8
0
  6
ByLayer
 62
  256
370
   -1
100
AcDbCircle
 10
21.51750000000001
 20
92.71750000000002
 40
0.7177133829043584
100
AcDbArc
 50
181.3971810272962
 51
268.6028189727038
  0
LINE
  5
5BC
100
AcDbEntity
  8
0
  6
ByLayer
 62
  256
370
   -1
100
AcDbLine
 10
21.50000000000001
 20
92
 11
21.8
 21
92
  0
CIRCLE
  5
5BD
100
AcDbEntity
  8
0
  6
ByLayer
 62
  256
370
   -1
100
AcDbCircle
 10
21.8
 20
97
 40
0.1699999999999999
  0
CIRCLE
  5
5BE
100
AcDbEntity
  8
0
  6
ByLayer
 62
  256
370
   -1
100
AcDbCircle
 10
21.8
 20
101
 40
0.1699999999999999
  0
CIRCLE
  5
5BF
100
AcDbEntity
  8
0
  6
ByLayer
 62
  256
370
   -1
100
AcDbCircle
 10
21.8
 20
105
 40
0.1699999999999999
  0
CIRCLE
  5
5C0
100
AcDbEntity
  8
0
  6
ByLayer
 62
  256
370
   -1
100
AcDbCircle
 10
21.8
 20
109
 40
0.1699999999999999
  0
CIRCLE
  5
5C1
100
AcDbEntity
  8
0
  6
ByLayer
 62
  256
370
   -1
100
AcDbCircle
 10
21.8
 20
113
 40
0.1699999999999999
  0
CIRCLE
  5
5C2
100
AcDbEntity
  8
0
  6
ByLayer
 62
  256
370
   -1
100
AcDbCircle
 10
21.8
 20
117
 40
0.1699999999999999
  0
ARC
  5
5C3
100
AcDbEntity
  8
0
  6
ByLayer
 62
  256
370
   -1
100
AcDbCircle
 10
17.59065114649963
 20
92.72589343123803
 40
0.7177133829043584
100
AcDbArc
 50
273.0751810272963
 51
0.2808189727038076
  0
CIRCLE
  5
5C4
100
AcDbEntity
  8
0
  6
ByLayer
 62
  256
370
   -1
100
AcDbCircle
 10
17.3
 20
93
 40
0.1699999999999999
  0
LINE
  5
5C5
100
AcDbEntity
  8
0
  6
ByLayer
 62
  256
370
   -1
100
AcDbLine
 10
17.62915379171001
 20
92.00921355408798
 11
17.32928243847377
 21
92.00042882254587
  0
ARC
  5
5C6
100
AcDbEntity
  8
0
  6
ByLayer
 62
  256
370
   -1
100
AcDbCircle
 10
17.02589343123805
 20
92.70934885350036
 40
0.7177133829043584
100
AcDbArc
 50
183.0751810272961
 51
270.2808189727038
  0
LINE
  5
5C7
100
AcDbEntity
  8
0
  6
ByLayer
 62
  256
370
   -1
100
AcDbLine
 10
17.02941108523753
 20
91.99164409100372
 11
17.32928243847377
 21
92.00042882254587
  0
CIRCLE
  5
5C8
100
AcDbEntity
  8
0
  6
ByLayer
 62
  256
370
   -1
100
AcDbCircle
 10
17.18287024610494
 20
96.99828470981653
 40
0.1699999999999999
  0
CIRCLE
  5
5C9
100
AcDbEntity
  8
0
  6
ByLayer
 62
  256
370
   -1
100
AcDbCircle
 10
17.06574049220988
 20
100.996569419633
 40
0.1699999999999999
  0
CIRCLE
  5
5CA
100
AcDbEntity
  8
0
  6
ByLayer
 62
  256
370
   -1
100
AcDbCircle
 10
16.94861073831481
 20
104.9948541294495
 40
0.1699999999999999
  0
CIRCLE
  5
5CB
100
AcDbEntity
  8
0
  6
ByLayer
 62
  256
370
   -1
100
AcDbCircle
 10
16.83148098441975
 20
108.9931388392661
 40
0.1699999999999999
  0
CIRCLE
  5
5CC
100
AcDbEntity
  8
0
  6
ByLayer
 62
  256
370
   -1
100
AcDbCircle
 10
16.71435123052468
 20
112.9914235490825
 40
0.1699999999999999
  0
CIRCLE
  5
5CD
100
AcDbEntity
  8
0
  6
ByLayer
 62
  256
370
   -1
100
AcDbCircle
 10
16.59722147662962
 20
116.989708258899
 40
0.1699999999999999
  0
ARC
  5
5CE
100
AcDbEntity
  8
0
  6
ByLayer
 62
  256
370
   -1
100
AcDbCircle
 10
16.87246247775822
 20
117.3200622317372
 40
0.7177133829043584
100
AcDbArc
 50
3.075181027296146
 51
90.28081897270376
  0
LINE
  5
5CF
100
AcDbEntity
  8
0
  6
ByLayer
 62
  256
370
   -1
100
AcDbLine
 10
16.86894482375874
 20
118.0377669942339
 11
16.5690734705225
 21
118.0289822626916
  0
ARC
  5
5D0
100
AcDbEntity
  8
0
  6
ByLayer
 62
  256
370
   -1
100
AcDbCircle
 10
16.30770476249664
 20
117.3035176539995
 40
0.7177133829043584
100
AcDbArc
 50
93.0751810272962
 51
180.2808189727037
  0
LINE
  5
5D1
100
AcDbEntity
  8
0
  6
ByLayer
 62
  256
370
   -1
100
AcDbLine
 10
16.26920211728626
 20
118.0201975311496
 11
16.5690734705225
 21
118.0289822626916
  0
LINE
  5
5D2
100
AcDbEntity
  8
0
  6
ByLayer
 62
  256
370
   -1
100
AcDbLine
 10
16.30921355408801
 20
92.67084620828999
 11
15.59
 21
117.3
  0
LINE
  5
5D3
100
AcDbEntity
  8
0
  6
ByLayer
 62
  256
370
   -1
100
AcDbLine
 10
18.30835590899628
 20
92.72941108523752
 11
17.58914235490828
 21
117.3585648769475
  0
ARC
  5
5D4
100
AcDbEntity
  8
0
  6
ByLayer
 62
  256
370
   -1
100
AcDbCircle
 10
13.09840933632952
 20
92.73436045476741
 40
0.7177133829043584
100
AcDbArc
 50
274.7221810272961
 51
1.927818972703802
  0
CIRCLE
  5
5D5
100
AcDbEntity
  8
0
  6
ByLayer
 62
  256
370
   -1
100
AcDbCircle
 10
12.8
 20
92.99999999999999
 40
0.1699999999999999
  0
LINE
  5
5D6
100
AcDbEntity
  8
0
  6
ByLayer
 62
  256
370
   -1
100
AcDbLine
 10
13.15749461162047
 20
92.01908328454327
 11
12.85799963026007
 21
92.00168339546531
  0
ARC
  5
5D7
100
AcDbEntity
  8
0
  6
ByLayer
 62
  256
370
   -1
100
AcDbCircle
 10
12.53436045476742
 20
92.70159066367049
 40
0.7177133829043584
100
AcDbArc
 50
184.7221810272962
 51
271.9278189727037
  0
LINE
  5
5D8
100
AcDbEntity
  8
0
  6
ByLayer
 62
  256
370
   -1
100
AcDbLine
 10
12.55850464889966
 20
91.98428350638727
 11
12.85799963026007
 21
92.00168339546531
  0
CIRCLE
  5
5D9
100
AcDbEntity
  8
0
  6
ByLayer
 62
  256
370
   -1
100
AcDbCircle
 10
12.56800147895976
 20
96.99326641813882
 40
0.1699999999999999
  0
CIRCLE
  5
5DA
100
AcDbEntity
  8
0
  6
ByLayer
 62
  256
370
   -1
100
AcDbCircle
 10
12.33600295791951
 20
100.9865328362776
 40
0.1699999999999999
  0
CIRCLE
  5
5DB
100
AcDbEntity
  8
0
  6
ByLayer
 62
  256
370
   -1
100
AcDbCircle
 10
12.10400443687926
 20
104.9797992544164
 40
0.1699999999999999
  0
CIRCLE
  5
5DC
100
AcDbEntity
  8
0
  6
ByLayer
 62
  256
370
   -1
100
AcDbCircle
 10
11.87200591583901
 20
108.9730656725552
 40
0.1699999999999999
  0
CIRCLE
  5
5DD
100
AcDbEntity
  8
0
  6
ByLayer
 62
  256
370
   -1
100
AcDbCircle
 10
11.64000739479877
 20
112.966332090694
 40
0.1699999999999999
  0
CIRCLE
  5
5DE
100
AcDbEntity
  8
0
  6
ByLayer
 62
  256
370
   -1
100
AcDbCircle
 10
11.4
 20
116.1
 40
0.1699999999999999
  0
ARC
  5
5DF
100
AcDbEntity
  8
0
  6
ByLayer
 62
  256
370
   -1
100
AcDbCircle
 10
11.70472282977589
 20
116.740914724709
 40
0.7177133829043584
100
AcDbArc
 50
4.722181027295988
 51
91.92781897270375
  0
ARC
  5
5E0
100
AcDbEntity
  8
0
  6
ByLayer
 62
  256
370
   -1
100
AcDbCircle
 10
12.12216966762789
 20
115.8718528531795
 40
1.646684345922157
100
AcDbArc
 50
105.5553890010281
 51
184.2437044563499
  0
LINE
  5
5E1
100
AcDbEntity
  8
0
  6
ByLayer
 62
  256
370
   -1
100
AcDbLine
 10
13.81571649361274
 20
92.75850464889963
 11
12.42
 21
116.8
  0
ARC
  5
5E2
100
AcDbEntity
  8
0
  6
ByLayer
 62
  256
370
   -1
100
AcDbCircle
 10
8.611802632065796
 20
92.75021685678003
 40
0.7177133829043584
100
AcDbArc
 50
277.6991810272962
 51
4.904818972703917
  0
CIRCLE
  5
5E3
100
AcDbEntity
  8
0
  6
ByLayer
 62
  256
370
   -1
100
AcDbCircle
 10
8.299999999999997
 20
93
 40
0.1699999999999999
  0
LINE
  5
5E4
100
AcDbEntity
  8
0
  6
ByLayer
 62
  256
370
   -1
100
AcDbLine
 10
8.707956144126669
 20
92.03897357764245
 11
8.409769006806799
 21
92.00604287560044
  0
ARC
  5
5E5
100
AcDbEntity
  8
0
  6
ByLayer
 62
  256
370
   -1
100
AcDbCircle
 10
8.050216856780045
 20
92.68819736793422
 40
0.7177133829043584
100
AcDbArc
 50
187.6991810272962
 51
274.9048189727038
  0
LINE
  5
5E6
100
AcDbEntity
  8
0
  6
ByLayer
 62
  256
370
   -1
100
AcDbLine
 10
8.111581869486937
 20
91.97311217355836
 11
8.409769006806799
 21
92.00604287560044
  0
CIRCLE
  5
5E7
100
AcDbEntity
  8
0
  6
ByLayer
 62
  256
370
   -1
100
AcDbCircle
 10
7.860923972772785
 20
96.97582849759829
 40
0.1699999999999999
  0
CIRCLE
  5
5E8
100
AcDbEntity
  8
0
  6
ByLayer
 62
  256
370
   -1
100
AcDbCircle
 10
7.421847945545573
 20
100.9516569951965
 40
0.1699999999999999
  0
CIRCLE
  5
5E9
100
AcDbEntity
  8
0
  6
ByLayer
 62
  256
370
   -1
100
AcDbCircle
 10
6.982771918318361
 20
104.9274854927947
 40
0.1699999999999999
  0
CIRCLE
  5
5EA
100
AcDbEntity
  8
0
  6
ByLayer
 62
  256
370
   -1
100
AcDbCircle
 10
6.543695891091149
 20
108.903313990393
 40
0.1699999999999999
  0
CIRCLE
  5
5EB
100
AcDbEntity
  8
0
  6
ByLayer
 62
  256
370
   -1
100
AcDbCircle
 10
6.2
 20
111.67
 40
0.1699999999999999
  0
ARC
  5
5EC
100
AcDbEntity
  8
0
  6
ByLayer
 62
  256
370
   -1
100
AcDbCircle
 10
6.450000000000055
 20
112.2000000000001
 40
0.7433034373658554
100
AcDbArc
 50
17.21607358778764
 51
70.34617594194933
  0
ARC
  5
5ED
100
AcDbEntity
  8
0
  6
ByLayer
 62
  256
370
   -1
100
AcDbCircle
 10
6.516666666666656
 20
111.6833333333334
 40
1.230401921686108
100
AcDbArc
 50
81.43085812016172
 51
155.1706534118503
  0
ARC
  5
5EE
100
AcDbEntity
  8
0
  6
ByLayer
 62
  256
370
   -1
100
AcDbCircle
 10
8.100000000000007
 20
111.4
 40
2.816025568065752
100
AcDbArc
 50
163.4956386182451
 51
186.1155035662856
  0
LINE
  5
5EF
100
AcDbEntity
  8
0
  6
ByLayer
 62
  256
370
   -1
100
AcDbLine
 10
7.338973577642476
 20
92.59204385587331
 11
5.300000000000001
 21
111.1
  0
LINE
  5
5F0
100
AcDbEntity
  8
0
  6
ByLayer
 62
  256
370
   -1
100
AcDbLine
 10
9.326887826441617
 20
92.81158186948693
 11
7.16
 21
112.42
  0
LINE
  5
5F1
100
AcDbEntity
  8
0
  6
ByLayer
 62
  256
370
   -1
100
AcDbLine
 10
11.81908328454331
 20
92.6425053883795
 11
10.48
 21
115.75
  0
CIRCLE
  5
5F2
100
AcDbEntity
  8
0
  6
ByLayer
 62
  256
370
   -1
100
AcDbCircle
 10
21
 20
91
 40
0.4000000000000057
  0
CIRCLE
  5
5F3
100
AcDbEntity
  8
0
  6
ByLayer
 62
  256
370
   -1
100
AcDbCircle
 10
17
 20
91.10000000000001
 40
0.4000000000000057
  0
CIRCLE
  5
5F4
100
AcDbEntity
  8
0
  6
ByLayer
 62
  256
370
   -1
100
AcDbCircle
 10
19
 20
91.10000000000001
 40
0.4000000000000057
  0
CIRCLE
  5
5F5
100
AcDbEntity
  8
0
  6
ByLayer
 62
  256
370
   -1
100
AcDbCircle
 10
13
 20
90.90000000000001
 40
0.4000000000000057
  0
CIRCLE
  5
5F6
100
AcDbEntity
  8
0
  6
ByLayer
 62
  256
370
   -1
100
AcDbCircle
 10
11
 20
90.7
 40
0.4000000000000057
  0
CIRCLE
  5
5F7
100
AcDbEntity
  8
0
  6
ByLayer
 62
  256
370
   -1
100
AcDbCircle
 10
25
 20
91.10000000000001
 40
0.4000000000000057
  0
CIRCLE
  5
5F8
100
AcDbEntity
  8
0
  6
ByLayer
 62
  256
370
   -1
100
AcDbCircle
 10
29
 20
91.10000000000001
 40
0.4000000000000057
  0
CIRCLE
  5
5F9
100
AcDbEntity
  8
0
  6
ByLayer
 62
  256
370
   -1
100
AcDbCircle
 10
27
 20
91.10000000000001
 40
0.4000000000000057
  0
CIRCLE
  5
5FA
100
AcDbEntity
  8
0
  6
ByLayer
 62
  256
370
   -1
100
AcDbCircle
 10
20.00000000000001
 20
121.2
 40
0.4000000000000057
  0
CIRCLE
  5
5FB
100
AcDbEntity
  8
0
  6
ByLayer
 62
  256
370
   -1
100
AcDbCircle
 10
22
 20
122.1
 40
0.4000000000000057
  0
LINE
  5
5FC
100
AcDbEntity
  8
0
  6
ByLayer
 62
  256
370
   -1
100
AcDbLine
 10
22.80000000000002
 20
92.70000000000002
 11
22.8
 21
120
  0
CIRCLE
  5
5FD
100
AcDbEntity
  8
0
  6
ByLayer
 62
  256
370
   -1
100
AcDbCircle
 10
5.000000000000009
 20
88.80000000000001
 40
0.4000000000000057
  0
ARC
  5
5FE
100
AcDbEntity
  8
0
  6
ByLayer
 62
  256
370
   -1
100
AcDbCircle
 10
22.23750000000001
 20
119.935
 40
0.5662431015032303
100
AcDbArc
 50
6.59160993503099
 51
93.79724788043896
  0
ARC
  5
5FF
100
AcDbEntity
  8
0
  6
ByLayer
 62
  256
370
   -1
100
AcDbCircle
 10
22.28749999999994
 20
119.015
 40
1.487575628329469
100
AcDbArc
 50
93.3721150381761
 51
180.5777529835845
  0
CIRCLE
  5
600
100
AcDbEntity
  8
0
  6
ByLayer
 62
  256
370
   -1
100
AcDbCircle
 10
21.8
 20
119.5
 40
0.1699999999999999
  0
LINE
  5
601
100
AcDbEntity
  8
0
  6
ByLayer
 62
  256
370
   -1
100
AcDbLine
 10
20.8
 20
92.70000000000002
 11
20.8
 21
119
  0
CIRCLE
  5
602
100
AcDbEntity
  8
0
  6
ByLayer
 62
  256
370
   -1
100
AcDbCircle
 10
28
 20
123.9
 40
0.4000000000000057
  0
CIRCLE
  5
603
100
AcDbEntity
  8
0
  6
ByLayer
 62
  256
370
   -1
100
AcDbCircle
 10
30
 20
124.3
 40
0.4000000000000057
  0
CIRCLE
  5
604
100
AcDbEntity
  8
0
  6
ByLayer
 62
  256
370
   -1
100
AcDbCircle
 10
24
 20
122.9
 40
0.4000000000000057
  0
CIRCLE
  5
605
100
AcDbEntity
  8
0
  6
ByLayer
 62
  256
370
   -1
100
AcDbCircle
 10
-21.8
 20
120
 40
0.1699999999999999
  0
ARC
  5
606
100
AcDbEntity
  8
0
  6
ByLayer
 62
  256
370
   -1
100
AcDbCircle
 10
-22.23750000000001
 20
120.235
 40
0.5662431015032303
100
AcDbArc
 50
86.20275211956105
 51
173.408390064969
  0
ARC
  5
607
100
AcDbEntity
  8
0
  6
ByLayer
 62
  256
370
   -1
100
AcDbCircle
 10
-22.28749999999994
 20
119.315
 40
1.487575628329469
100
AcDbArc
 50
359.4222470164154
 51
86.62788496182387
  0
LINE
  5
608
100
AcDbEntity
  8
0
  6
ByLayer
 62
  256
370
   -1
100
AcDbLine
 10
-20.8
 20
92.70000000000002
 11
-20.8
 21
119.3
  0
LINE
  5
609
100
AcDbEntity
  8
0
  6
ByLayer
 62
  256
370
   -1
100
AcDbLine
 10
-22.80000000000002
 20
92.70000000000002
 11
-22.8
 21
120.3
  0
MTEXT
  5
60A
100
AcDbEntity
  8
0
  6
ByLayer
 62
  256
370
   -1
100
AcDbMText
 10
0
 20
135
 30
0
 40
3
 41
52.83333333333333
 71
    5
 72
    1
  1
January 25, 2018 at 19:44\PUnits = cm
  7
unicode
210
0
220
0
230
1
 50
0
 73
    2
 44
1
  0
ENDSEC
  0
SECTION
  2
OBJECTS
  0
DICTIONARY
  5
C
330
0
100
AcDbDictionary
281
    1
  3
ACAD_GROUP
350
D
  0
DICTIONARY
  5
D
330
C
100
AcDbDictionary
281
    1
  0
ENDSEC
  0
EOF
