999
dxfrw 0.5.7
0
SECTION
2
HEADER
9
$ACADVER
1
AC1021
9
$HANDSEED
5
20000
9
$DWGCODEPAGE
3
ANSI_1252
9
$INSBASE
10
0
20
0
30
0
9
$EXTMIN
10
-21.9843406698
20
0.807547352751
30
0
9
$EXTMAX
10
21.9843406698
20
17.6046
30
0
9
$LIMMIN
10
0
20
0
9
$LIMMAX
10
420
20
297
9
$ORTHOMODE
70
0
9
$LTSCALE
40
1
9
$TEXTSTYLE
7
STANDARD
9
$DIMASZ
40
0.1
9
$DIMSCALE
40
1
9
$DIMEXO
40
0.025
9
$DIMEXE
40
0.05
9
$DIMTXT
40
0.1
9
$DIMTSZ
40
0
9
$DIMAUNIT
70
0
9
$DIMADEC
70
2
9
$DIMLUNIT
70
2
9
$DIMSTYLE
2
Standard
9
$DIMGAP
40
0.025
9
$DIMTIH
70
0
9
$LUNITS
70
2
9
$LUPREC
70
4
9
$AUNITS
70
0
9
$AUPREC
70
2
9
$SPLINESEGS
70
8
9
$GRIDMODE
70
1
9
$SNAPSTYLE
70
0
9
$GRIDUNIT
10
0
20
0
9
$PINSBASE
10
11.058673782
20
-0.561211407833
30
0
9
$PLIMMIN
10
0
20
0
9
$PLIMMAX
10
10.9842519685
20
17.0078740157
9
$INSUNITS
70
1
9
$PSVPSCALE
40
1
0
ENDSEC
0
SECTION
2
CLASSES
0
ENDSEC
0
SECTION
2
TABLES
0
TABLE
2
VPORT
5
8
330
0
100
AcDbSymbolTable
70
1
0
VPORT
5
31
330
2
100
AcDbSymbolTableRecord
100
AcDbViewportTableRecord
2
*ACTIVE
70
0
10
0
20
0
11
1
21
1
12
17.7987524245
22
22.8905474219
13
0
23
0
14
10
24
10
15
10
25
10
16
0
26
0
36
1
17
0
27
0
37
0
40
80.9279983655
41
1.41202672606
42
50
43
0
44
0
50
0
51
0
71
0
72
100
73
1
74
3
75
0
76
1
77
0
78
0
281
0
65
1
110
0
120
0
130
0
111
1
121
0
131
0
112
0
122
1
132
0
79
0
146
0
348
10020
60
7
61
5
292
1
282
1
141
0
142
0
63
250
421
3358443
0
ENDTAB
0
TABLE
2
LTYPE
5
5
330
0
100
AcDbSymbolTable
70
4
0
LTYPE
5
14
330
5
100
AcDbSymbolTableRecord
100
AcDbLinetypeTableRecord
2
ByBlock
70
0
3

72
65
73
0
40
0
0
LTYPE
5
15
330
5
100
AcDbSymbolTableRecord
100
AcDbLinetypeTableRecord
2
ByLayer
70
0
3

72
65
73
0
40
0
0
LTYPE
5
16
330
5
100
AcDbSymbolTableRecord
100
AcDbLinetypeTableRecord
2
Continuous
70
0
3
Solid line
72
65
73
0
40
0
0
LTYPE
5
32
330
5
100
AcDbSymbolTableRecord
100
AcDbLinetypeTableRecord
2
DOT
70
0
3
Dot . . . . . . . . . . . . . . . . . . . . . .
72
65
73
2
40
6.35
49
0
74
0
49
-6.35
74
0
0
LTYPE
5
33
330
5
100
AcDbSymbolTableRecord
100
AcDbLinetypeTableRecord
2
DOT2
70
0
3
Dot (.5x) .....................................
72
65
73
2
40
3.175
49
0
74
0
49
-3.175
74
0
0
LTYPE
5
34
330
5
100
AcDbSymbolTableRecord
100
AcDbLinetypeTableRecord
2
DOTX2
70
0
3
Dot (2x) .  .  .  .  .  .  .  .  .  .  .  .  .
72
65
73
2
40
12.7
49
0
74
0
49
-12.7
74
0
0
LTYPE
5
35
330
5
100
AcDbSymbolTableRecord
100
AcDbLinetypeTableRecord
2
DASHED
70
0
3
Dot . . . . . . . . . . . . . . . . . . . . . .
72
65
73
2
40
19.05
49
12.7
74
0
49
-6.35
74
0
0
LTYPE
5
36
330
5
100
AcDbSymbolTableRecord
100
AcDbLinetypeTableRecord
2
DASHED2
70
0
3
Dashed (.5x) _ _ _ _ _ _ _ _ _ _ _ _ _ _ _ _ _
72
65
73
2
40
9.525
49
6.35
74
0
49
-3.175
74
0
0
LTYPE
5
37
330
5
100
AcDbSymbolTableRecord
100
AcDbLinetypeTableRecord
2
DASHEDX2
70
0
3
Dashed (2x) ____  ____  ____  ____  ____  ___
72
65
73
2
40
38.1
49
25.4
74
0
49
-12.7
74
0
0
LTYPE
5
38
330
5
100
AcDbSymbolTableRecord
100
AcDbLinetypeTableRecord
2
DASHDOT
70
0
3
Dash dot __ . __ . __ . __ . __ . __ . __ . __
72
65
73
4
40
25.4
49
12.7
74
0
49
-6.35
74
0
49
0
74
0
49
-6.35
74
0
0
LTYPE
5
39
330
5
100
AcDbSymbolTableRecord
100
AcDbLinetypeTableRecord
2
DASHDOT2
70
0
3
Dash dot (.5x) _._._._._._._._._._._._._._._.
72
65
73
4
40
12.7
49
6.35
74
0
49
-3.175
74
0
49
0
74
0
49
-3.175
74
0
0
LTYPE
5
3A
330
5
100
AcDbSymbolTableRecord
100
AcDbLinetypeTableRecord
2
DASHDOTX2
70
0
3
Dash dot (2x) ____  .  ____  .  ____  .  ___
72
65
73
4
40
50.8
49
25.4
74
0
49
-12.7
74
0
49
0
74
0
49
-12.7
74
0
0
LTYPE
5
3B
330
5
100
AcDbSymbolTableRecord
100
AcDbLinetypeTableRecord
2
DIVIDE
70
0
3
Divide ____ . . ____ . . ____ . . ____ . . ____
72
65
73
6
40
31.75
49
12.7
74
0
49
-6.35
74
0
49
0
74
0
49
-6.35
74
0
49
0
74
0
49
-6.35
74
0
0
LTYPE
5
3C
330
5
100
AcDbSymbolTableRecord
100
AcDbLinetypeTableRecord
2
DIVIDE2
70
0
3
Divide (.5x) __..__..__..__..__..__..__..__.._
72
65
73
6
40
15.875
49
6.35
74
0
49
-3.175
74
0
49
0
74
0
49
-3.175
74
0
49
0
74
0
49
-3.175
74
0
0
LTYPE
5
3D
330
5
100
AcDbSymbolTableRecord
100
AcDbLinetypeTableRecord
2
DIVIDEX2
70
0
3
Divide (2x) ________  .  .  ________  .  .  _
72
65
73
6
40
63.5
49
25.4
74
0
49
-12.7
74
0
49
0
74
0
49
-12.7
74
0
49
0
74
0
49
-12.7
74
0
0
LTYPE
5
3E
330
5
100
AcDbSymbolTableRecord
100
AcDbLinetypeTableRecord
2
BORDER
70
0
3
Border __ __ . __ __ . __ __ . __ __ . __ __ .
72
65
73
6
40
44.45
49
12.7
74
0
49
-6.35
74
0
49
12.7
74
0
49
-6.35
74
0
49
0
74
0
49
-6.35
74
0
0
LTYPE
5
3F
330
5
100
AcDbSymbolTableRecord
100
AcDbLinetypeTableRecord
2
BORDER2
70
0
3
Border (.5x) __.__.__.__.__.__.__.__.__.__.__.
72
65
73
6
40
22.225
49
6.35
74
0
49
-3.175
74
0
49
6.35
74
0
49
-3.175
74
0
49
0
74
0
49
-3.175
74
0
0
LTYPE
5
40
330
5
100
AcDbSymbolTableRecord
100
AcDbLinetypeTableRecord
2
BORDERX2
70
0
3
Border (2x) ____  ____  .  ____  ____  .  ___
72
65
73
6
40
88.9
49
25.4
74
0
49
-12.7
74
0
49
25.4
74
0
49
-12.7
74
0
49
0
74
0
49
-12.7
74
0
0
LTYPE
5
41
330
5
100
AcDbSymbolTableRecord
100
AcDbLinetypeTableRecord
2
CENTER
70
0
3
Center ____ _ ____ _ ____ _ ____ _ ____ _ ____
72
65
73
4
40
50.8
49
31.75
74
0
49
-6.35
74
0
49
6.35
74
0
49
-6.35
74
0
0
LTYPE
5
42
330
5
100
AcDbSymbolTableRecord
100
AcDbLinetypeTableRecord
2
CENTER2
70
0
3
Center (.5x) ___ _ ___ _ ___ _ ___ _ ___ _ ___
72
65
73
4
40
28.575
49
19.05
74
0
49
-3.175
74
0
49
3.175
74
0
49
-3.175
74
0
0
LTYPE
5
43
330
5
100
AcDbSymbolTableRecord
100
AcDbLinetypeTableRecord
2
CENTERX2
70
0
3
Center (2x) ________  __  ________  __  _____
72
65
73
4
40
101.6
49
63.5
74
0
49
-12.7
74
0
49
12.7
74
0
49
-12.7
74
0
0
ENDTAB
0
TABLE
2
LAYER
5
2
330
0
100
AcDbSymbolTable
70
1
0
LAYER
5
10
330
2
100
AcDbSymbolTableRecord
100
AcDbLayerTableRecord
2
0
70
0
62
7
6
CONTINUOUS
370
0
390
F
0
ENDTAB
0
TABLE
2
STYLE
5
3
330
0
100
AcDbSymbolTable
70
3
0
STYLE
5
44
330
2
100
AcDbSymbolTableRecord
100
AcDbTextStyleTableRecord
2
Standard
70
0
40
0
41
1
50
0
71
0
42
1
3
txt
4

0
ENDTAB
0
TABLE
2
VIEW
5
6
330
0
100
AcDbSymbolTable
70
0
0
ENDTAB
0
TABLE
2
UCS
5
7
330
0
100
AcDbSymbolTable
70
0
0
ENDTAB
0
TABLE
2
APPID
5
9
330
0
100
AcDbSymbolTable
70
1
0
APPID
5
12
330
9
100
AcDbSymbolTableRecord
100
AcDbRegAppTableRecord
2
ACAD
70
0
0
ENDTAB
0
TABLE
2
DIMSTYLE
5
A
330
0
100
AcDbSymbolTable
70
1
100
AcDbDimStyleTable
71
1
0
DIMSTYLE
105
45
330
A
100
AcDbSymbolTableRecord
100
AcDbDimStyleTableRecord
2
Standard
70
0
40
1
41
0.1
42
0.025
43
0.38
44
0.05
45
0
46
0
47
0
48
0
140
0.1
141
0.09
142
0
143
25.4
144
1
145
0
146
1
147
0.025
148
0
71
0
72
0
73
0
74
1
75
0
76
0
77
0
78
0
79
0
170
0
171
2
172
0
173
0
174
0
175
0
176
0
177
0
178
0
179
0
271
4
272
4
273
2
274
2
275
0
276
0
277
2
278
46
279
0
280
0
281
0
282
0
283
1
284
0
285
0
286
0
288
0
289
3
340
Standard
341

371
-2
372
-2
0
ENDTAB
0
TABLE
2
BLOCK_RECORD
5
1
330
0
100
AcDbSymbolTable
70
2
0
BLOCK_RECORD
5
1F
330
1
100
AcDbSymbolTableRecord
100
AcDbBlockTableRecord
2
*Model_Space
70
0
280
1
281
0
0
BLOCK_RECORD
5
1E
330
1
100
AcDbSymbolTableRecord
100
AcDbBlockTableRecord
2
*Paper_Space
70
0
280
1
281
0
0
ENDTAB
0
ENDSEC
0
SECTION
2
BLOCKS
0
BLOCK
5
20
330
1F
100
AcDbEntity
8
0
100
AcDbBlockBegin
2
*Model_Space
70
0
10
0
20
0
30
0
3
*Model_Space
1

0
ENDBLK
5
21
330
1F
100
AcDbEntity
8
0
100
AcDbBlockEnd
0
BLOCK
5
1C
330
1B
100
AcDbEntity
8
0
100
AcDbBlockBegin
2
*Paper_Space
70
0
10
0
20
0
30
0
3
*Paper_Space
1

0
ENDBLK
5
1D
330
1F
100
AcDbEntity
8
0
100
AcDbBlockEnd
0
ENDSEC
0
SECTION
2
ENTITIES
0
ELLIPSE
5
46
100
AcDbEntity
8
0
6
ByLayer
62
256
370
8
100
AcDbEllipse
10
-13.188
20
2.45976
30
0
11
0
21
1.22274246577
31
0
40
0.945945945946
41
1.95804569004
42
2.40499889233
0
ELLIPSE
5
47
100
AcDbEntity
8
0
6
ByLayer
62
256
370
8
100
AcDbEllipse
10
-19.07535
20
13.96047
30
0
11
0
21
0.48817037784
31
0
40
0.945945945946
41
0.55835829342
42
1.74678570102
0
LWPOLYLINE
5
48
100
AcDbEntity
8
0
6
ByLayer
62
256
370
8
100
AcDbPolyline
90
2
70
0
43
0
10
-14.2052589
20
1.71818232
10
-14.2052589
20
1.71818232
0
LINE
5
49
100
AcDbEntity
8
0
6
ByLayer
62
256
370
8
100
AcDbLine
10
-0.567
20
13.5975
11
-4.179
21
2.6418
0
LINE
5
4A
100
AcDbEntity
8
0
6
ByLayer
62
256
370
8
100
AcDbLine
10
-4.3995
20
2.3754
11
-6.0165
21
1.5984
0
ELLIPSE
5
4B
100
AcDbEntity
8
0
6
ByLayer
62
256
370
8
100
AcDbEllipse
10
-4.70575
20
2.8938625
30
0
11
0
21
0.611242526667
31
0
40
0.945945945946
41
3.69979094233
42
4.28732701921
0
ELLIPSE
5
4C
100
AcDbEntity
8
0
6
ByLayer
62
256
370
8
100
AcDbEllipse
10
-6.11590460526
20
1.78804934211
30
0
11
0
21
0.216817209954
31
0
40
0.945945945946
41
1.57517487745
42
3.64757888417
0
ELLIPSE
5
4D
100
AcDbEntity
8
0
6
ByLayer
62
256
370
8
100
AcDbEllipse
10
-6.82318805309
20
1.85587743363
30
0
11
0
21
0.535321120274
31
0
40
0.945945945946
41
3.49801161667
42
4.58355403159
0
LINE
5
4E
100
AcDbEntity
8
0
6
ByLayer
62
256
370
8
100
AcDbLine
10
-6.6465
20
1.3542
11
-7.98
21
0.8436
0
ELLIPSE
5
4F
100
AcDbEntity
8
0
6
ByLayer
62
256
370
8
100
AcDbEllipse
10
-8.00660393258
20
0.979356741574
30
0
11
0
21
0.138639320204
31
0
40
0.945945945946
41
1.50913507116
42
3.34586883881
0
ELLIPSE
5
50
100
AcDbEntity
8
0
6
ByLayer
62
256
370
8
100
AcDbEllipse
10
-8.30025
20
0.979788461538
30
0
11
0
21
0.172241108787
31
0
40
0.945945945946
41
2.48272339436
42
4.7595004968
0
ELLIPSE
5
51
100
AcDbEntity
8
0
6
ByLayer
62
256
370
8
100
AcDbEllipse
10
-11.7276710526
20
17.3954526316
30
0
11
0
21
0.210231589505
31
0
40
0.945945945946
41
4.75686588786
42
6.18158108404
0
ELLIPSE
5
52
100
AcDbEntity
8
0
6
ByLayer
62
256
370
8
100
AcDbEllipse
10
-10.2136034483
20
6.33216724138
30
0
11
0
21
11.3825220834
31
0
40
0.945945945946
41
0.13919351662
42
0.38201126687
0
ELLIPSE
5
53
100
AcDbEntity
8
0
6
ByLayer
62
256
370
8
100
AcDbEllipse
10
-14.1544871134
20
16.5106206186
30
0
11
0
21
0.391268033515
31
0
40
0.945945945946
41
0.19857138884
42
1.44116313995
0
ELLIPSE
5
54
100
AcDbEntity
8
0
6
ByLayer
62
256
370
8
100
AcDbEllipse
10
-14.7823366337
20
16.3470029703
30
0
11
0
21
0.349161551101
31
0
40
0.945945945946
41
5.37282481715
42
0.10057691746
0
LINE
5
55
100
AcDbEntity
8
0
6
ByLayer
62
256
370
8
100
AcDbLine
10
-8.568
20
17.2161
11
-9.555
21
2.664
0
ELLIPSE
5
56
100
AcDbEntity
8
0
6
ByLayer
62
256
370
8
100
AcDbEllipse
10
-6.97268478261
20
3.43448478261
30
0
11
0
21
2.83652432571
31
0
40
0.945945945946
41
1.8458825166
42
2.09729703413
0
ELLIPSE
5
57
100
AcDbEntity
8
0
6
ByLayer
62
256
370
8
100
AcDbEllipse
10
-9.76558333334
20
2.84715
30
0
11
0
21
0.288274353313
31
0
40
0.945945945946
41
2.48054948474
42
4.02395026479
0
ELLIPSE
5
58
100
AcDbEntity
8
0
6
ByLayer
62
256
370
8
100
AcDbEllipse
10
-10.2909308511
20
2.18736914894
30
0
11
0
21
0.574454517147
31
0
40
0.945945945946
41
5.56411681177
42
0.68921996544
0
ELLIPSE
5
59
100
AcDbEntity
8
0
6
ByLayer
62
256
370
8
100
AcDbEllipse
10
-10.8223928571
20
2.75631122449
30
0
11
0
21
0.233230455254
31
0
40
0.945945945946
41
1.9777286663
42
4.14364844257
0
ELLIPSE
5
5A
100
AcDbEntity
8
0
6
ByLayer
62
256
370
8
100
AcDbEllipse
10
-12.093375
20
2.6751
30
0
11
0
21
1.12947954413
31
0
40
0.945945945946
41
4.26522339523
42
4.70256128697
0
LINE
5
5B
100
AcDbEntity
8
0
6
ByLayer
62
256
370
8
100
AcDbLine
10
-11.025
20
2.664
11
-11.529
21
17.4048
0
LINE
5
5C
100
AcDbEntity
8
0
6
ByLayer
62
256
370
8
100
AcDbLine
10
-14.5215
20
16.5612
11
-12.495
21
1.221
0
ELLIPSE
5
5D
100
AcDbEntity
8
0
6
ByLayer
62
256
370
8
100
AcDbEllipse
10
-12.2046799065
20
1.31804719626
30
0
11
0
21
0.321887855735
31
0
40
0.945945945946
41
1.87705530639
42
3.62001396242
0
ELLIPSE
5
5E
100
AcDbEntity
8
0
6
ByLayer
62
256
370
8
100
AcDbEllipse
10
-14.7666261468
20
4.47674056357
30
0
11
0
21
4.47481324808
31
0
40
0.945945945946
41
3.83395598932
42
4.17515421291
0
ELLIPSE
5
5F
100
AcDbEntity
8
0
6
ByLayer
62
256
370
8
100
AcDbEllipse
10
-12.7654256756
20
1.31496428571
30
0
11
0
21
0.304573573599
31
0
40
0.945945945946
41
2.87437798642
42
4.36019775848
0
LINE
5
60
100
AcDbEntity
8
0
6
ByLayer
62
256
370
8
100
AcDbLine
10
-12.8415
20
1.0212
11
-13.965
21
1.554
0
ELLIPSE
5
61
100
AcDbEntity
8
0
6
ByLayer
62
256
370
8
100
AcDbEllipse
10
-13.188
20
2.45976
30
0
11
0
21
1.22274246577
31
0
40
0.945945945946
41
1.95804569004
42
2.40499889233
0
ELLIPSE
5
62
100
AcDbEntity
8
0
6
ByLayer
62
256
370
8
100
AcDbEllipse
10
-14.442375
20
1.97897142857
30
0
11
0
21
0.194785250176
31
0
40
0.945945945946
41
2.75995249011
42
4.81023503464
0
LINE
5
63
100
AcDbEntity
8
0
6
ByLayer
62
256
370
8
100
AcDbLine
10
-14.511
20
1.7982
11
-16.023
21
2.553
0
ELLIPSE
5
64
100
AcDbEntity
8
0
6
ByLayer
62
256
370
8
100
AcDbEllipse
10
-15.72375
20
3.1598
30
0
11
0
21
0.684312474313
31
0
40
0.945945945946
41
1.98243277474
42
2.66101800364
0
ELLIPSE
5
65
100
AcDbEntity
8
0
6
ByLayer
62
256
370
8
100
AcDbEllipse
10
-16.4492045454
20
2.85017727273
30
0
11
0
21
0.144277064293
31
0
40
0.945945945946
41
2.95517059015
42
4.96330480869
0
ELLIPSE
5
66
100
AcDbEntity
8
0
6
ByLayer
62
256
370
8
100
AcDbEllipse
10
-16.8315
20
1.4023
30
0
11
0
21
1.35953226148
31
0
40
0.945945945946
41
6.00189500289
42
0.28129030429
0
ELLIPSE
5
67
100
AcDbEntity
8
0
6
ByLayer
62
256
370
8
100
AcDbEllipse
10
-15.25006875
20
-1.925225625
30
0
11
0
21
5.06652760278
31
0
40
0.945945945946
41
0.41638635959
42
0.57338852527
0
ELLIPSE
5
68
100
AcDbEntity
8
0
6
ByLayer
62
256
370
8
100
AcDbEllipse
10
-18.08625
20
2.69175
30
0
11
0
21
0.438766025348
31
0
40
0.945945945946
41
1.89254688119
42
3.74713731719
0
LINE
5
69
100
AcDbEntity
8
0
6
ByLayer
62
256
370
8
100
AcDbLine
10
-14.8155
20
16.6944
11
-17.01
21
15.7176
0
ELLIPSE
5
6A
100
AcDbEntity
8
0
6
ByLayer
62
256
370
8
100
AcDbEllipse
10
-16.8418157895
20
15.3843078947
30
0
11
0
21
0.377749382368
31
0
40
0.945945945946
41
0.49004830013
42
1.59941151547
0
ELLIPSE
5
6B
100
AcDbEntity
8
0
6
ByLayer
62
256
370
8
100
AcDbEllipse
10
-17.353
20
15.3591625
30
0
11
0
21
0.163430119336
31
0
40
0.945945945946
41
4.80023053018
42
0.4446625485
0
ELLIPSE
5
6C
100
AcDbEntity
8
0
6
ByLayer
62
256
370
8
100
AcDbEllipse
10
-25.0984239131
20
27.5629891304
30
0
11
0
21
14.5344927168
31
0
40
0.945945945946
41
3.57535130177
42
3.73418607725
0
ELLIPSE
5
6D
100
AcDbEntity
8
0
6
ByLayer
62
256
370
8
100
AcDbEllipse
10
-19.8975
20
13.653
30
0
11
0
21
0.447455305031
31
0
40
0.945945945946
41
5.23153509463
42
0.12435499455
0
ELLIPSE
5
6E
100
AcDbEntity
8
0
6
ByLayer
62
256
370
8
100
AcDbEllipse
10
-23.28025
20
22.99365
30
0
11
0
21
9.5678970273
31
0
40
0.945945945946
41
3.30492945085
42
3.51840079615
0
ELLIPSE
5
6F
100
AcDbEntity
8
0
6
ByLayer
62
256
370
8
100
AcDbEllipse
10
-21.7759073604
20
13.3354667513
30
0
11
0
21
0.220343784176
31
0
40
0.945945945946
41
0.15701399044
42
1.84595228095
0
LINE
5
70
100
AcDbEntity
8
0
6
ByLayer
62
256
370
8
100
AcDbLine
10
-18.48
20
2.553
11
-21.9765
21
13.2756
0
LINE
5
71
100
AcDbEntity
8
0
6
ByLayer
62
256
370
8
100
AcDbLine
10
-19.53
20
13.875
11
-16.317
21
2.886
0
LINE
5
72
100
AcDbEntity
8
0
6
ByLayer
62
256
370
8
100
AcDbLine
10
-14.259
20
1.998
11
-17.199
21
15.3735
0
ELLIPSE
5
73
100
AcDbEntity
8
0
6
ByLayer
62
256
370
8
100
AcDbEllipse
10
-6.50630230235
20
13.1267000801
30
0
11
0
21
0.08103
31
0
40
0.945945945946
41
0
42
6.28318530718
0
ELLIPSE
5
74
100
AcDbEntity
8
0
6
ByLayer
62
256
370
8
100
AcDbEllipse
10
-6.77222762348
20
11.4810681762
30
0
11
0
21
0.08103
31
0
40
0.945945945946
41
0
42
6.28318530718
0
ELLIPSE
5
75
100
AcDbEntity
8
0
6
ByLayer
62
256
370
8
100
AcDbEllipse
10
-7.03815294461
20
9.83543627226
30
0
11
0
21
0.08103
31
0
40
0.945945945946
41
0
42
6.28318530718
0
ELLIPSE
5
76
100
AcDbEntity
8
0
6
ByLayer
62
256
370
8
100
AcDbEllipse
10
-7.30407826574
20
8.18980436836
30
0
11
0
21
0.08103
31
0
40
0.945945945946
41
0
42
6.28318530718
0
ELLIPSE
5
77
100
AcDbEntity
8
0
6
ByLayer
62
256
370
8
100
AcDbEllipse
10
-7.57000358687
20
6.54417246446
30
0
11
0
21
0.08103
31
0
40
0.945945945946
41
0
42
6.28318530718
0
ELLIPSE
5
78
100
AcDbEntity
8
0
6
ByLayer
62
256
370
8
100
AcDbEllipse
10
-7.835928908
20
4.89854056056
30
0
11
0
21
0.08103
31
0
40
0.945945945946
41
0
42
6.28318530718
0
ELLIPSE
5
79
100
AcDbEntity
8
0
6
ByLayer
62
256
370
8
100
AcDbEllipse
10
-8.10185422913
20
3.25290865667
30
0
11
0
21
0.08103
31
0
40
0.945945945946
41
0
42
6.28318530718
0
ELLIPSE
5
7A
100
AcDbEntity
8
0
6
ByLayer
62
256
370
8
100
AcDbEllipse
10
-8.904
20
17.1051
30
0
11
0
21
0.08103
31
0
40
0.945945945946
41
0
42
6.28318530718
0
ELLIPSE
5
7B
100
AcDbEntity
8
0
6
ByLayer
62
256
370
8
100
AcDbEllipse
10
-9.0195
20
15.54
30
0
11
0
21
0.08103
31
0
40
0.945945945946
41
0
42
6.28318530718
0
ELLIPSE
5
7C
100
AcDbEntity
8
0
6
ByLayer
62
256
370
8
100
AcDbEllipse
10
-9.1455
20
13.875
30
0
11
0
21
0.08103
31
0
40
0.945945945946
41
0
42
6.28318530718
0
ELLIPSE
5
7D
100
AcDbEntity
8
0
6
ByLayer
62
256
370
8
100
AcDbEllipse
10
-9.261
20
12.21
30
0
11
0
21
0.08103
31
0
40
0.945945945946
41
0
42
6.28318530718
0
ELLIPSE
5
7E
100
AcDbEntity
8
0
6
ByLayer
62
256
370
8
100
AcDbEllipse
10
-9.3765
20
10.545
30
0
11
0
21
0.08103
31
0
40
0.945945945946
41
0
42
6.28318530718
0
ELLIPSE
5
7F
100
AcDbEntity
8
0
6
ByLayer
62
256
370
8
100
AcDbEllipse
10
-9.492
20
8.88
30
0
11
0
21
0.08103
31
0
40
0.945945945946
41
0
42
6.28318530718
0
ELLIPSE
5
80
100
AcDbEntity
8
0
6
ByLayer
62
256
370
8
100
AcDbEllipse
10
-9.6075
20
7.215
30
0
11
0
21
0.08103
31
0
40
0.945945945946
41
0
42
6.28318530718
0
ELLIPSE
5
81
100
AcDbEntity
8
0
6
ByLayer
62
256
370
8
100
AcDbEllipse
10
-9.723
20
5.55
30
0
11
0
21
0.08103
31
0
40
0.945945945946
41
0
42
6.28318530718
0
ELLIPSE
5
82
100
AcDbEntity
8
0
6
ByLayer
62
256
370
8
100
AcDbEllipse
10
-9.8385
20
3.885
30
0
11
0
21
0.08103
31
0
40
0.945945945946
41
0
42
6.28318530718
0
ELLIPSE
5
83
100
AcDbEntity
8
0
6
ByLayer
62
256
370
8
100
AcDbEllipse
10
-9.87
20
3.108
30
0
11
0
21
0.08103
31
0
40
0.945945945946
41
0
42
6.28318530718
0
ELLIPSE
5
84
100
AcDbEntity
8
0
6
ByLayer
62
256
370
8
100
AcDbEllipse
10
-3.76058689447
20
13.5588315366
30
0
11
0
21
0.08103
31
0
40
0.945945945946
41
0
42
6.28318530718
0
ELLIPSE
5
85
100
AcDbEntity
8
0
6
ByLayer
62
256
370
8
100
AcDbEllipse
10
-4.17149796548
20
11.9459858875
30
0
11
0
21
0.08103
31
0
40
0.945945945946
41
0
42
6.28318530718
0
ELLIPSE
5
86
100
AcDbEntity
8
0
6
ByLayer
62
256
370
8
100
AcDbEllipse
10
-4.57208485995
20
10.331117424
30
0
11
0
21
0.08103
31
0
40
0.945945945946
41
0
42
6.28318530718
0
ELLIPSE
5
87
100
AcDbEntity
8
0
6
ByLayer
62
256
370
8
100
AcDbEllipse
10
-4.97267175443
20
8.71624896061
30
0
11
0
21
0.08103
31
0
40
0.945945945946
41
0
42
6.28318530718
0
ELLIPSE
5
88
100
AcDbEntity
8
0
6
ByLayer
62
256
370
8
100
AcDbEllipse
10
-5.3732586489
20
7.10138049718
30
0
11
0
21
0.08103
31
0
40
0.945945945946
41
0
42
6.28318530718
0
ELLIPSE
5
89
100
AcDbEntity
8
0
6
ByLayer
62
256
370
8
100
AcDbEllipse
10
-5.77384554338
20
5.48651203374
30
0
11
0
21
0.08103
31
0
40
0.945945945946
41
0
42
6.28318530718
0
ELLIPSE
5
8A
100
AcDbEntity
8
0
6
ByLayer
62
256
370
8
100
AcDbEllipse
10
-6.17443243785
20
3.87164357031
30
0
11
0
21
0.08103
31
0
40
0.945945945946
41
0
42
6.28318530718
0
ELLIPSE
5
8B
100
AcDbEntity
8
0
6
ByLayer
62
256
370
8
100
AcDbEllipse
10
-6.57501933232
20
2.25677510688
30
0
11
0
21
0.08103
31
0
40
0.945945945946
41
0
42
6.28318530718
0
ELLIPSE
5
8C
100
AcDbEntity
8
0
6
ByLayer
62
256
370
8
100
AcDbEllipse
10
-0.945
20
13.6752
30
0
11
0
21
0.08103
31
0
40
0.945945945946
41
0
42
6.28318530718
0
ELLIPSE
5
8D
100
AcDbEntity
8
0
6
ByLayer
62
256
370
8
100
AcDbEllipse
10
-1.46420442898
20
12.0985353046
30
0
11
0
21
0.08103
31
0
40
0.945945945946
41
0
42
6.28318530718
0
ELLIPSE
5
8E
100
AcDbEntity
8
0
6
ByLayer
62
256
370
8
100
AcDbEllipse
10
-1.99355107912
20
10.5247435007
30
0
11
0
21
0.08103
31
0
40
0.945945945946
41
0
42
6.28318530718
0
ELLIPSE
5
8F
100
AcDbEntity
8
0
6
ByLayer
62
256
370
8
100
AcDbEllipse
10
-2.5127555081
20
8.9480788053
30
0
11
0
21
0.08103
31
0
40
0.945945945946
41
0
42
6.28318530718
0
ELLIPSE
5
90
100
AcDbEntity
8
0
6
ByLayer
62
256
370
8
100
AcDbEllipse
10
-3.03195993707
20
7.37141410994
30
0
11
0
21
0.08103
31
0
40
0.945945945946
41
0
42
6.28318530718
0
ELLIPSE
5
91
100
AcDbEntity
8
0
6
ByLayer
62
256
370
8
100
AcDbEllipse
10
-3.55116436604
20
5.79474941458
30
0
11
0
21
0.08103
31
0
40
0.945945945946
41
0
42
6.28318530718
0
ELLIPSE
5
92
100
AcDbEntity
8
0
6
ByLayer
62
256
370
8
100
AcDbEllipse
10
-4.07036879502
20
4.21808471922
30
0
11
0
21
0.08103
31
0
40
0.945945945946
41
0
42
6.28318530718
0
ELLIPSE
5
93
100
AcDbEntity
8
0
6
ByLayer
62
256
370
8
100
AcDbEllipse
10
-4.58957322398
20
2.64142002385
30
0
11
0
21
0.08103
31
0
40
0.945945945946
41
0
42
6.28318530718
0
ELLIPSE
5
94
100
AcDbEntity
8
0
6
ByLayer
62
256
370
8
100
AcDbEllipse
10
-14.1644286038
20
16.5257868686
30
0
11
0
21
0.08103
31
0
40
0.945945945946
41
0
42
6.28318530718
0
ELLIPSE
5
95
100
AcDbEntity
8
0
6
ByLayer
62
256
370
8
100
AcDbEllipse
10
-13.9529925848
20
14.8713464559
30
0
11
0
21
0.08103
31
0
40
0.945945945946
41
0
42
6.28318530718
0
ELLIPSE
5
96
100
AcDbEntity
8
0
6
ByLayer
62
256
370
8
100
AcDbEllipse
10
-13.7310761505
20
13.2175836819
30
0
11
0
21
0.08103
31
0
40
0.945945945946
41
0
42
6.28318530718
0
ELLIPSE
5
97
100
AcDbEntity
8
0
6
ByLayer
62
256
370
8
100
AcDbEllipse
10
-13.5196401314
20
11.5631432693
30
0
11
0
21
0.08103
31
0
40
0.945945945946
41
0
42
6.28318530718
0
ELLIPSE
5
98
100
AcDbEntity
8
0
6
ByLayer
62
256
370
8
100
AcDbEllipse
10
-13.3082041125
20
9.9087028566
30
0
11
0
21
0.08103
31
0
40
0.945945945946
41
0
42
6.28318530718
0
ELLIPSE
5
99
100
AcDbEntity
8
0
6
ByLayer
62
256
370
8
100
AcDbEllipse
10
-13.0967680935
20
8.25426244391
30
0
11
0
21
0.08103
31
0
40
0.945945945946
41
0
42
6.28318530718
0
ELLIPSE
5
9A
100
AcDbEntity
8
0
6
ByLayer
62
256
370
8
100
AcDbEllipse
10
-12.8853320745
20
6.59982203122
30
0
11
0
21
0.08103
31
0
40
0.945945945946
41
0
42
6.28318530718
0
ELLIPSE
5
9B
100
AcDbEntity
8
0
6
ByLayer
62
256
370
8
100
AcDbEllipse
10
-12.6738960555
20
4.94538161852
30
0
11
0
21
0.08103
31
0
40
0.945945945946
41
0
42
6.28318530718
0
ELLIPSE
5
9C
100
AcDbEntity
8
0
6
ByLayer
62
256
370
8
100
AcDbEllipse
10
-12.4624600365
20
3.29094120583
30
0
11
0
21
0.08103
31
0
40
0.945945945946
41
0
42
6.28318530718
0
ELLIPSE
5
9D
100
AcDbEntity
8
0
6
ByLayer
62
256
370
8
100
AcDbEllipse
10
-11.2035
20
17.1051
30
0
11
0
21
0.08103
31
0
40
0.945945945946
41
0
42
6.28318530718
0
ELLIPSE
5
9E
100
AcDbEntity
8
0
6
ByLayer
62
256
370
8
100
AcDbEllipse
10
-11.1397390644
20
15.5366921881
30
0
11
0
21
0.08103
31
0
40
0.945945945946
41
0
42
6.28318530718
0
ELLIPSE
5
9F
100
AcDbEntity
8
0
6
ByLayer
62
256
370
8
100
AcDbEllipse
10
-11.0687825275
20
13.8680578481
30
0
11
0
21
0.08103
31
0
40
0.945945945946
41
0
42
6.28318530718
0
ELLIPSE
5
A0
100
AcDbEntity
8
0
6
ByLayer
62
256
370
8
100
AcDbEllipse
10
-11.0083195943
20
12.1998108926
30
0
11
0
21
0.08103
31
0
40
0.945945945946
41
0
42
6.28318530718
0
ELLIPSE
5
A1
100
AcDbEntity
8
0
6
ByLayer
62
256
370
8
100
AcDbEllipse
10
-10.9478566611
20
10.5315639371
30
0
11
0
21
0.08103
31
0
40
0.945945945946
41
0
42
6.28318530718
0
ELLIPSE
5
A2
100
AcDbEntity
8
0
6
ByLayer
62
256
370
8
100
AcDbEllipse
10
-10.8873937278
20
8.86331698154
30
0
11
0
21
0.08103
31
0
40
0.945945945946
41
0
42
6.28318530718
0
ELLIPSE
5
A3
100
AcDbEntity
8
0
6
ByLayer
62
256
370
8
100
AcDbEllipse
10
-10.8269307946
20
7.195070026
30
0
11
0
21
0.08103
31
0
40
0.945945945946
41
0
42
6.28318530718
0
ELLIPSE
5
A4
100
AcDbEntity
8
0
6
ByLayer
62
256
370
8
100
AcDbEllipse
10
-10.7664678614
20
5.52682307046
30
0
11
0
21
0.08103
31
0
40
0.945945945946
41
0
42
6.28318530718
0
ELLIPSE
5
A5
100
AcDbEntity
8
0
6
ByLayer
62
256
370
8
100
AcDbEllipse
10
-10.7060049282
20
3.85857611494
30
0
11
0
21
0.08103
31
0
40
0.945945945946
41
0
42
6.28318530718
0
ELLIPSE
5
A6
100
AcDbEntity
8
0
6
ByLayer
62
256
370
8
100
AcDbEllipse
10
-10.7001752472
20
3.0808872891
30
0
11
0
21
0.08103
31
0
40
0.945945945946
41
0
42
6.28318530718
0
ELLIPSE
5
A7
100
AcDbEntity
8
0
6
ByLayer
62
256
370
8
100
AcDbEllipse
10
-16.8078841254
20
15.379415527
30
0
11
0
21
0.08103
31
0
40
0.945945945946
41
0
42
6.28318530718
0
ELLIPSE
5
A8
100
AcDbEntity
8
0
6
ByLayer
62
256
370
8
100
AcDbEllipse
10
-16.4608529708
20
13.7507516436
30
0
11
0
21
0.08103
31
0
40
0.945945945946
41
0
42
6.28318530718
0
ELLIPSE
5
A9
100
AcDbEntity
8
0
6
ByLayer
62
256
370
8
100
AcDbEllipse
10
-16.1034371494
20
12.1237284447
30
0
11
0
21
0.08103
31
0
40
0.945945945946
41
0
42
6.28318530718
0
ELLIPSE
5
AA
100
AcDbEntity
8
0
6
ByLayer
62
256
370
8
100
AcDbEllipse
10
-15.7564059947
20
10.4950645612
30
0
11
0
21
0.08103
31
0
40
0.945945945946
41
0
42
6.28318530718
0
ELLIPSE
5
AB
100
AcDbEntity
8
0
6
ByLayer
62
256
370
8
100
AcDbEllipse
10
-15.4093748399
20
8.86640067784
30
0
11
0
21
0.08103
31
0
40
0.945945945946
41
0
42
6.28318530718
0
ELLIPSE
5
AC
100
AcDbEntity
8
0
6
ByLayer
62
256
370
8
100
AcDbEllipse
10
-15.0623436852
20
7.23773679443
30
0
11
0
21
0.08103
31
0
40
0.945945945946
41
0
42
6.28318530718
0
ELLIPSE
5
AD
100
AcDbEntity
8
0
6
ByLayer
62
256
370
8
100
AcDbEllipse
10
-14.7153125304
20
5.60907291105
30
0
11
0
21
0.08103
31
0
40
0.945945945946
41
0
42
6.28318530718
0
ELLIPSE
5
AE
100
AcDbEntity
8
0
6
ByLayer
62
256
370
8
100
AcDbEllipse
10
-14.3682813756
20
3.98040902765
30
0
11
0
21
0.08103
31
0
40
0.945945945946
41
0
42
6.28318530718
0
ELLIPSE
5
AF
100
AcDbEntity
8
0
6
ByLayer
62
256
370
8
100
AcDbEllipse
10
-14.0212502209
20
2.35174514425
30
0
11
0
21
0.08103
31
0
40
0.945945945946
41
0
42
6.28318530718
0
ELLIPSE
5
B0
100
AcDbEntity
8
0
6
ByLayer
62
256
370
8
100
AcDbEllipse
10
-8.40000583747
20
1.5536074741
30
0
11
0
21
0.08103
31
0
40
0.945945945946
41
0
42
6.28318530718
0
ELLIPSE
5
B1
100
AcDbEntity
8
0
6
ByLayer
62
256
370
8
100
AcDbEllipse
10
-5.4075
20
4.36917142857
30
0
11
0
21
4.7368118126
31
0
40
0.945945945946
41
2.09236458163
42
2.4102705213
0
ELLIPSE
5
B2
100
AcDbEntity
8
0
6
ByLayer
62
256
370
8
100
AcDbEllipse
10
-12.1789600365
20
1.54824120583
30
0
11
0
21
0.08103
31
0
40
0.945945945946
41
0
42
6.28318530718
0
ELLIPSE
5
B3
100
AcDbEntity
8
0
6
ByLayer
62
256
370
8
100
AcDbEllipse
10
-19.2708500823
20
13.9708957302
30
0
11
0
21
0.08103
31
0
40
0.945945945946
41
0
42
6.28318530718
0
ELLIPSE
5
B4
100
AcDbEntity
8
0
6
ByLayer
62
256
370
8
100
AcDbEllipse
10
-18.7908649084
20
12.3804034916
30
0
11
0
21
0.08103
31
0
40
0.945945945946
41
0
42
6.28318530718
0
ELLIPSE
5
B5
100
AcDbEntity
8
0
6
ByLayer
62
256
370
8
100
AcDbEllipse
10
-18.3006698504
20
10.7925024966
30
0
11
0
21
0.08103
31
0
40
0.945945945946
41
0
42
6.28318530718
0
ELLIPSE
5
B6
100
AcDbEntity
8
0
6
ByLayer
62
256
370
8
100
AcDbEllipse
10
-17.8206846765
20
9.20201025806
30
0
11
0
21
0.08103
31
0
40
0.945945945946
41
0
42
6.28318530718
0
ELLIPSE
5
B7
100
AcDbEntity
8
0
6
ByLayer
62
256
370
8
100
AcDbEllipse
10
-17.3406995026
20
7.61151801953
30
0
11
0
21
0.08103
31
0
40
0.945945945946
41
0
42
6.28318530718
0
ELLIPSE
5
B8
100
AcDbEntity
8
0
6
ByLayer
62
256
370
8
100
AcDbEllipse
10
-16.8607143287
20
6.02102578099
30
0
11
0
21
0.08103
31
0
40
0.945945945946
41
0
42
6.28318530718
0
ELLIPSE
5
B9
100
AcDbEntity
8
0
6
ByLayer
62
256
370
8
100
AcDbEllipse
10
-16.3807291549
20
4.43053354246
30
0
11
0
21
0.08103
31
0
40
0.945945945946
41
0
42
6.28318530718
0
ELLIPSE
5
BA
100
AcDbEntity
8
0
6
ByLayer
62
256
370
8
100
AcDbEllipse
10
-15.9686385521
20
3.01253630554
30
0
11
0
21
0.08103
31
0
40
0.945945945946
41
0
42
6.28318530718
0
ELLIPSE
5
BB
100
AcDbEntity
8
0
6
ByLayer
62
256
370
8
100
AcDbEllipse
10
-21.5703572453
20
13.2826919723
30
0
11
0
21
0.08103
31
0
40
0.945945945946
41
0
42
6.28318530718
0
ELLIPSE
5
BC
100
AcDbEntity
8
0
6
ByLayer
62
256
370
8
100
AcDbEllipse
10
-21.0641876864
20
11.7012975496
30
0
11
0
21
0.08103
31
0
40
0.945945945946
41
0
42
6.28318530718
0
ELLIPSE
5
BD
100
AcDbEntity
8
0
6
ByLayer
62
256
370
8
100
AcDbEllipse
10
-20.5478525773
20
10.1226823449
30
0
11
0
21
0.08103
31
0
40
0.945945945946
41
0
42
6.28318530718
0
ELLIPSE
5
BE
100
AcDbEntity
8
0
6
ByLayer
62
256
370
8
100
AcDbEllipse
10
-20.0416830185
20
8.54128792215
30
0
11
0
21
0.08103
31
0
40
0.945945945946
41
0
42
6.28318530718
0
ELLIPSE
5
BF
100
AcDbEntity
8
0
6
ByLayer
62
256
370
8
100
AcDbEllipse
10
-19.5355134597
20
6.95989349942
30
0
11
0
21
0.08103
31
0
40
0.945945945946
41
0
42
6.28318530718
0
ELLIPSE
5
C0
100
AcDbEntity
8
0
6
ByLayer
62
256
370
8
100
AcDbEllipse
10
-19.0293439009
20
5.37849907668
30
0
11
0
21
0.08103
31
0
40
0.945945945946
41
0
42
6.28318530718
0
ELLIPSE
5
C1
100
AcDbEntity
8
0
6
ByLayer
62
256
370
8
100
AcDbEllipse
10
-18.5231743419
20
3.79710465395
30
0
11
0
21
0.08103
31
0
40
0.945945945946
41
0
42
6.28318530718
0
ELLIPSE
5
C2
100
AcDbEntity
8
0
6
ByLayer
62
256
370
8
100
AcDbEllipse
10
-18.1297367393
20
2.63112632743
30
0
11
0
21
0.08103
31
0
40
0.945945945946
41
0
42
6.28318530718
0
ARC
5
C3
100
AcDbEntity
8
0
6
ByLayer
62
256
370
8
100
AcDbCircle
10
-8.80525906736
20
17.1642746114
40
0.235784046578
100
AcDbArc
50
3.82412510906
51
88.7219349311
0
ARC
5
C4
100
AcDbEntity
8
0
6
ByLayer
62
256
370
8
100
AcDbCircle
10
-8.455
20
17.105
40
0.137295302177
100
AcDbArc
50
79.5085229877
51
146.88865804
0
ELLIPSE
5
C5
100
AcDbEntity
8
0
6
ByLayer
62
256
370
8
100
AcDbEllipse
10
-0.917028688525
20
13.6328926229
30
0
11
0
21
0.371719089235
31
0
40
0.945945945946
41
4.61703117092
42
5.59242707828
0
LINE
5
C6
100
AcDbEntity
8
0
6
ByLayer
62
256
370
8
100
AcDbLine
10
-8.43
20
17.24
11
-5.9
21
15.9
0
LINE
5
C7
100
AcDbEntity
8
0
6
ByLayer
62
256
370
8
100
AcDbLine
10
-0.7
20
13.9
11
-2.9
21
14.7
0
LINE
5
C8
100
AcDbEntity
8
0
6
ByLayer
62
256
370
8
100
AcDbLine
10
-5.5
20
15.7
11
-3.3
21
14.8
0
ELLIPSE
5
C9
100
AcDbEntity
8
0
6
ByLayer
62
256
370
8
100
AcDbEllipse
10
-3.49
20
14.46
30
0
11
0
21
0.08103
31
0
40
0.945945945946
41
0
42
6.28318530718
0
LINE
5
CA
100
AcDbEntity
8
0
6
ByLayer
62
256
370
8
100
AcDbLine
10
-11.3
20
17.58
11
-8.8
21
17.4
0
ARC
5
CB
100
AcDbEntity
8
0
6
ByLayer
62
256
370
8
100
AcDbCircle
10
-11.2586705302
20
17.2887187867
40
0.294198691879
100
AcDbArc
50
98.0757087932
51
156.761003287
0
ARC
5
CC
100
AcDbEntity
8
0
6
ByLayer
62
256
370
8
100
AcDbCircle
10
-2.935
20
14.531
40
0.172586210341
100
AcDbArc
50
78.2994205372
51
136.408628735
0
ARC
5
CD
100
AcDbEntity
8
0
6
ByLayer
62
256
370
8
100
AcDbCircle
10
-2.63136363636
20
14.3586363636
40
0.518287469293
100
AcDbArc
50
145.794270445
51
164.171942599
0
ARC
5
CE
100
AcDbEntity
8
0
6
ByLayer
62
256
370
8
100
AcDbCircle
10
-3.37303571429
20
14.5604464286
40
0.250439871317
100
AcDbArc
50
346.033115851
51
73.0444486683
0
ELLIPSE
5
CF
100
AcDbEntity
8
0
6
ByLayer
62
256
370
8
100
AcDbEllipse
10
-6.2
20
15.3
30
0
11
0
21
0.08103
31
0
40
0.945945945946
41
0
42
6.28318530718
0
ARC
5
D0
100
AcDbEntity
8
0
6
ByLayer
62
256
370
8
100
AcDbCircle
10
-6.13641104294
20
15.6147546012
40
0.370479579393
100
AcDbArc
50
351.500901826
51
50.3481016643
0
ARC
5
D1
100
AcDbEntity
8
0
6
ByLayer
62
256
370
8
100
AcDbCircle
10
-5.55423076923
20
15.4742307692
40
0.232191132246
100
AcDbArc
50
76.4931922178
51
158.321958658
0
LINE
5
D2
100
AcDbEntity
8
0
6
ByLayer
62
256
370
8
100
AcDbLine
10
-8.1375
20
0.9879
11
-5.77
21
15.56
0
LINE
5
D3
100
AcDbEntity
8
0
6
ByLayer
62
256
370
8
100
AcDbLine
10
-6.32099999999
20
1.7871
11
-3.13
21
14.5
0
ELLIPSE
5
D4
100
AcDbEntity
8
0
6
ByLayer
62
256
370
8
100
AcDbEllipse
10
13.188
20
2.45976
30
0
11
0
21
1.22274246577
31
0
40
0.945945945946
41
3.87818641485
42
4.32513961714
0
ELLIPSE
5
D5
100
AcDbEntity
8
0
6
ByLayer
62
256
370
8
100
AcDbEllipse
10
19.07535
20
13.96047
30
0
11
0
21
0.48817037784
31
0
40
0.945945945946
41
4.53639960616
42
5.72482701376
0
LWPOLYLINE
5
D6
100
AcDbEntity
8
0
6
ByLayer
62
256
370
8
100
AcDbPolyline
90
2
70
0
43
0
10
14.2052589
20
1.71818232
10
14.2052589
20
1.71818232
0
LINE
5
D7
100
AcDbEntity
8
0
6
ByLayer
62
256
370
8
100
AcDbLine
10
0.567
20
13.5975
11
4.179
21
2.6418
0
LINE
5
D8
100
AcDbEntity
8
0
6
ByLayer
62
256
370
8
100
AcDbLine
10
4.3995
20
2.3754
11
6.0165
21
1.5984
0
ELLIPSE
5
D9
100
AcDbEntity
8
0
6
ByLayer
62
256
370
8
100
AcDbEllipse
10
4.70575
20
2.8938625
30
0
11
0
21
0.611242526667
31
0
40
0.945945945946
41
1.99585828797
42
2.58339436485
0
ELLIPSE
5
DA
100
AcDbEntity
8
0
6
ByLayer
62
256
370
8
100
AcDbEllipse
10
6.11590460526
20
1.78804934211
30
0
11
0
21
0.216817209954
31
0
40
0.945945945946
41
2.63560642301
42
4.70801042973
0
ELLIPSE
5
DB
100
AcDbEntity
8
0
6
ByLayer
62
256
370
8
100
AcDbEllipse
10
6.82318805309
20
1.85587743363
30
0
11
0
21
0.535321120274
31
0
40
0.945945945946
41
1.69963127559
42
2.78517369051
0
LINE
5
DC
100
AcDbEntity
8
0
6
ByLayer
62
256
370
8
100
AcDbLine
10
6.6465
20
1.3542
11
7.98
21
0.8436
0
ELLIPSE
5
DD
100
AcDbEntity
8
0
6
ByLayer
62
256
370
8
100
AcDbEllipse
10
8.00660393258
20
0.979356741574
30
0
11
0
21
0.138639320204
31
0
40
0.945945945946
41
2.93731646837
42
4.77405023602
0
ELLIPSE
5
DE
100
AcDbEntity
8
0
6
ByLayer
62
256
370
8
100
AcDbEllipse
10
8.30025
20
0.979788461538
30
0
11
0
21
0.172241108787
31
0
40
0.945945945946
41
1.52368481038
42
3.80046191282
0
ELLIPSE
5
DF
100
AcDbEntity
8
0
6
ByLayer
62
256
370
8
100
AcDbEllipse
10
11.7276710526
20
17.3954526316
30
0
11
0
21
0.210231589505
31
0
40
0.945945945946
41
0.10160422314
42
1.52631941932
0
ELLIPSE
5
E0
100
AcDbEntity
8
0
6
ByLayer
62
256
370
8
100
AcDbEllipse
10
10.2136034483
20
6.33216724138
30
0
11
0
21
11.3825220834
31
0
40
0.945945945946
41
5.90117404031
42
6.14399179056
0
ELLIPSE
5
E1
100
AcDbEntity
8
0
6
ByLayer
62
256
370
8
100
AcDbEllipse
10
14.1544871134
20
16.5106206186
30
0
11
0
21
0.391268033515
31
0
40
0.945945945946
41
4.84202216723
42
6.08461391834
0
ELLIPSE
5
E2
100
AcDbEntity
8
0
6
ByLayer
62
256
370
8
100
AcDbEllipse
10
14.7823366337
20
16.3470029703
30
0
11
0
21
0.349161551101
31
0
40
0.945945945946
41
6.18260838972
42
0.91036049003
0
LINE
5
E3
100
AcDbEntity
8
0
6
ByLayer
62
256
370
8
100
AcDbLine
10
8.568
20
17.2161
11
9.555
21
2.664
0
ELLIPSE
5
E4
100
AcDbEntity
8
0
6
ByLayer
62
256
370
8
100
AcDbEllipse
10
6.97268478261
20
3.43448478261
30
0
11
0
21
2.83652432571
31
0
40
0.945945945946
41
4.18588827305
42
4.43730279058
0
ELLIPSE
5
E5
100
AcDbEntity
8
0
6
ByLayer
62
256
370
8
100
AcDbEllipse
10
9.76558333334
20
2.84715
30
0
11
0
21
0.288274353313
31
0
40
0.945945945946
41
2.25923504239
42
3.80263582244
0
ELLIPSE
5
E6
100
AcDbEntity
8
0
6
ByLayer
62
256
370
8
100
AcDbEllipse
10
10.2909308511
20
2.18736914894
30
0
11
0
21
0.574454517147
31
0
40
0.945945945946
41
5.59396534174
42
0.71906849541
0
ELLIPSE
5
E7
100
AcDbEntity
8
0
6
ByLayer
62
256
370
8
100
AcDbEllipse
10
10.8223928571
20
2.75631122449
30
0
11
0
21
0.233230455254
31
0
40
0.945945945946
41
2.13953686461
42
4.30545664088
0
ELLIPSE
5
E8
100
AcDbEntity
8
0
6
ByLayer
62
256
370
8
100
AcDbEllipse
10
12.093375
20
2.6751
30
0
11
0
21
1.12947954413
31
0
40
0.945945945946
41
1.58062402021
42
2.01796191195
0
LINE
5
E9
100
AcDbEntity
8
0
6
ByLayer
62
256
370
8
100
AcDbLine
10
11.025
20
2.664
11
11.529
21
17.4048
0
LINE
5
EA
100
AcDbEntity
8
0
6
ByLayer
62
256
370
8
100
AcDbLine
10
14.5215
20
16.5612
11
12.495
21
1.221
0
ELLIPSE
5
EB
100
AcDbEntity
8
0
6
ByLayer
62
256
370
8
100
AcDbEllipse
10
12.2046799065
20
1.31804719626
30
0
11
0
21
0.321887855735
31
0
40
0.945945945946
41
2.66317134476
42
4.40613000079
0
ELLIPSE
5
EC
100
AcDbEntity
8
0
6
ByLayer
62
256
370
8
100
AcDbEllipse
10
14.7666261468
20
4.47674056357
30
0
11
0
21
4.47481324808
31
0
40
0.945945945946
41
2.10803109427
42
2.44922931786
0
ELLIPSE
5
ED
100
AcDbEntity
8
0
6
ByLayer
62
256
370
8
100
AcDbEllipse
10
12.7654256756
20
1.31496428571
30
0
11
0
21
0.304573573599
31
0
40
0.945945945946
41
1.9229875487
42
3.40880732076
0
LINE
5
EE
100
AcDbEntity
8
0
6
ByLayer
62
256
370
8
100
AcDbLine
10
12.8415
20
1.0212
11
13.965
21
1.554
0
ELLIPSE
5
EF
100
AcDbEntity
8
0
6
ByLayer
62
256
370
8
100
AcDbEllipse
10
13.188
20
2.45976
30
0
11
0
21
1.22274246577
31
0
40
0.945945945946
41
3.87818641485
42
4.32513961714
0
ELLIPSE
5
F0
100
AcDbEntity
8
0
6
ByLayer
62
256
370
8
100
AcDbEllipse
10
14.442375
20
1.97897142857
30
0
11
0
21
0.194785250176
31
0
40
0.945945945946
41
1.47295027254
42
3.52323281707
0
LINE
5
F1
100
AcDbEntity
8
0
6
ByLayer
62
256
370
8
100
AcDbLine
10
14.511
20
1.7982
11
16.023
21
2.553
0
ELLIPSE
5
F2
100
AcDbEntity
8
0
6
ByLayer
62
256
370
8
100
AcDbEllipse
10
15.72375
20
3.1598
30
0
11
0
21
0.684312474313
31
0
40
0.945945945946
41
3.62216730354
42
4.30075253244
0
ELLIPSE
5
F3
100
AcDbEntity
8
0
6
ByLayer
62
256
370
8
100
AcDbEllipse
10
16.4492045454
20
2.85017727273
30
0
11
0
21
0.144277064293
31
0
40
0.945945945946
41
1.31988049849
42
3.32801471703
0
ELLIPSE
5
F4
100
AcDbEntity
8
0
6
ByLayer
62
256
370
8
100
AcDbEllipse
10
16.8315
20
1.4023
30
0
11
0
21
1.35953226148
31
0
40
0.945945945946
41
6.00189500289
42
0.28129030429
0
ELLIPSE
5
F5
100
AcDbEntity
8
0
6
ByLayer
62
256
370
8
100
AcDbEllipse
10
15.25006875
20
-1.925225625
30
0
11
0
21
5.06652760278
31
0
40
0.945945945946
41
5.70979678191
42
5.86679894759
0
ELLIPSE
5
F6
100
AcDbEntity
8
0
6
ByLayer
62
256
370
8
100
AcDbEllipse
10
18.08625
20
2.69175
30
0
11
0
21
0.438766025348
31
0
40
0.945945945946
41
2.53604798999
42
4.39063842599
0
LINE
5
F7
100
AcDbEntity
8
0
6
ByLayer
62
256
370
8
100
AcDbLine
10
14.8155
20
16.6944
11
17.01
21
15.7176
0
ELLIPSE
5
F8
100
AcDbEntity
8
0
6
ByLayer
62
256
370
8
100
AcDbEllipse
10
16.8418157895
20
15.3843078947
30
0
11
0
21
0.377749382368
31
0
40
0.945945945946
41
4.68377379171
42
5.79313700705
0
ELLIPSE
5
F9
100
AcDbEntity
8
0
6
ByLayer
62
256
370
8
100
AcDbEllipse
10
17.353
20
15.3591625
30
0
11
0
21
0.163430119336
31
0
40
0.945945945946
41
5.83852275868
42
1.482954777
0
ELLIPSE
5
FA
100
AcDbEntity
8
0
6
ByLayer
62
256
370
8
100
AcDbEllipse
10
25.0984239131
20
27.5629891304
30
0
11
0
21
14.5344927168
31
0
40
0.945945945946
41
2.54899922993
42
2.70783400541
0
ELLIPSE
5
FB
100
AcDbEntity
8
0
6
ByLayer
62
256
370
8
100
AcDbEllipse
10
19.8975
20
13.653
30
0
11
0
21
0.447455305031
31
0
40
0.945945945946
41
6.15883031263
42
1.05165021255
0
ELLIPSE
5
FC
100
AcDbEntity
8
0
6
ByLayer
62
256
370
8
100
AcDbEllipse
10
23.28025
20
22.99365
30
0
11
0
21
9.5678970273
31
0
40
0.945945945946
41
2.76478451103
42
2.97825585633
0
ELLIPSE
5
FD
100
AcDbEntity
8
0
6
ByLayer
62
256
370
8
100
AcDbEllipse
10
21.7759073604
20
13.3354667513
30
0
11
0
21
0.220343784176
31
0
40
0.945945945946
41
4.43723302623
42
6.12617131674
0
LINE
5
FE
100
AcDbEntity
8
0
6
ByLayer
62
256
370
8
100
AcDbLine
10
18.48
20
2.553
11
21.9765
21
13.2756
0
LINE
5
FF
100
AcDbEntity
8
0
6
ByLayer
62
256
370
8
100
AcDbLine
10
19.53
20
13.875
11
16.317
21
2.886
0
LINE
5
100
100
AcDbEntity
8
0
6
ByLayer
62
256
370
8
100
AcDbLine
10
14.259
20
1.998
11
17.199
21
15.3735
0
ELLIPSE
5
101
100
AcDbEntity
8
0
6
ByLayer
62
256
370
8
100
AcDbEllipse
10
6.50630230235
20
13.1267000801
30
0
11
0
21
0.08103
31
0
40
0.945945945946
41
0
42
6.28318530718
0
ELLIPSE
5
102
100
AcDbEntity
8
0
6
ByLayer
62
256
370
8
100
AcDbEllipse
10
6.77222762348
20
11.4810681762
30
0
11
0
21
0.08103
31
0
40
0.945945945946
41
0
42
6.28318530718
0
ELLIPSE
5
103
100
AcDbEntity
8
0
6
ByLayer
62
256
370
8
100
AcDbEllipse
10
7.03815294461
20
9.83543627226
30
0
11
0
21
0.08103
31
0
40
0.945945945946
41
0
42
6.28318530718
0
ELLIPSE
5
104
100
AcDbEntity
8
0
6
ByLayer
62
256
370
8
100
AcDbEllipse
10
7.30407826574
20
8.18980436836
30
0
11
0
21
0.08103
31
0
40
0.945945945946
41
0
42
6.28318530718
0
ELLIPSE
5
105
100
AcDbEntity
8
0
6
ByLayer
62
256
370
8
100
AcDbEllipse
10
7.57000358687
20
6.54417246446
30
0
11
0
21
0.08103
31
0
40
0.945945945946
41
0
42
6.28318530718
0
ELLIPSE
5
106
100
AcDbEntity
8
0
6
ByLayer
62
256
370
8
100
AcDbEllipse
10
7.835928908
20
4.89854056056
30
0
11
0
21
0.08103
31
0
40
0.945945945946
41
0
42
6.28318530718
0
ELLIPSE
5
107
100
AcDbEntity
8
0
6
ByLayer
62
256
370
8
100
AcDbEllipse
10
8.10185422913
20
3.25290865667
30
0
11
0
21
0.08103
31
0
40
0.945945945946
41
0
42
6.28318530718
0
ELLIPSE
5
108
100
AcDbEntity
8
0
6
ByLayer
62
256
370
8
100
AcDbEllipse
10
8.904
20
17.1051
30
0
11
0
21
0.08103
31
0
40
0.945945945946
41
0
42
6.28318530718
0
ELLIPSE
5
109
100
AcDbEntity
8
0
6
ByLayer
62
256
370
8
100
AcDbEllipse
10
9.0195
20
15.54
30
0
11
0
21
0.08103
31
0
40
0.945945945946
41
0
42
6.28318530718
0
ELLIPSE
5
10A
100
AcDbEntity
8
0
6
ByLayer
62
256
370
8
100
AcDbEllipse
10
9.1455
20
13.875
30
0
11
0
21
0.08103
31
0
40
0.945945945946
41
0
42
6.28318530718
0
ELLIPSE
5
10B
100
AcDbEntity
8
0
6
ByLayer
62
256
370
8
100
AcDbEllipse
10
9.261
20
12.21
30
0
11
0
21
0.08103
31
0
40
0.945945945946
41
0
42
6.28318530718
0
ELLIPSE
5
10C
100
AcDbEntity
8
0
6
ByLayer
62
256
370
8
100
AcDbEllipse
10
9.3765
20
10.545
30
0
11
0
21
0.08103
31
0
40
0.945945945946
41
0
42
6.28318530718
0
ELLIPSE
5
10D
100
AcDbEntity
8
0
6
ByLayer
62
256
370
8
100
AcDbEllipse
10
9.492
20
8.88
30
0
11
0
21
0.08103
31
0
40
0.945945945946
41
0
42
6.28318530718
0
ELLIPSE
5
10E
100
AcDbEntity
8
0
6
ByLayer
62
256
370
8
100
AcDbEllipse
10
9.6075
20
7.215
30
0
11
0
21
0.08103
31
0
40
0.945945945946
41
0
42
6.28318530718
0
ELLIPSE
5
10F
100
AcDbEntity
8
0
6
ByLayer
62
256
370
8
100
AcDbEllipse
10
9.723
20
5.55
30
0
11
0
21
0.08103
31
0
40
0.945945945946
41
0
42
6.28318530718
0
ELLIPSE
5
110
100
AcDbEntity
8
0
6
ByLayer
62
256
370
8
100
AcDbEllipse
10
9.8385
20
3.885
30
0
11
0
21
0.08103
31
0
40
0.945945945946
41
0
42
6.28318530718
0
ELLIPSE
5
111
100
AcDbEntity
8
0
6
ByLayer
62
256
370
8
100
AcDbEllipse
10
9.87
20
3.108
30
0
11
0
21
0.08103
31
0
40
0.945945945946
41
0
42
6.28318530718
0
ELLIPSE
5
112
100
AcDbEntity
8
0
6
ByLayer
62
256
370
8
100
AcDbEllipse
10
3.76058689447
20
13.5588315366
30
0
11
0
21
0.08103
31
0
40
0.945945945946
41
0
42
6.28318530718
0
ELLIPSE
5
113
100
AcDbEntity
8
0
6
ByLayer
62
256
370
8
100
AcDbEllipse
10
4.17149796548
20
11.9459858875
30
0
11
0
21
0.08103
31
0
40
0.945945945946
41
0
42
6.28318530718
0
ELLIPSE
5
114
100
AcDbEntity
8
0
6
ByLayer
62
256
370
8
100
AcDbEllipse
10
4.57208485995
20
10.331117424
30
0
11
0
21
0.08103
31
0
40
0.945945945946
41
0
42
6.28318530718
0
ELLIPSE
5
115
100
AcDbEntity
8
0
6
ByLayer
62
256
370
8
100
AcDbEllipse
10
4.97267175443
20
8.71624896061
30
0
11
0
21
0.08103
31
0
40
0.945945945946
41
0
42
6.28318530718
0
ELLIPSE
5
116
100
AcDbEntity
8
0
6
ByLayer
62
256
370
8
100
AcDbEllipse
10
5.3732586489
20
7.10138049718
30
0
11
0
21
0.08103
31
0
40
0.945945945946
41
0
42
6.28318530718
0
ELLIPSE
5
117
100
AcDbEntity
8
0
6
ByLayer
62
256
370
8
100
AcDbEllipse
10
5.77384554338
20
5.48651203374
30
0
11
0
21
0.08103
31
0
40
0.945945945946
41
0
42
6.28318530718
0
ELLIPSE
5
118
100
AcDbEntity
8
0
6
ByLayer
62
256
370
8
100
AcDbEllipse
10
6.17443243785
20
3.87164357031
30
0
11
0
21
0.08103
31
0
40
0.945945945946
41
0
42
6.28318530718
0
ELLIPSE
5
119
100
AcDbEntity
8
0
6
ByLayer
62
256
370
8
100
AcDbEllipse
10
6.57501933232
20
2.25677510688
30
0
11
0
21
0.08103
31
0
40
0.945945945946
41
0
42
6.28318530718
0
ELLIPSE
5
11A
100
AcDbEntity
8
0
6
ByLayer
62
256
370
8
100
AcDbEllipse
10
0.945
20
13.6752
30
0
11
0
21
0.08103
31
0
40
0.945945945946
41
0
42
6.28318530718
0
ELLIPSE
5
11B
100
AcDbEntity
8
0
6
ByLayer
62
256
370
8
100
AcDbEllipse
10
1.46420442898
20
12.0985353046
30
0
11
0
21
0.08103
31
0
40
0.945945945946
41
0
42
6.28318530718
0
ELLIPSE
5
11C
100
AcDbEntity
8
0
6
ByLayer
62
256
370
8
100
AcDbEllipse
10
1.99355107912
20
10.5247435007
30
0
11
0
21
0.08103
31
0
40
0.945945945946
41
0
42
6.28318530718
0
ELLIPSE
5
11D
100
AcDbEntity
8
0
6
ByLayer
62
256
370
8
100
AcDbEllipse
10
2.5127555081
20
8.9480788053
30
0
11
0
21
0.08103
31
0
40
0.945945945946
41
0
42
6.28318530718
0
ELLIPSE
5
11E
100
AcDbEntity
8
0
6
ByLayer
62
256
370
8
100
AcDbEllipse
10
3.03195993707
20
7.37141410994
30
0
11
0
21
0.08103
31
0
40
0.945945945946
41
0
42
6.28318530718
0
ELLIPSE
5
11F
100
AcDbEntity
8
0
6
ByLayer
62
256
370
8
100
AcDbEllipse
10
3.55116436604
20
5.79474941458
30
0
11
0
21
0.08103
31
0
40
0.945945945946
41
0
42
6.28318530718
0
ELLIPSE
5
120
100
AcDbEntity
8
0
6
ByLayer
62
256
370
8
100
AcDbEllipse
10
4.07036879502
20
4.21808471922
30
0
11
0
21
0.08103
31
0
40
0.945945945946
41
0
42
6.28318530718
0
ELLIPSE
5
121
100
AcDbEntity
8
0
6
ByLayer
62
256
370
8
100
AcDbEllipse
10
4.58957322398
20
2.64142002385
30
0
11
0
21
0.08103
31
0
40
0.945945945946
41
0
42
6.28318530718
0
ELLIPSE
5
122
100
AcDbEntity
8
0
6
ByLayer
62
256
370
8
100
AcDbEllipse
10
14.1644286038
20
16.5257868686
30
0
11
0
21
0.08103
31
0
40
0.945945945946
41
0
42
6.28318530718
0
ELLIPSE
5
123
100
AcDbEntity
8
0
6
ByLayer
62
256
370
8
100
AcDbEllipse
10
13.9529925848
20
14.8713464559
30
0
11
0
21
0.08103
31
0
40
0.945945945946
41
0
42
6.28318530718
0
ELLIPSE
5
124
100
AcDbEntity
8
0
6
ByLayer
62
256
370
8
100
AcDbEllipse
10
13.7310761505
20
13.2175836819
30
0
11
0
21
0.08103
31
0
40
0.945945945946
41
0
42
6.28318530718
0
ELLIPSE
5
125
100
AcDbEntity
8
0
6
ByLayer
62
256
370
8
100
AcDbEllipse
10
13.5196401314
20
11.5631432693
30
0
11
0
21
0.08103
31
0
40
0.945945945946
41
0
42
6.28318530718
0
ELLIPSE
5
126
100
AcDbEntity
8
0
6
ByLayer
62
256
370
8
100
AcDbEllipse
10
13.3082041125
20
9.9087028566
30
0
11
0
21
0.08103
31
0
40
0.945945945946
41
0
42
6.28318530718
0
ELLIPSE
5
127
100
AcDbEntity
8
0
6
ByLayer
62
256
370
8
100
AcDbEllipse
10
13.0967680935
20
8.25426244391
30
0
11
0
21
0.08103
31
0
40
0.945945945946
41
0
42
6.28318530718
0
ELLIPSE
5
128
100
AcDbEntity
8
0
6
ByLayer
62
256
370
8
100
AcDbEllipse
10
12.8853320745
20
6.59982203122
30
0
11
0
21
0.08103
31
0
40
0.945945945946
41
0
42
6.28318530718
0
ELLIPSE
5
129
100
AcDbEntity
8
0
6
ByLayer
62
256
370
8
100
AcDbEllipse
10
12.6738960555
20
4.94538161852
30
0
11
0
21
0.08103
31
0
40
0.945945945946
41
0
42
6.28318530718
0
ELLIPSE
5
12A
100
AcDbEntity
8
0
6
ByLayer
62
256
370
8
100
AcDbEllipse
10
12.4624600365
20
3.29094120583
30
0
11
0
21
0.08103
31
0
40
0.945945945946
41
0
42
6.28318530718
0
ELLIPSE
5
12B
100
AcDbEntity
8
0
6
ByLayer
62
256
370
8
100
AcDbEllipse
10
11.2035
20
17.1051
30
0
11
0
21
0.08103
31
0
40
0.945945945946
41
0
42
6.28318530718
0
ELLIPSE
5
12C
100
AcDbEntity
8
0
6
ByLayer
62
256
370
8
100
AcDbEllipse
10
11.1397390644
20
15.5366921881
30
0
11
0
21
0.08103
31
0
40
0.945945945946
41
0
42
6.28318530718
0
ELLIPSE
5
12D
100
AcDbEntity
8
0
6
ByLayer
62
256
370
8
100
AcDbEllipse
10
11.0687825275
20
13.8680578481
30
0
11
0
21
0.08103
31
0
40
0.945945945946
41
0
42
6.28318530718
0
ELLIPSE
5
12E
100
AcDbEntity
8
0
6
ByLayer
62
256
370
8
100
AcDbEllipse
10
11.0083195943
20
12.1998108926
30
0
11
0
21
0.08103
31
0
40
0.945945945946
41
0
42
6.28318530718
0
ELLIPSE
5
12F
100
AcDbEntity
8
0
6
ByLayer
62
256
370
8
100
AcDbEllipse
10
10.9478566611
20
10.5315639371
30
0
11
0
21
0.08103
31
0
40
0.945945945946
41
0
42
6.28318530718
0
ELLIPSE
5
130
100
AcDbEntity
8
0
6
ByLayer
62
256
370
8
100
AcDbEllipse
10
10.8873937278
20
8.86331698154
30
0
11
0
21
0.08103
31
0
40
0.945945945946
41
0
42
6.28318530718
0
ELLIPSE
5
131
100
AcDbEntity
8
0
6
ByLayer
62
256
370
8
100
AcDbEllipse
10
10.8269307946
20
7.195070026
30
0
11
0
21
0.08103
31
0
40
0.945945945946
41
0
42
6.28318530718
0
ELLIPSE
5
132
100
AcDbEntity
8
0
6
ByLayer
62
256
370
8
100
AcDbEllipse
10
10.7664678614
20
5.52682307046
30
0
11
0
21
0.08103
31
0
40
0.945945945946
41
0
42
6.28318530718
0
ELLIPSE
5
133
100
AcDbEntity
8
0
6
ByLayer
62
256
370
8
100
AcDbEllipse
10
10.7060049282
20
3.85857611494
30
0
11
0
21
0.08103
31
0
40
0.945945945946
41
0
42
6.28318530718
0
ELLIPSE
5
134
100
AcDbEntity
8
0
6
ByLayer
62
256
370
8
100
AcDbEllipse
10
10.7001752472
20
3.0808872891
30
0
11
0
21
0.08103
31
0
40
0.945945945946
41
0
42
6.28318530718
0
ELLIPSE
5
135
100
AcDbEntity
8
0
6
ByLayer
62
256
370
8
100
AcDbEllipse
10
16.8078841254
20
15.379415527
30
0
11
0
21
0.08103
31
0
40
0.945945945946
41
0
42
6.28318530718
0
ELLIPSE
5
136
100
AcDbEntity
8
0
6
ByLayer
62
256
370
8
100
AcDbEllipse
10
16.4608529708
20
13.7507516436
30
0
11
0
21
0.08103
31
0
40
0.945945945946
41
0
42
6.28318530718
0
ELLIPSE
5
137
100
AcDbEntity
8
0
6
ByLayer
62
256
370
8
100
AcDbEllipse
10
16.1034371494
20
12.1237284447
30
0
11
0
21
0.08103
31
0
40
0.945945945946
41
0
42
6.28318530718
0
ELLIPSE
5
138
100
AcDbEntity
8
0
6
ByLayer
62
256
370
8
100
AcDbEllipse
10
15.7564059947
20
10.4950645612
30
0
11
0
21
0.08103
31
0
40
0.945945945946
41
0
42
6.28318530718
0
ELLIPSE
5
139
100
AcDbEntity
8
0
6
ByLayer
62
256
370
8
100
AcDbEllipse
10
15.4093748399
20
8.86640067784
30
0
11
0
21
0.08103
31
0
40
0.945945945946
41
0
42
6.28318530718
0
ELLIPSE
5
13A
100
AcDbEntity
8
0
6
ByLayer
62
256
370
8
100
AcDbEllipse
10
15.0623436852
20
7.23773679443
30
0
11
0
21
0.08103
31
0
40
0.945945945946
41
0
42
6.28318530718
0
ELLIPSE
5
13B
100
AcDbEntity
8
0
6
ByLayer
62
256
370
8
100
AcDbEllipse
10
14.7153125304
20
5.60907291105
30
0
11
0
21
0.08103
31
0
40
0.945945945946
41
0
42
6.28318530718
0
ELLIPSE
5
13C
100
AcDbEntity
8
0
6
ByLayer
62
256
370
8
100
AcDbEllipse
10
14.3682813756
20
3.98040902765
30
0
11
0
21
0.08103
31
0
40
0.945945945946
41
0
42
6.28318530718
0
ELLIPSE
5
13D
100
AcDbEntity
8
0
6
ByLayer
62
256
370
8
100
AcDbEllipse
10
14.0212502209
20
2.35174514425
30
0
11
0
21
0.08103
31
0
40
0.945945945946
41
0
42
6.28318530718
0
ELLIPSE
5
13E
100
AcDbEntity
8
0
6
ByLayer
62
256
370
8
100
AcDbEllipse
10
8.40000583747
20
1.5536074741
30
0
11
0
21
0.08103
31
0
40
0.945945945946
41
0
42
6.28318530718
0
ELLIPSE
5
13F
100
AcDbEntity
8
0
6
ByLayer
62
256
370
8
100
AcDbEllipse
10
5.4075
20
4.36917142857
30
0
11
0
21
4.7368118126
31
0
40
0.945945945946
41
3.87291478588
42
4.19082072555
0
ELLIPSE
5
140
100
AcDbEntity
8
0
6
ByLayer
62
256
370
8
100
AcDbEllipse
10
12.1789600365
20
1.54824120583
30
0
11
0
21
0.08103
31
0
40
0.945945945946
41
0
42
6.28318530718
0
ELLIPSE
5
141
100
AcDbEntity
8
0
6
ByLayer
62
256
370
8
100
AcDbEllipse
10
19.2708500823
20
13.9708957302
30
0
11
0
21
0.08103
31
0
40
0.945945945946
41
0
42
6.28318530718
0
ELLIPSE
5
142
100
AcDbEntity
8
0
6
ByLayer
62
256
370
8
100
AcDbEllipse
10
18.7908649084
20
12.3804034916
30
0
11
0
21
0.08103
31
0
40
0.945945945946
41
0
42
6.28318530718
0
ELLIPSE
5
143
100
AcDbEntity
8
0
6
ByLayer
62
256
370
8
100
AcDbEllipse
10
18.3006698504
20
10.7925024966
30
0
11
0
21
0.08103
31
0
40
0.945945945946
41
0
42
6.28318530718
0
ELLIPSE
5
144
100
AcDbEntity
8
0
6
ByLayer
62
256
370
8
100
AcDbEllipse
10
17.8206846765
20
9.20201025806
30
0
11
0
21
0.08103
31
0
40
0.945945945946
41
0
42
6.28318530718
0
ELLIPSE
5
145
100
AcDbEntity
8
0
6
ByLayer
62
256
370
8
100
AcDbEllipse
10
17.3406995026
20
7.61151801953
30
0
11
0
21
0.08103
31
0
40
0.945945945946
41
0
42
6.28318530718
0
ELLIPSE
5
146
100
AcDbEntity
8
0
6
ByLayer
62
256
370
8
100
AcDbEllipse
10
16.8607143287
20
6.02102578099
30
0
11
0
21
0.08103
31
0
40
0.945945945946
41
0
42
6.28318530718
0
ELLIPSE
5
147
100
AcDbEntity
8
0
6
ByLayer
62
256
370
8
100
AcDbEllipse
10
16.3807291549
20
4.43053354246
30
0
11
0
21
0.08103
31
0
40
0.945945945946
41
0
42
6.28318530718
0
ELLIPSE
5
148
100
AcDbEntity
8
0
6
ByLayer
62
256
370
8
100
AcDbEllipse
10
15.9686385521
20
3.01253630554
30
0
11
0
21
0.08103
31
0
40
0.945945945946
41
0
42
6.28318530718
0
ELLIPSE
5
149
100
AcDbEntity
8
0
6
ByLayer
62
256
370
8
100
AcDbEllipse
10
21.5703572453
20
13.2826919723
30
0
11
0
21
0.08103
31
0
40
0.945945945946
41
0
42
6.28318530718
0
ELLIPSE
5
14A
100
AcDbEntity
8
0
6
ByLayer
62
256
370
8
100
AcDbEllipse
10
21.0641876864
20
11.7012975496
30
0
11
0
21
0.08103
31
0
40
0.945945945946
41
0
42
6.28318530718
0
ELLIPSE
5
14B
100
AcDbEntity
8
0
6
ByLayer
62
256
370
8
100
AcDbEllipse
10
20.5478525773
20
10.1226823449
30
0
11
0
21
0.08103
31
0
40
0.945945945946
41
0
42
6.28318530718
0
ELLIPSE
5
14C
100
AcDbEntity
8
0
6
ByLayer
62
256
370
8
100
AcDbEllipse
10
20.0416830185
20
8.54128792215
30
0
11
0
21
0.08103
31
0
40
0.945945945946
41
0
42
6.28318530718
0
ELLIPSE
5
14D
100
AcDbEntity
8
0
6
ByLayer
62
256
370
8
100
AcDbEllipse
10
19.5355134597
20
6.95989349942
30
0
11
0
21
0.08103
31
0
40
0.945945945946
41
0
42
6.28318530718
0
ELLIPSE
5
14E
100
AcDbEntity
8
0
6
ByLayer
62
256
370
8
100
AcDbEllipse
10
19.0293439009
20
5.37849907668
30
0
11
0
21
0.08103
31
0
40
0.945945945946
41
0
42
6.28318530718
0
ELLIPSE
5
14F
100
AcDbEntity
8
0
6
ByLayer
62
256
370
8
100
AcDbEllipse
10
18.5231743419
20
3.79710465395
30
0
11
0
21
0.08103
31
0
40
0.945945945946
41
0
42
6.28318530718
0
ELLIPSE
5
150
100
AcDbEntity
8
0
6
ByLayer
62
256
370
8
100
AcDbEllipse
10
18.1297367393
20
2.63112632743
30
0
11
0
21
0.08103
31
0
40
0.945945945946
41
0
42
6.28318530718
0
ARC
5
151
100
AcDbEntity
8
0
6
ByLayer
62
256
370
8
100
AcDbCircle
10
8.80525906736
20
17.1642746114
40
0.235784046578
100
AcDbArc
50
91.2780650689
51
176.175874891
0
ARC
5
152
100
AcDbEntity
8
0
6
ByLayer
62
256
370
8
100
AcDbCircle
10
8.455
20
17.105
40
0.137295302177
100
AcDbArc
50
33.11134196
51
100.491477012
0
ELLIPSE
5
153
100
AcDbEntity
8
0
6
ByLayer
62
256
370
8
100
AcDbEllipse
10
0.917028688525
20
13.6328926229
30
0
11
0
21
0.371719089235
31
0
40
0.945945945946
41
0.6907582289
42
1.66615413626
0
LINE
5
154
100
AcDbEntity
8
0
6
ByLayer
62
256
370
8
100
AcDbLine
10
8.43
20
17.24
11
5.9
21
15.9
0
LINE
5
155
100
AcDbEntity
8
0
6
ByLayer
62
256
370
8
100
AcDbLine
10
0.7
20
13.9
11
2.9
21
14.7
0
LINE
5
156
100
AcDbEntity
8
0
6
ByLayer
62
256
370
8
100
AcDbLine
10
5.5
20
15.7
11
3.3
21
14.8
0
ELLIPSE
5
157
100
AcDbEntity
8
0
6
ByLayer
62
256
370
8
100
AcDbEllipse
10
3.49
20
14.46
30
0
11
0
21
0.08103
31
0
40
0.945945945946
41
0
42
6.28318530718
0
LINE
5
158
100
AcDbEntity
8
0
6
ByLayer
62
256
370
8
100
AcDbLine
10
11.3
20
17.58
11
8.8
21
17.4
0
ARC
5
159
100
AcDbEntity
8
0
6
ByLayer
62
256
370
8
100
AcDbCircle
10
11.2586705302
20
17.2887187867
40
0.294198691879
100
AcDbArc
50
23.238996713
51
81.9242912068
0
ARC
5
15A
100
AcDbEntity
8
0
6
ByLayer
62
256
370
8
100
AcDbCircle
10
2.935
20
14.531
40
0.172586210341
100
AcDbArc
50
43.591371265
51
101.700579463
0
ARC
5
15B
100
AcDbEntity
8
0
6
ByLayer
62
256
370
8
100
AcDbCircle
10
2.63136363636
20
14.3586363636
40
0.518287469293
100
AcDbArc
50
15.828057401
51
34.205729555
0
ARC
5
15C
100
AcDbEntity
8
0
6
ByLayer
62
256
370
8
100
AcDbCircle
10
3.37303571429
20
14.5604464286
40
0.250439871317
100
AcDbArc
50
106.955551332
51
193.966884149
0
ELLIPSE
5
15D
100
AcDbEntity
8
0
6
ByLayer
62
256
370
8
100
AcDbEllipse
10
6.2
20
15.3
30
0
11
0
21
0.08103
31
0
40
0.945945945946
41
0
42
6.28318530718
0
ARC
5
15E
100
AcDbEntity
8
0
6
ByLayer
62
256
370
8
100
AcDbCircle
10
6.13641104294
20
15.6147546012
40
0.370479579393
100
AcDbArc
50
129.651898336
51
188.499098174
0
ARC
5
15F
100
AcDbEntity
8
0
6
ByLayer
62
256
370
8
100
AcDbCircle
10
5.55423076923
20
15.4742307692
40
0.232191132246
100
AcDbArc
50
21.678041342
51
103.506807782
0
LINE
5
160
100
AcDbEntity
8
0
6
ByLayer
62
256
370
8
100
AcDbLine
10
8.1375
20
0.9879
11
5.77
21
15.56
0
LINE
5
161
100
AcDbEntity
8
0
6
ByLayer
62
256
370
8
100
AcDbLine
10
6.32099999999
20
1.7871
11
3.13
21
14.5
0
ENDSEC
0
SECTION
2
OBJECTS
0
DICTIONARY
5
C
330
0
100
AcDbDictionary
281
1
3
ACAD_GROUP
350
D
0
DICTIONARY
5
D
330
C
100
AcDbDictionary
281
1
0
ENDSEC
0
EOF
