999
dxfrw 0.5.7
0
SECTION
2
HEADER
9
$ACADVER
1
AC1021
9
$HANDSEED
5
20000
9
$DWGCODEPAGE
3
ANSI_1252
9
$INSBASE
10
0
20
0
30
0
9
$EXTMIN
10
-21.3036944593
20
0.85374262632
30
0
9
$EXTMAX
10
21.3036944593
20
14.9833916534
30
0
9
$LIMMIN
10
0
20
0
9
$LIMMAX
10
420
20
297
9
$ORTHOMODE
70
0
9
$LTSCALE
40
1
9
$TEXTSTYLE
7
STANDARD
9
$DIMASZ
40
0.1
9
$DIMSCALE
40
1
9
$DIMEXO
40
0.025
9
$DIMEXE
40
0.05
9
$DIMTXT
40
0.1
9
$DIMTSZ
40
0
9
$DIMAUNIT
70
0
9
$DIMADEC
70
0
9
$DIMLUNIT
70
2
9
$DIMSTYLE
2
Standard
9
$DIMGAP
40
0.025
9
$DIMTIH
70
0
9
$LUNITS
70
2
9
$LUPREC
70
4
9
$AUNITS
70
0
9
$AUPREC
70
2
9
$SPLINESEGS
70
8
9
$GRIDMODE
70
1
9
$SNAPSTYLE
70
0
9
$PINSBASE
10
0
20
0
30
0
9
$PLIMMIN
10
0
20
0
9
$PLIMMAX
10
8.26771653543
20
11.6929133858
9
$INSUNITS
70
1
9
$PSVPSCALE
40
0
0
ENDSEC
0
SECTION
2
CLASSES
0
ENDSEC
0
SECTION
2
TABLES
0
TABLE
2
VPORT
5
8
330
0
100
AcDbSymbolTable
70
1
0
VPORT
5
31
330
2
100
AcDbSymbolTableRecord
100
AcDbViewportTableRecord
2
*ACTIVE
70
0
10
0
20
0
11
1
21
1
12
17.5503692839
22
15.3899134906
13
0
23
0
14
10
24
10
15
10
25
10
16
0
26
0
36
1
17
0
27
0
37
0
40
47.9034395652
41
1.41202672606
42
50
43
0
44
0
50
0
51
0
71
0
72
100
73
1
74
3
75
0
76
1
77
0
78
0
281
0
65
1
110
0
120
0
130
0
111
1
121
0
131
0
112
0
122
1
132
0
79
0
146
0
348
10020
60
7
61
5
292
1
282
1
141
0
142
0
63
250
421
3358443
0
ENDTAB
0
TABLE
2
LTYPE
5
5
330
0
100
AcDbSymbolTable
70
4
0
LTYPE
5
14
330
5
100
AcDbSymbolTableRecord
100
AcDbLinetypeTableRecord
2
ByBlock
70
0
3

72
65
73
0
40
0
0
LTYPE
5
15
330
5
100
AcDbSymbolTableRecord
100
AcDbLinetypeTableRecord
2
ByLayer
70
0
3

72
65
73
0
40
0
0
LTYPE
5
16
330
5
100
AcDbSymbolTableRecord
100
AcDbLinetypeTableRecord
2
Continuous
70
0
3
Solid line
72
65
73
0
40
0
0
LTYPE
5
32
330
5
100
AcDbSymbolTableRecord
100
AcDbLinetypeTableRecord
2
DOT
70
0
3
Dot . . . . . . . . . . . . . . . . . . . . . .
72
65
73
2
40
6.35
49
0
74
0
49
-6.35
74
0
0
LTYPE
5
33
330
5
100
AcDbSymbolTableRecord
100
AcDbLinetypeTableRecord
2
DOT2
70
0
3
Dot (.5x) .....................................
72
65
73
2
40
3.175
49
0
74
0
49
-3.175
74
0
0
LTYPE
5
34
330
5
100
AcDbSymbolTableRecord
100
AcDbLinetypeTableRecord
2
DOTX2
70
0
3
Dot (2x) .  .  .  .  .  .  .  .  .  .  .  .  .
72
65
73
2
40
12.7
49
0
74
0
49
-12.7
74
0
0
LTYPE
5
35
330
5
100
AcDbSymbolTableRecord
100
AcDbLinetypeTableRecord
2
DASHED
70
0
3
Dot . . . . . . . . . . . . . . . . . . . . . .
72
65
73
2
40
19.05
49
12.7
74
0
49
-6.35
74
0
0
LTYPE
5
36
330
5
100
AcDbSymbolTableRecord
100
AcDbLinetypeTableRecord
2
DASHED2
70
0
3
Dashed (.5x) _ _ _ _ _ _ _ _ _ _ _ _ _ _ _ _ _
72
65
73
2
40
9.525
49
6.35
74
0
49
-3.175
74
0
0
LTYPE
5
37
330
5
100
AcDbSymbolTableRecord
100
AcDbLinetypeTableRecord
2
DASHEDX2
70
0
3
Dashed (2x) ____  ____  ____  ____  ____  ___
72
65
73
2
40
38.1
49
25.4
74
0
49
-12.7
74
0
0
LTYPE
5
38
330
5
100
AcDbSymbolTableRecord
100
AcDbLinetypeTableRecord
2
DASHDOT
70
0
3
Dash dot __ . __ . __ . __ . __ . __ . __ . __
72
65
73
4
40
25.4
49
12.7
74
0
49
-6.35
74
0
49
0
74
0
49
-6.35
74
0
0
LTYPE
5
39
330
5
100
AcDbSymbolTableRecord
100
AcDbLinetypeTableRecord
2
DASHDOT2
70
0
3
Dash dot (.5x) _._._._._._._._._._._._._._._.
72
65
73
4
40
12.7
49
6.35
74
0
49
-3.175
74
0
49
0
74
0
49
-3.175
74
0
0
LTYPE
5
3A
330
5
100
AcDbSymbolTableRecord
100
AcDbLinetypeTableRecord
2
DASHDOTX2
70
0
3
Dash dot (2x) ____  .  ____  .  ____  .  ___
72
65
73
4
40
50.8
49
25.4
74
0
49
-12.7
74
0
49
0
74
0
49
-12.7
74
0
0
LTYPE
5
3B
330
5
100
AcDbSymbolTableRecord
100
AcDbLinetypeTableRecord
2
DIVIDE
70
0
3
Divide ____ . . ____ . . ____ . . ____ . . ____
72
65
73
6
40
31.75
49
12.7
74
0
49
-6.35
74
0
49
0
74
0
49
-6.35
74
0
49
0
74
0
49
-6.35
74
0
0
LTYPE
5
3C
330
5
100
AcDbSymbolTableRecord
100
AcDbLinetypeTableRecord
2
DIVIDE2
70
0
3
Divide (.5x) __..__..__..__..__..__..__..__.._
72
65
73
6
40
15.875
49
6.35
74
0
49
-3.175
74
0
49
0
74
0
49
-3.175
74
0
49
0
74
0
49
-3.175
74
0
0
LTYPE
5
3D
330
5
100
AcDbSymbolTableRecord
100
AcDbLinetypeTableRecord
2
DIVIDEX2
70
0
3
Divide (2x) ________  .  .  ________  .  .  _
72
65
73
6
40
63.5
49
25.4
74
0
49
-12.7
74
0
49
0
74
0
49
-12.7
74
0
49
0
74
0
49
-12.7
74
0
0
LTYPE
5
3E
330
5
100
AcDbSymbolTableRecord
100
AcDbLinetypeTableRecord
2
BORDER
70
0
3
Border __ __ . __ __ . __ __ . __ __ . __ __ .
72
65
73
6
40
44.45
49
12.7
74
0
49
-6.35
74
0
49
12.7
74
0
49
-6.35
74
0
49
0
74
0
49
-6.35
74
0
0
LTYPE
5
3F
330
5
100
AcDbSymbolTableRecord
100
AcDbLinetypeTableRecord
2
BORDER2
70
0
3
Border (.5x) __.__.__.__.__.__.__.__.__.__.__.
72
65
73
6
40
22.225
49
6.35
74
0
49
-3.175
74
0
49
6.35
74
0
49
-3.175
74
0
49
0
74
0
49
-3.175
74
0
0
LTYPE
5
40
330
5
100
AcDbSymbolTableRecord
100
AcDbLinetypeTableRecord
2
BORDERX2
70
0
3
Border (2x) ____  ____  .  ____  ____  .  ___
72
65
73
6
40
88.9
49
25.4
74
0
49
-12.7
74
0
49
25.4
74
0
49
-12.7
74
0
49
0
74
0
49
-12.7
74
0
0
LTYPE
5
41
330
5
100
AcDbSymbolTableRecord
100
AcDbLinetypeTableRecord
2
CENTER
70
0
3
Center ____ _ ____ _ ____ _ ____ _ ____ _ ____
72
65
73
4
40
50.8
49
31.75
74
0
49
-6.35
74
0
49
6.35
74
0
49
-6.35
74
0
0
LTYPE
5
42
330
5
100
AcDbSymbolTableRecord
100
AcDbLinetypeTableRecord
2
CENTER2
70
0
3
Center (.5x) ___ _ ___ _ ___ _ ___ _ ___ _ ___
72
65
73
4
40
28.575
49
19.05
74
0
49
-3.175
74
0
49
3.175
74
0
49
-3.175
74
0
0
LTYPE
5
43
330
5
100
AcDbSymbolTableRecord
100
AcDbLinetypeTableRecord
2
CENTERX2
70
0
3
Center (2x) ________  __  ________  __  _____
72
65
73
4
40
101.6
49
63.5
74
0
49
-12.7
74
0
49
12.7
74
0
49
-12.7
74
0
0
ENDTAB
0
TABLE
2
LAYER
5
2
330
0
100
AcDbSymbolTable
70
1
0
LAYER
5
10
330
2
100
AcDbSymbolTableRecord
100
AcDbLayerTableRecord
2
0
70
0
62
7
6
CONTINUOUS
370
0
390
F
0
LAYER
5
44
330
2
100
AcDbSymbolTableRecord
100
AcDbLayerTableRecord
2
Text
70
0
62
7
6
CONTINUOUS
370
0
390
F
0
LAYER
5
45
330
2
100
AcDbSymbolTableRecord
100
AcDbLayerTableRecord
2
Holes
70
0
62
7
6
CONTINUOUS
370
0
390
F
0
LAYER
5
46
330
2
100
AcDbSymbolTableRecord
100
AcDbLayerTableRecord
2
Plates
70
0
62
7
6
CONTINUOUS
370
0
390
F
0
ENDTAB
0
TABLE
2
STYLE
5
3
330
0
100
AcDbSymbolTable
70
3
0
STYLE
5
47
330
2
100
AcDbSymbolTableRecord
100
AcDbTextStyleTableRecord
2
iso
70
0
40
0
41
1
50
0
71
0
42
1
3
iso
4

0
STYLE
5
48
330
2
100
AcDbSymbolTableRecord
100
AcDbTextStyleTableRecord
2
Standard
70
0
40
0
41
1
50
0
71
0
42
1
3
txt
4

0
ENDTAB
0
TABLE
2
VIEW
5
6
330
0
100
AcDbSymbolTable
70
0
0
ENDTAB
0
TABLE
2
UCS
5
7
330
0
100
AcDbSymbolTable
70
0
0
ENDTAB
0
TABLE
2
APPID
5
9
330
0
100
AcDbSymbolTable
70
1
0
APPID
5
12
330
9
100
AcDbSymbolTableRecord
100
AcDbRegAppTableRecord
2
ACAD
70
0
0
ENDTAB
0
TABLE
2
DIMSTYLE
5
A
330
0
100
AcDbSymbolTable
70
1
100
AcDbDimStyleTable
71
1
0
DIMSTYLE
105
49
330
A
100
AcDbSymbolTableRecord
100
AcDbDimStyleTableRecord
2
Standard
70
0
40
1
41
0.1
42
0.025
43
0.38
44
0.05
45
0
46
0
47
0
48
0
140
0.1
141
0.09
142
0
143
25.4
144
1
145
0
146
1
147
0.025
148
0
71
0
72
0
73
0
74
1
75
0
76
0
77
0
78
0
79
0
170
0
171
2
172
0
173
0
174
0
175
0
176
0
177
0
178
0
179
0
271
4
272
4
273
2
274
2
275
0
276
0
277
2
278
46
279
0
280
0
281
0
282
0
283
1
284
0
285
0
286
0
288
0
289
3
340
Standard
341

371
-2
372
-2
0
ENDTAB
0
TABLE
2
BLOCK_RECORD
5
1
330
0
100
AcDbSymbolTable
70
2
0
BLOCK_RECORD
5
1F
330
1
100
AcDbSymbolTableRecord
100
AcDbBlockTableRecord
2
*Model_Space
70
0
280
1
281
0
0
BLOCK_RECORD
5
1E
330
1
100
AcDbSymbolTableRecord
100
AcDbBlockTableRecord
2
*Paper_Space
70
0
280
1
281
0
0
ENDTAB
0
ENDSEC
0
SECTION
2
BLOCKS
0
BLOCK
5
20
330
1F
100
AcDbEntity
8
0
100
AcDbBlockBegin
2
*Model_Space
70
0
10
0
20
0
30
0
3
*Model_Space
1

0
ENDBLK
5
21
330
1F
100
AcDbEntity
8
0
100
AcDbBlockEnd
0
BLOCK
5
1C
330
1B
100
AcDbEntity
8
0
100
AcDbBlockBegin
2
*Paper_Space
70
0
10
0
20
0
30
0
3
*Paper_Space
1

0
ENDBLK
5
1D
330
1F
100
AcDbEntity
8
0
100
AcDbBlockEnd
0
ENDSEC
0
SECTION
2
ENTITIES
0
MTEXT
5
4A
100
AcDbEntity
8
Text
6
ByLayer
62
256
370
29
100
AcDbMText
10
-20
20
6.3
30
0
40
0.1
41
0.930555688642
71
1
72
1
1
Splint Cuisses\PPlate 10R\PSize L
7
iso
210
0
220
0
230
1
50
0
73
2
44
1
0
MTEXT
5
4B
100
AcDbEntity
8
Text
6
ByLayer
62
256
370
29
100
AcDbMText
10
-18.3
20
6.3
30
0
40
0.1
41
0.930555688642
71
1
72
1
1
Splint Cuisses\PPlate 09R\PSize L
7
iso
210
0
220
0
230
1
50
0
73
2
44
1
0
MTEXT
5
4C
100
AcDbEntity
8
Text
6
ByLayer
62
256
370
29
100
AcDbMText
10
-16.2
20
6.3
30
0
40
0.1
41
0.930555688642
71
1
72
1
1
Splint Cuisses\PPlate 08R\PSize L
7
iso
210
0
220
0
230
1
50
0
73
2
44
1
0
MTEXT
5
4D
100
AcDbEntity
8
Text
6
ByLayer
62
256
370
29
100
AcDbMText
10
-14.3
20
6.3
30
0
40
0.1
41
0.930555688642
71
1
72
1
1
Splint Cuisses\PPlate 07R\PSize L
7
iso
210
0
220
0
230
1
50
0
73
2
44
1
0
MTEXT
5
4E
100
AcDbEntity
8
Text
6
ByLayer
62
256
370
29
100
AcDbMText
10
-12.2
20
6.3
30
0
40
0.1
41
0.930555688642
71
1
72
1
1
Splint Cuisses\PPlate 06R\PSize L
7
iso
210
0
220
0
230
1
50
0
73
2
44
1
0
MTEXT
5
4F
100
AcDbEntity
8
Text
6
ByLayer
62
256
370
29
100
AcDbMText
10
-10.2
20
6.3
30
0
40
0.1
41
0.930555688642
71
1
72
1
1
Splint Cuisses\PPlate 05R\PSize L
7
iso
210
0
220
0
230
1
50
0
73
2
44
1
0
MTEXT
5
50
100
AcDbEntity
8
Text
6
ByLayer
62
256
370
29
100
AcDbMText
10
-8.1
20
6.3
30
0
40
0.1
41
0.930555688642
71
1
72
1
1
Splint Cuisses\PPlate 04R\PSize L
7
iso
210
0
220
0
230
1
50
0
73
2
44
1
0
MTEXT
5
51
100
AcDbEntity
8
Text
6
ByLayer
62
256
370
29
100
AcDbMText
10
-6.2
20
6.3
30
0
40
0.1
41
0.930555688642
71
1
72
1
1
Splint Cuisses\PPlate 03R\PSize L
7
iso
210
0
220
0
230
1
50
0
73
2
44
1
0
MTEXT
5
52
100
AcDbEntity
8
Text
6
ByLayer
62
256
370
29
100
AcDbMText
10
-4.5
20
6.3
30
0
40
0.1
41
0.930555688642
71
1
72
1
1
Splint Cuisses\PPlate 02R\PSize L
7
iso
210
0
220
0
230
1
50
0
73
2
44
1
0
MTEXT
5
53
100
AcDbEntity
8
Text
6
ByLayer
62
256
370
29
100
AcDbMText
10
-2.4
20
6.3
30
0
40
0.1
41
0.930555688642
71
1
72
1
1
Splint Cuisses\PPlate 01R\PSize L
7
iso
210
0
220
0
230
1
50
0
73
2
44
1
0
MTEXT
5
54
100
AcDbEntity
8
Text
6
ByLayer
62
256
370
29
100
AcDbMText
10
2.4
20
6.3
30
0
40
0.1
41
0.930555688642
71
3
72
1
1
Splint Cuisses\PPlate 01L\PSize L
7
iso
210
0
220
0
230
1
50
360
73
2
44
1
0
MTEXT
5
55
100
AcDbEntity
8
Text
6
ByLayer
62
256
370
29
100
AcDbMText
10
4.5
20
6.3
30
0
40
0.1
41
0.930555688642
71
3
72
1
1
Splint Cuisses\PPlate 02L\PSize L
7
iso
210
0
220
0
230
1
50
360
73
2
44
1
0
MTEXT
5
56
100
AcDbEntity
8
Text
6
ByLayer
62
256
370
29
100
AcDbMText
10
6.2
20
6.3
30
0
40
0.1
41
0.930555688642
71
3
72
1
1
Splint Cuisses\PPlate 03L\PSize L
7
iso
210
0
220
0
230
1
50
360
73
2
44
1
0
MTEXT
5
57
100
AcDbEntity
8
Text
6
ByLayer
62
256
370
29
100
AcDbMText
10
8.1
20
6.3
30
0
40
0.1
41
0.930555688642
71
3
72
1
1
Splint Cuisses\PPlate 04L\PSize L
7
iso
210
0
220
0
230
1
50
360
73
2
44
1
0
MTEXT
5
58
100
AcDbEntity
8
Text
6
ByLayer
62
256
370
29
100
AcDbMText
10
10.2
20
6.3
30
0
40
0.1
41
0.930555688642
71
3
72
1
1
Splint Cuisses\PPlate 05L\PSize L
7
iso
210
0
220
0
230
1
50
360
73
2
44
1
0
MTEXT
5
59
100
AcDbEntity
8
Text
6
ByLayer
62
256
370
29
100
AcDbMText
10
12.2
20
6.3
30
0
40
0.1
41
0.930555688642
71
3
72
1
1
Splint Cuisses\PPlate 06L\PSize L
7
iso
210
0
220
0
230
1
50
360
73
2
44
1
0
MTEXT
5
5A
100
AcDbEntity
8
Text
6
ByLayer
62
256
370
29
100
AcDbMText
10
14.3
20
6.3
30
0
40
0.1
41
0.930555688642
71
3
72
1
1
Splint Cuisses\PPlate 07L\PSize L
7
iso
210
0
220
0
230
1
50
360
73
2
44
1
0
MTEXT
5
5B
100
AcDbEntity
8
Text
6
ByLayer
62
256
370
29
100
AcDbMText
10
16.2
20
6.3
30
0
40
0.1
41
0.930555688642
71
3
72
1
1
Splint Cuisses\PPlate 08L\PSize L
7
iso
210
0
220
0
230
1
50
360
73
2
44
1
0
MTEXT
5
5C
100
AcDbEntity
8
Text
6
ByLayer
62
256
370
29
100
AcDbMText
10
18.3
20
6.3
30
0
40
0.1
41
0.930555688642
71
3
72
1
1
Splint Cuisses\PPlate 09L\PSize L
7
iso
210
0
220
0
230
1
50
360
73
2
44
1
0
MTEXT
5
5D
100
AcDbEntity
8
Text
6
ByLayer
62
256
370
29
100
AcDbMText
10
20
20
6.3
30
0
40
0.1
41
0.930555688642
71
3
72
1
1
Splint Cuisses\PPlate 10L\PSize L
7
iso
210
0
220
0
230
1
50
360
73
2
44
1
0
CIRCLE
5
5E
100
AcDbEntity
8
Holes
6
ByLayer
62
256
370
0
100
AcDbCircle
10
-6.8
20
12.53
40
0.073027392121
0
CIRCLE
5
5F
100
AcDbEntity
8
Holes
6
ByLayer
62
256
370
0
100
AcDbCircle
10
-7
20
1.13
40
0.073027392121
0
CIRCLE
5
60
100
AcDbEntity
8
Holes
6
ByLayer
62
256
370
0
100
AcDbCircle
10
-5
20
11.5
40
0.073027392121
0
CIRCLE
5
61
100
AcDbEntity
8
Holes
6
ByLayer
62
256
370
0
100
AcDbCircle
10
-5.05
20
10
40
0.073027392121
0
CIRCLE
5
62
100
AcDbEntity
8
Holes
6
ByLayer
62
256
370
0
100
AcDbCircle
10
-5.1
20
8.5
40
0.073027392121
0
CIRCLE
5
63
100
AcDbEntity
8
Holes
6
ByLayer
62
256
370
0
100
AcDbCircle
10
-5.15
20
7
40
0.073027392121
0
CIRCLE
5
64
100
AcDbEntity
8
Holes
6
ByLayer
62
256
370
0
100
AcDbCircle
10
-5.2
20
5.5
40
0.073027392121
0
CIRCLE
5
65
100
AcDbEntity
8
Holes
6
ByLayer
62
256
370
0
100
AcDbCircle
10
-5.25
20
4
40
0.073027392121
0
CIRCLE
5
66
100
AcDbEntity
8
Holes
6
ByLayer
62
256
370
0
100
AcDbCircle
10
-5.3
20
2.5
40
0.073027392121
0
CIRCLE
5
67
100
AcDbEntity
8
Holes
6
ByLayer
62
256
370
0
100
AcDbCircle
10
-5.4
20
1.5
40
0.073027392121
0
CIRCLE
5
68
100
AcDbEntity
8
Holes
6
ByLayer
62
256
370
0
100
AcDbCircle
10
-6.8
20
11.5
40
0.073027392121
0
CIRCLE
5
69
100
AcDbEntity
8
Holes
6
ByLayer
62
256
370
0
100
AcDbCircle
10
-6.82617860966
20
10.0002284573
40
0.073027392121
0
CIRCLE
5
6A
100
AcDbEntity
8
Holes
6
ByLayer
62
256
370
0
100
AcDbCircle
10
-6.85235721931
20
8.50045691453
40
0.073027392121
0
CIRCLE
5
6B
100
AcDbEntity
8
Holes
6
ByLayer
62
256
370
0
100
AcDbCircle
10
-6.87853582897
20
7.0006853718
40
0.073027392121
0
CIRCLE
5
6C
100
AcDbEntity
8
Holes
6
ByLayer
62
256
370
0
100
AcDbCircle
10
-6.90471443862
20
5.50091382906
40
0.073027392121
0
CIRCLE
5
6D
100
AcDbEntity
8
Holes
6
ByLayer
62
256
370
0
100
AcDbCircle
10
-6.93089304828
20
4.00114228633
40
0.073027392121
0
CIRCLE
5
6E
100
AcDbEntity
8
Holes
6
ByLayer
62
256
370
0
100
AcDbCircle
10
-6.95707165794
20
2.50137074359
40
0.073027392121
0
CIRCLE
5
6F
100
AcDbEntity
8
Holes
6
ByLayer
62
256
370
0
100
AcDbCircle
10
-8.4
20
11.5
40
0.073027392121
0
CIRCLE
5
70
100
AcDbEntity
8
Holes
6
ByLayer
62
256
370
0
100
AcDbCircle
10
-8.4
20
13.4
40
0.073027392121
0
CIRCLE
5
71
100
AcDbEntity
8
Holes
6
ByLayer
62
256
370
0
100
AcDbCircle
10
-8.4
20
10
40
0.073027392121
0
CIRCLE
5
72
100
AcDbEntity
8
Holes
6
ByLayer
62
256
370
0
100
AcDbCircle
10
-8.4
20
8.5
40
0.073027392121
0
CIRCLE
5
73
100
AcDbEntity
8
Holes
6
ByLayer
62
256
370
0
100
AcDbCircle
10
-8.4
20
7
40
0.073027392121
0
CIRCLE
5
74
100
AcDbEntity
8
Holes
6
ByLayer
62
256
370
0
100
AcDbCircle
10
-8.5
20
4
40
0.073027392121
0
CIRCLE
5
75
100
AcDbEntity
8
Holes
6
ByLayer
62
256
370
0
100
AcDbCircle
10
-8.45
20
5.5
40
0.073027392121
0
CIRCLE
5
76
100
AcDbEntity
8
Holes
6
ByLayer
62
256
370
0
100
AcDbCircle
10
-8.5
20
1.4
40
0.073027392121
0
CIRCLE
5
77
100
AcDbEntity
8
Holes
6
ByLayer
62
256
370
0
100
AcDbCircle
10
-8.49
20
2.5
40
0.073027392121
0
CIRCLE
5
78
100
AcDbEntity
8
Holes
6
ByLayer
62
256
370
0
100
AcDbCircle
10
-2.8
20
9.8
40
0.073027392121
0
CIRCLE
5
79
100
AcDbEntity
8
Holes
6
ByLayer
62
256
370
0
100
AcDbCircle
10
-2.95
20
8.5
40
0.073027392121
0
CIRCLE
5
7A
100
AcDbEntity
8
Holes
6
ByLayer
62
256
370
0
100
AcDbCircle
10
-3.1
20
7
40
0.073027392121
0
CIRCLE
5
7B
100
AcDbEntity
8
Holes
6
ByLayer
62
256
370
0
100
AcDbCircle
10
-3.51
20
2.5
40
0.073027392121
0
CIRCLE
5
7C
100
AcDbEntity
8
Holes
6
ByLayer
62
256
370
0
100
AcDbCircle
10
-3.37
20
4
40
0.073027392121
0
CIRCLE
5
7D
100
AcDbEntity
8
Holes
6
ByLayer
62
256
370
0
100
AcDbCircle
10
-3.22
20
5.5
40
0.073027392121
0
CIRCLE
5
7E
100
AcDbEntity
8
Holes
6
ByLayer
62
256
370
0
100
AcDbCircle
10
-1
20
7.8
40
0.073027392121
0
CIRCLE
5
7F
100
AcDbEntity
8
Holes
6
ByLayer
62
256
370
0
100
AcDbCircle
10
-1.06
20
7
40
0.073027392121
0
CIRCLE
5
80
100
AcDbEntity
8
Holes
6
ByLayer
62
256
370
0
100
AcDbCircle
10
-1.3
20
5.5
40
0.073027392121
0
CIRCLE
5
81
100
AcDbEntity
8
Holes
6
ByLayer
62
256
370
0
100
AcDbCircle
10
-1.5
20
4
40
0.073027392121
0
CIRCLE
5
82
100
AcDbEntity
8
Holes
6
ByLayer
62
256
370
0
100
AcDbCircle
10
-1.6
20
3
40
0.073027392121
0
CIRCLE
5
83
100
AcDbEntity
8
Holes
6
ByLayer
62
256
370
0
100
AcDbCircle
10
-10.5
20
14.2
40
0.073027392121
0
CIRCLE
5
84
100
AcDbEntity
8
Holes
6
ByLayer
62
256
370
0
100
AcDbCircle
10
-10.5
20
11.5
40
0.073027392121
0
CIRCLE
5
85
100
AcDbEntity
8
Holes
6
ByLayer
62
256
370
0
100
AcDbCircle
10
-10.5
20
13
40
0.073027392121
0
CIRCLE
5
86
100
AcDbEntity
8
Holes
6
ByLayer
62
256
370
0
100
AcDbCircle
10
-10.5
20
10
40
0.073027392121
0
CIRCLE
5
87
100
AcDbEntity
8
Holes
6
ByLayer
62
256
370
0
100
AcDbCircle
10
-10.5
20
8.5
40
0.073027392121
0
CIRCLE
5
88
100
AcDbEntity
8
Holes
6
ByLayer
62
256
370
0
100
AcDbCircle
10
-10.5
20
7
40
0.073027392121
0
CIRCLE
5
89
100
AcDbEntity
8
Holes
6
ByLayer
62
256
370
0
100
AcDbCircle
10
-10.5
20
5.5
40
0.073027392121
0
CIRCLE
5
8A
100
AcDbEntity
8
Holes
6
ByLayer
62
256
370
0
100
AcDbCircle
10
-10.5
20
4
40
0.073027392121
0
CIRCLE
5
8B
100
AcDbEntity
8
Holes
6
ByLayer
62
256
370
0
100
AcDbCircle
10
-10.5
20
2.5
40
0.073027392121
0
CIRCLE
5
8C
100
AcDbEntity
8
Holes
6
ByLayer
62
256
370
0
100
AcDbCircle
10
-10.5
20
1.9
40
0.073027392121
0
CIRCLE
5
8D
100
AcDbEntity
8
Holes
6
ByLayer
62
256
370
0
100
AcDbCircle
10
-12.45
20
14.5
40
0.073027392121
0
CIRCLE
5
8E
100
AcDbEntity
8
Holes
6
ByLayer
62
256
370
0
100
AcDbCircle
10
-12.5
20
13
40
0.073027392121
0
CIRCLE
5
8F
100
AcDbEntity
8
Holes
6
ByLayer
62
256
370
0
100
AcDbCircle
10
-12.5
20
11.5
40
0.073027392121
0
CIRCLE
5
90
100
AcDbEntity
8
Holes
6
ByLayer
62
256
370
0
100
AcDbCircle
10
-12.5
20
10
40
0.073027392121
0
CIRCLE
5
91
100
AcDbEntity
8
Holes
6
ByLayer
62
256
370
0
100
AcDbCircle
10
-12.5
20
8.5
40
0.073027392121
0
CIRCLE
5
92
100
AcDbEntity
8
Holes
6
ByLayer
62
256
370
0
100
AcDbCircle
10
-12.6
20
2.5
40
0.073027392121
0
CIRCLE
5
93
100
AcDbEntity
8
Holes
6
ByLayer
62
256
370
0
100
AcDbCircle
10
-12.6
20
4
40
0.073027392121
0
CIRCLE
5
94
100
AcDbEntity
8
Holes
6
ByLayer
62
256
370
0
100
AcDbCircle
10
-12.55
20
7
40
0.073027392121
0
CIRCLE
5
95
100
AcDbEntity
8
Holes
6
ByLayer
62
256
370
0
100
AcDbCircle
10
-12.61
20
5.5
40
0.073027392121
0
CIRCLE
5
96
100
AcDbEntity
8
Holes
6
ByLayer
62
256
370
0
100
AcDbCircle
10
-14.43
20
14.6
40
0.073027392121
0
CIRCLE
5
97
100
AcDbEntity
8
Holes
6
ByLayer
62
256
370
0
100
AcDbCircle
10
-14.45
20
13
40
0.073027392121
0
CIRCLE
5
98
100
AcDbEntity
8
Holes
6
ByLayer
62
256
370
0
100
AcDbCircle
10
-14.45
20
11.5
40
0.073027392121
0
CIRCLE
5
99
100
AcDbEntity
8
Holes
6
ByLayer
62
256
370
0
100
AcDbCircle
10
-14.45
20
10
40
0.073027392121
0
CIRCLE
5
9A
100
AcDbEntity
8
Holes
6
ByLayer
62
256
370
0
100
AcDbCircle
10
-14.45
20
8.5
40
0.073027392121
0
CIRCLE
5
9B
100
AcDbEntity
8
Holes
6
ByLayer
62
256
370
0
100
AcDbCircle
10
-14.5
20
3.2
40
0.073027392121
0
CIRCLE
5
9C
100
AcDbEntity
8
Holes
6
ByLayer
62
256
370
0
100
AcDbCircle
10
-14.49
20
7
40
0.073027392121
0
CIRCLE
5
9D
100
AcDbEntity
8
Holes
6
ByLayer
62
256
370
0
100
AcDbCircle
10
-16.96
20
13.71
40
0.073027392121
0
CIRCLE
5
9E
100
AcDbEntity
8
Holes
6
ByLayer
62
256
370
0
100
AcDbCircle
10
-16.92
20
13
40
0.073027392121
0
CIRCLE
5
9F
100
AcDbEntity
8
Holes
6
ByLayer
62
256
370
0
100
AcDbCircle
10
-16.84
20
11.5
40
0.073027392121
0
CIRCLE
5
A0
100
AcDbEntity
8
Holes
6
ByLayer
62
256
370
0
100
AcDbCircle
10
-16.76
20
10
40
0.073027392121
0
CIRCLE
5
A1
100
AcDbEntity
8
Holes
6
ByLayer
62
256
370
0
100
AcDbCircle
10
-16.68
20
8.5
40
0.073027392121
0
CIRCLE
5
A2
100
AcDbEntity
8
Holes
6
ByLayer
62
256
370
0
100
AcDbCircle
10
-16.6
20
7
40
0.073027392121
0
CIRCLE
5
A3
100
AcDbEntity
8
Holes
6
ByLayer
62
256
370
0
100
AcDbCircle
10
-16.52
20
5.5
40
0.073027392121
0
CIRCLE
5
A4
100
AcDbEntity
8
Holes
6
ByLayer
62
256
370
0
100
AcDbCircle
10
-16.44
20
4
40
0.073027392121
0
CIRCLE
5
A5
100
AcDbEntity
8
Holes
6
ByLayer
62
256
370
0
100
AcDbCircle
10
-14.5
20
5.5
40
0.073027392121
0
CIRCLE
5
A6
100
AcDbEntity
8
Holes
6
ByLayer
62
256
370
0
100
AcDbCircle
10
-14.46
20
4
40
0.073027392121
0
CIRCLE
5
A7
100
AcDbEntity
8
Holes
6
ByLayer
62
256
370
0
100
AcDbCircle
10
-19.55
20
11.4
40
0.073027392121
0
CIRCLE
5
A8
100
AcDbEntity
8
Holes
6
ByLayer
62
256
370
0
100
AcDbCircle
10
-19.3
20
10
40
0.073027392121
0
CIRCLE
5
A9
100
AcDbEntity
8
Holes
6
ByLayer
62
256
370
0
100
AcDbCircle
10
-18.97
20
8.5
40
0.073027392121
0
CIRCLE
5
AA
100
AcDbEntity
8
Holes
6
ByLayer
62
256
370
0
100
AcDbCircle
10
-18.64
20
7
40
0.073027392121
0
CIRCLE
5
AB
100
AcDbEntity
8
Holes
6
ByLayer
62
256
370
0
100
AcDbCircle
10
-18.31
20
5.5
40
0.073027392121
0
CIRCLE
5
AC
100
AcDbEntity
8
Holes
6
ByLayer
62
256
370
0
100
AcDbCircle
10
-18.07
20
4.24
40
0.073027392121
0
CIRCLE
5
AD
100
AcDbEntity
8
Holes
6
ByLayer
62
256
370
0
100
AcDbCircle
10
-20.7
20
8.5
40
0.073027392121
0
CIRCLE
5
AE
100
AcDbEntity
8
Holes
6
ByLayer
62
256
370
0
100
AcDbCircle
10
-21
20
9.4
40
0.073027392121
0
CIRCLE
5
AF
100
AcDbEntity
8
Holes
6
ByLayer
62
256
370
0
100
AcDbCircle
10
-20.2
20
7
40
0.073027392121
0
CIRCLE
5
B0
100
AcDbEntity
8
Holes
6
ByLayer
62
256
370
0
100
AcDbCircle
10
-19.8
20
5.5
40
0.073027392121
0
CIRCLE
5
B1
100
AcDbEntity
8
Holes
6
ByLayer
62
256
370
0
100
AcDbCircle
10
-19.6
20
4.7
40
0.073027392121
0
CIRCLE
5
B2
100
AcDbEntity
8
Holes
6
ByLayer
62
256
370
0
100
AcDbCircle
10
-7.3
20
12.2
40
0.15
0
CIRCLE
5
B3
100
AcDbEntity
8
Holes
6
ByLayer
62
256
370
0
100
AcDbCircle
10
-8
20
12.2
40
0.15
0
CIRCLE
5
B4
100
AcDbEntity
8
Holes
6
ByLayer
62
256
370
0
100
AcDbCircle
10
-7.7
20
3.2
40
0.0652763356815
0
CIRCLE
5
B5
100
AcDbEntity
8
Holes
6
ByLayer
62
256
370
0
100
AcDbCircle
10
6.8
20
12.53
40
0.073027392121
0
CIRCLE
5
B6
100
AcDbEntity
8
Holes
6
ByLayer
62
256
370
0
100
AcDbCircle
10
7
20
1.13
40
0.073027392121
0
CIRCLE
5
B7
100
AcDbEntity
8
Holes
6
ByLayer
62
256
370
0
100
AcDbCircle
10
5
20
11.5
40
0.073027392121
0
CIRCLE
5
B8
100
AcDbEntity
8
Holes
6
ByLayer
62
256
370
0
100
AcDbCircle
10
5.05
20
10
40
0.073027392121
0
CIRCLE
5
B9
100
AcDbEntity
8
Holes
6
ByLayer
62
256
370
0
100
AcDbCircle
10
5.1
20
8.5
40
0.073027392121
0
CIRCLE
5
BA
100
AcDbEntity
8
Holes
6
ByLayer
62
256
370
0
100
AcDbCircle
10
5.15
20
7
40
0.073027392121
0
CIRCLE
5
BB
100
AcDbEntity
8
Holes
6
ByLayer
62
256
370
0
100
AcDbCircle
10
5.2
20
5.5
40
0.073027392121
0
CIRCLE
5
BC
100
AcDbEntity
8
Holes
6
ByLayer
62
256
370
0
100
AcDbCircle
10
5.25
20
4
40
0.073027392121
0
CIRCLE
5
BD
100
AcDbEntity
8
Holes
6
ByLayer
62
256
370
0
100
AcDbCircle
10
5.3
20
2.5
40
0.073027392121
0
CIRCLE
5
BE
100
AcDbEntity
8
Holes
6
ByLayer
62
256
370
0
100
AcDbCircle
10
5.4
20
1.5
40
0.073027392121
0
CIRCLE
5
BF
100
AcDbEntity
8
Holes
6
ByLayer
62
256
370
0
100
AcDbCircle
10
6.8
20
11.5
40
0.073027392121
0
CIRCLE
5
C0
100
AcDbEntity
8
Holes
6
ByLayer
62
256
370
0
100
AcDbCircle
10
6.82617860966
20
10.0002284573
40
0.073027392121
0
CIRCLE
5
C1
100
AcDbEntity
8
Holes
6
ByLayer
62
256
370
0
100
AcDbCircle
10
6.85235721931
20
8.50045691453
40
0.073027392121
0
CIRCLE
5
C2
100
AcDbEntity
8
Holes
6
ByLayer
62
256
370
0
100
AcDbCircle
10
6.87853582897
20
7.0006853718
40
0.073027392121
0
CIRCLE
5
C3
100
AcDbEntity
8
Holes
6
ByLayer
62
256
370
0
100
AcDbCircle
10
6.90471443862
20
5.50091382906
40
0.073027392121
0
CIRCLE
5
C4
100
AcDbEntity
8
Holes
6
ByLayer
62
256
370
0
100
AcDbCircle
10
6.93089304828
20
4.00114228633
40
0.073027392121
0
CIRCLE
5
C5
100
AcDbEntity
8
Holes
6
ByLayer
62
256
370
0
100
AcDbCircle
10
6.95707165794
20
2.50137074359
40
0.073027392121
0
CIRCLE
5
C6
100
AcDbEntity
8
Holes
6
ByLayer
62
256
370
0
100
AcDbCircle
10
8.4
20
11.5
40
0.073027392121
0
CIRCLE
5
C7
100
AcDbEntity
8
Holes
6
ByLayer
62
256
370
0
100
AcDbCircle
10
8.4
20
13.4
40
0.073027392121
0
CIRCLE
5
C8
100
AcDbEntity
8
Holes
6
ByLayer
62
256
370
0
100
AcDbCircle
10
8.4
20
10
40
0.073027392121
0
CIRCLE
5
C9
100
AcDbEntity
8
Holes
6
ByLayer
62
256
370
0
100
AcDbCircle
10
8.4
20
8.5
40
0.073027392121
0
CIRCLE
5
CA
100
AcDbEntity
8
Holes
6
ByLayer
62
256
370
0
100
AcDbCircle
10
8.4
20
7
40
0.073027392121
0
CIRCLE
5
CB
100
AcDbEntity
8
Holes
6
ByLayer
62
256
370
0
100
AcDbCircle
10
8.5
20
4
40
0.073027392121
0
CIRCLE
5
CC
100
AcDbEntity
8
Holes
6
ByLayer
62
256
370
0
100
AcDbCircle
10
8.45
20
5.5
40
0.073027392121
0
CIRCLE
5
CD
100
AcDbEntity
8
Holes
6
ByLayer
62
256
370
0
100
AcDbCircle
10
8.5
20
1.4
40
0.073027392121
0
CIRCLE
5
CE
100
AcDbEntity
8
Holes
6
ByLayer
62
256
370
0
100
AcDbCircle
10
8.49
20
2.5
40
0.073027392121
0
CIRCLE
5
CF
100
AcDbEntity
8
Holes
6
ByLayer
62
256
370
0
100
AcDbCircle
10
2.8
20
9.8
40
0.073027392121
0
CIRCLE
5
D0
100
AcDbEntity
8
Holes
6
ByLayer
62
256
370
0
100
AcDbCircle
10
2.95
20
8.5
40
0.073027392121
0
CIRCLE
5
D1
100
AcDbEntity
8
Holes
6
ByLayer
62
256
370
0
100
AcDbCircle
10
3.1
20
7
40
0.073027392121
0
CIRCLE
5
D2
100
AcDbEntity
8
Holes
6
ByLayer
62
256
370
0
100
AcDbCircle
10
3.51
20
2.5
40
0.073027392121
0
CIRCLE
5
D3
100
AcDbEntity
8
Holes
6
ByLayer
62
256
370
0
100
AcDbCircle
10
3.37
20
4
40
0.073027392121
0
CIRCLE
5
D4
100
AcDbEntity
8
Holes
6
ByLayer
62
256
370
0
100
AcDbCircle
10
3.22
20
5.5
40
0.073027392121
0
CIRCLE
5
D5
100
AcDbEntity
8
Holes
6
ByLayer
62
256
370
0
100
AcDbCircle
10
1
20
7.8
40
0.073027392121
0
CIRCLE
5
D6
100
AcDbEntity
8
Holes
6
ByLayer
62
256
370
0
100
AcDbCircle
10
1.06
20
7
40
0.073027392121
0
CIRCLE
5
D7
100
AcDbEntity
8
Holes
6
ByLayer
62
256
370
0
100
AcDbCircle
10
1.3
20
5.5
40
0.073027392121
0
CIRCLE
5
D8
100
AcDbEntity
8
Holes
6
ByLayer
62
256
370
0
100
AcDbCircle
10
1.5
20
4
40
0.073027392121
0
CIRCLE
5
D9
100
AcDbEntity
8
Holes
6
ByLayer
62
256
370
0
100
AcDbCircle
10
1.6
20
3
40
0.073027392121
0
CIRCLE
5
DA
100
AcDbEntity
8
Holes
6
ByLayer
62
256
370
0
100
AcDbCircle
10
10.5
20
14.2
40
0.073027392121
0
CIRCLE
5
DB
100
AcDbEntity
8
Holes
6
ByLayer
62
256
370
0
100
AcDbCircle
10
10.5
20
11.5
40
0.073027392121
0
CIRCLE
5
DC
100
AcDbEntity
8
Holes
6
ByLayer
62
256
370
0
100
AcDbCircle
10
10.5
20
13
40
0.073027392121
0
CIRCLE
5
DD
100
AcDbEntity
8
Holes
6
ByLayer
62
256
370
0
100
AcDbCircle
10
10.5
20
10
40
0.073027392121
0
CIRCLE
5
DE
100
AcDbEntity
8
Holes
6
ByLayer
62
256
370
0
100
AcDbCircle
10
10.5
20
8.5
40
0.073027392121
0
CIRCLE
5
DF
100
AcDbEntity
8
Holes
6
ByLayer
62
256
370
0
100
AcDbCircle
10
10.5
20
7
40
0.073027392121
0
CIRCLE
5
E0
100
AcDbEntity
8
Holes
6
ByLayer
62
256
370
0
100
AcDbCircle
10
10.5
20
5.5
40
0.073027392121
0
CIRCLE
5
E1
100
AcDbEntity
8
Holes
6
ByLayer
62
256
370
0
100
AcDbCircle
10
10.5
20
4
40
0.073027392121
0
CIRCLE
5
E2
100
AcDbEntity
8
Holes
6
ByLayer
62
256
370
0
100
AcDbCircle
10
10.5
20
2.5
40
0.073027392121
0
CIRCLE
5
E3
100
AcDbEntity
8
Holes
6
ByLayer
62
256
370
0
100
AcDbCircle
10
10.5
20
1.9
40
0.073027392121
0
CIRCLE
5
E4
100
AcDbEntity
8
Holes
6
ByLayer
62
256
370
0
100
AcDbCircle
10
12.45
20
14.5
40
0.073027392121
0
CIRCLE
5
E5
100
AcDbEntity
8
Holes
6
ByLayer
62
256
370
0
100
AcDbCircle
10
12.5
20
13
40
0.073027392121
0
CIRCLE
5
E6
100
AcDbEntity
8
Holes
6
ByLayer
62
256
370
0
100
AcDbCircle
10
12.5
20
11.5
40
0.073027392121
0
CIRCLE
5
E7
100
AcDbEntity
8
Holes
6
ByLayer
62
256
370
0
100
AcDbCircle
10
12.5
20
10
40
0.073027392121
0
CIRCLE
5
E8
100
AcDbEntity
8
Holes
6
ByLayer
62
256
370
0
100
AcDbCircle
10
12.5
20
8.5
40
0.073027392121
0
CIRCLE
5
E9
100
AcDbEntity
8
Holes
6
ByLayer
62
256
370
0
100
AcDbCircle
10
12.6
20
2.5
40
0.073027392121
0
CIRCLE
5
EA
100
AcDbEntity
8
Holes
6
ByLayer
62
256
370
0
100
AcDbCircle
10
12.6
20
4
40
0.073027392121
0
CIRCLE
5
EB
100
AcDbEntity
8
Holes
6
ByLayer
62
256
370
0
100
AcDbCircle
10
12.55
20
7
40
0.073027392121
0
CIRCLE
5
EC
100
AcDbEntity
8
Holes
6
ByLayer
62
256
370
0
100
AcDbCircle
10
12.61
20
5.5
40
0.073027392121
0
CIRCLE
5
ED
100
AcDbEntity
8
Holes
6
ByLayer
62
256
370
0
100
AcDbCircle
10
14.43
20
14.6
40
0.073027392121
0
CIRCLE
5
EE
100
AcDbEntity
8
Holes
6
ByLayer
62
256
370
0
100
AcDbCircle
10
14.45
20
13
40
0.073027392121
0
CIRCLE
5
EF
100
AcDbEntity
8
Holes
6
ByLayer
62
256
370
0
100
AcDbCircle
10
14.45
20
11.5
40
0.073027392121
0
CIRCLE
5
F0
100
AcDbEntity
8
Holes
6
ByLayer
62
256
370
0
100
AcDbCircle
10
14.45
20
10
40
0.073027392121
0
CIRCLE
5
F1
100
AcDbEntity
8
Holes
6
ByLayer
62
256
370
0
100
AcDbCircle
10
14.45
20
8.5
40
0.073027392121
0
CIRCLE
5
F2
100
AcDbEntity
8
Holes
6
ByLayer
62
256
370
0
100
AcDbCircle
10
14.5
20
3.2
40
0.073027392121
0
CIRCLE
5
F3
100
AcDbEntity
8
Holes
6
ByLayer
62
256
370
0
100
AcDbCircle
10
14.49
20
7
40
0.073027392121
0
CIRCLE
5
F4
100
AcDbEntity
8
Holes
6
ByLayer
62
256
370
0
100
AcDbCircle
10
16.96
20
13.71
40
0.073027392121
0
CIRCLE
5
F5
100
AcDbEntity
8
Holes
6
ByLayer
62
256
370
0
100
AcDbCircle
10
16.92
20
13
40
0.073027392121
0
CIRCLE
5
F6
100
AcDbEntity
8
Holes
6
ByLayer
62
256
370
0
100
AcDbCircle
10
16.84
20
11.5
40
0.073027392121
0
CIRCLE
5
F7
100
AcDbEntity
8
Holes
6
ByLayer
62
256
370
0
100
AcDbCircle
10
16.76
20
10
40
0.073027392121
0
CIRCLE
5
F8
100
AcDbEntity
8
Holes
6
ByLayer
62
256
370
0
100
AcDbCircle
10
16.68
20
8.5
40
0.073027392121
0
CIRCLE
5
F9
100
AcDbEntity
8
Holes
6
ByLayer
62
256
370
0
100
AcDbCircle
10
16.6
20
7
40
0.073027392121
0
CIRCLE
5
FA
100
AcDbEntity
8
Holes
6
ByLayer
62
256
370
0
100
AcDbCircle
10
16.52
20
5.5
40
0.073027392121
0
CIRCLE
5
FB
100
AcDbEntity
8
Holes
6
ByLayer
62
256
370
0
100
AcDbCircle
10
16.44
20
4
40
0.073027392121
0
CIRCLE
5
FC
100
AcDbEntity
8
Holes
6
ByLayer
62
256
370
0
100
AcDbCircle
10
14.5
20
5.5
40
0.073027392121
0
CIRCLE
5
FD
100
AcDbEntity
8
Holes
6
ByLayer
62
256
370
0
100
AcDbCircle
10
14.46
20
4
40
0.073027392121
0
CIRCLE
5
FE
100
AcDbEntity
8
Holes
6
ByLayer
62
256
370
0
100
AcDbCircle
10
19.55
20
11.4
40
0.073027392121
0
CIRCLE
5
FF
100
AcDbEntity
8
Holes
6
ByLayer
62
256
370
0
100
AcDbCircle
10
19.3
20
10
40
0.073027392121
0
CIRCLE
5
100
100
AcDbEntity
8
Holes
6
ByLayer
62
256
370
0
100
AcDbCircle
10
18.97
20
8.5
40
0.073027392121
0
CIRCLE
5
101
100
AcDbEntity
8
Holes
6
ByLayer
62
256
370
0
100
AcDbCircle
10
18.64
20
7
40
0.073027392121
0
CIRCLE
5
102
100
AcDbEntity
8
Holes
6
ByLayer
62
256
370
0
100
AcDbCircle
10
18.31
20
5.5
40
0.073027392121
0
CIRCLE
5
103
100
AcDbEntity
8
Holes
6
ByLayer
62
256
370
0
100
AcDbCircle
10
18.07
20
4.24
40
0.073027392121
0
CIRCLE
5
104
100
AcDbEntity
8
Holes
6
ByLayer
62
256
370
0
100
AcDbCircle
10
20.7
20
8.5
40
0.073027392121
0
CIRCLE
5
105
100
AcDbEntity
8
Holes
6
ByLayer
62
256
370
0
100
AcDbCircle
10
21
20
9.4
40
0.073027392121
0
CIRCLE
5
106
100
AcDbEntity
8
Holes
6
ByLayer
62
256
370
0
100
AcDbCircle
10
20.2
20
7
40
0.073027392121
0
CIRCLE
5
107
100
AcDbEntity
8
Holes
6
ByLayer
62
256
370
0
100
AcDbCircle
10
19.8
20
5.5
40
0.073027392121
0
CIRCLE
5
108
100
AcDbEntity
8
Holes
6
ByLayer
62
256
370
0
100
AcDbCircle
10
19.6
20
4.7
40
0.073027392121
0
CIRCLE
5
109
100
AcDbEntity
8
Holes
6
ByLayer
62
256
370
0
100
AcDbCircle
10
7.3
20
12.2
40
0.15
0
CIRCLE
5
10A
100
AcDbEntity
8
Holes
6
ByLayer
62
256
370
0
100
AcDbCircle
10
8
20
12.2
40
0.15
0
CIRCLE
5
10B
100
AcDbEntity
8
Holes
6
ByLayer
62
256
370
0
100
AcDbCircle
10
7.7
20
3.2
40
0.0652763356815
0
ARC
5
10C
100
AcDbEntity
8
Plates
6
ByLayer
62
256
370
0
100
AcDbCircle
10
-19.7788094221
20
9.3439819752
40
1.52488503722
100
AcDbArc
50
148.572030383
51
191.039111801
0
LINE
5
10D
100
AcDbEntity
8
Plates
6
ByLayer
62
256
370
0
100
AcDbLine
10
-21.2754790583
20
9.051998454
11
-19.9592105108
21
4.82117854405
0
ARC
5
10E
100
AcDbEntity
8
Plates
6
ByLayer
62
256
370
0
100
AcDbCircle
10
-18.9253429986
20
5.23105179723
40
1.11215022202
100
AcDbArc
50
201.625681609
51
255.98790378
0
ARC
5
10F
100
AcDbEntity
8
Plates
6
ByLayer
62
256
370
0
100
AcDbCircle
10
-1.87777773961
20
3.15895256926
40
0.673280216552
100
AcDbArc
50
287.947172325
51
344.733211167
0
LINE
5
110
100
AcDbEntity
8
Plates
6
ByLayer
62
256
370
0
100
AcDbLine
10
-1.22825744126
20
2.98166852592
11
-0.613407535603
21
7.48521819185
0
ARC
5
111
100
AcDbEntity
8
Plates
6
ByLayer
62
256
370
0
100
AcDbCircle
10
-1.8749045839
20
7.63741358137
40
1.27064481247
100
AcDbArc
50
353.120705171
51
48.2666941481
0
ARC
5
112
100
AcDbEntity
8
Plates
6
ByLayer
62
256
370
0
100
AcDbCircle
10
-12.0025801934
20
-1.17106198758
40
14.683691117
100
AcDbArc
50
41.6407578285
51
48.3192413642
0
ARC
5
113
100
AcDbEntity
8
Plates
6
ByLayer
62
256
370
0
100
AcDbCircle
10
-13.4102958828
20
-2.20463656158
40
16.3939445242
100
AcDbArc
50
48.7943292977
51
56.6543820731
0
ARC
5
114
100
AcDbEntity
8
Plates
6
ByLayer
62
256
370
0
100
AcDbCircle
10
-4.45942926597
20
11.3737475122
40
0.131470917226
100
AcDbArc
50
62.5083133158
51
165.600894882
0
ARC
5
115
100
AcDbEntity
8
Plates
6
ByLayer
62
256
370
0
100
AcDbCircle
10
-4.98411278552
20
11.4145641403
40
0.397425516821
100
AcDbArc
50
358.828828479
51
50.2487360404
0
ARC
5
116
100
AcDbEntity
8
Plates
6
ByLayer
62
256
370
0
100
AcDbCircle
10
-8.63389542032
20
13.7074727825
40
0.178289624159
100
AcDbArc
50
67.9509690279
51
155.179133326
0
ARC
5
117
100
AcDbEntity
8
Plates
6
ByLayer
62
256
370
0
100
AcDbCircle
10
-9.23699652318
20
13.6997364225
40
0.448941301999
100
AcDbArc
50
10.5994668573
51
58.2018544696
0
ARC
5
118
100
AcDbEntity
8
Plates
6
ByLayer
62
256
370
0
100
AcDbCircle
10
-11.7991106429
20
7.67232593598
40
6.99338784396
100
AcDbArc
50
66.4100315869
51
80.165023791
0
ARC
5
119
100
AcDbEntity
8
Plates
6
ByLayer
62
256
370
0
100
AcDbCircle
10
-15.3321287512
20
-7.44057351443
40
22.494051802
100
AcDbArc
50
79.024138851
51
83.1100686046
0
ARC
5
11A
100
AcDbEntity
8
Plates
6
ByLayer
62
256
370
0
100
AcDbCircle
10
-12.6560171566
20
14.7081558015
40
0.184238328843
100
AcDbArc
50
83.0390451153
51
170.601294645
0
ARC
5
11B
100
AcDbEntity
8
Plates
6
ByLayer
62
256
370
0
100
AcDbCircle
10
-13.0727960154
20
14.7100997862
40
0.236692820093
100
AcDbArc
50
6.82863105319
51
69.8982148636
0
ARC
5
11C
100
AcDbEntity
8
Plates
6
ByLayer
62
256
370
0
100
AcDbCircle
10
-14.4144327574
20
9.9754419398
40
4.97300847634
100
AcDbArc
50
97.1237989313
51
110.672694899
0
ARC
5
11D
100
AcDbEntity
8
Plates
6
ByLayer
62
256
370
0
100
AcDbCircle
10
-13.9147551301
20
6.6029384734
40
8.38045318002
100
AcDbArc
50
83.674655557
51
94.7981340411
0
ARC
5
11E
100
AcDbEntity
8
Plates
6
ByLayer
62
256
370
0
100
AcDbCircle
10
-12.2788948617
20
7.18579300102
40
8.39828851612
100
AcDbArc
50
117.602004346
51
126.137790946
0
ARC
5
11F
100
AcDbEntity
8
Plates
6
ByLayer
62
256
370
0
100
AcDbCircle
10
-16.9236588735
20
13.6803245115
40
0.421593424551
100
AcDbArc
50
136.923874795
51
187.326122086
0
ARC
5
120
100
AcDbEntity
8
Plates
6
ByLayer
62
256
370
0
100
AcDbCircle
10
-17.4705685204
20
13.6177527235
40
0.129059094991
100
AcDbArc
50
3.91492695715
51
130.784824603
0
ARC
5
121
100
AcDbEntity
8
Plates
6
ByLayer
62
256
370
0
100
AcDbCircle
10
0.0510604931828
20
-7.34297451132
40
27.4486257018
100
AcDbArc
50
129.897339451
51
136.375377286
0
LINE
5
122
100
AcDbEntity
8
Plates
6
ByLayer
62
256
370
0
100
AcDbLine
10
-21.0799882715
20
10.1390970477
11
-20.0844303118
21
11.3067718092
0
ARC
5
123
100
AcDbEntity
8
Plates
6
ByLayer
62
256
370
0
100
AcDbCircle
10
-8.97006650178
20
18.0713323714
40
17.1807759574
100
AcDbArc
50
290.651528465
51
295.143013597
0
LINE
5
124
100
AcDbEntity
8
Plates
6
ByLayer
62
256
370
0
100
AcDbLine
10
-4.94416752267
20
1.46977823002
11
-4.58677029322
21
11.4064410109
0
ARC
5
125
100
AcDbEntity
8
Plates
6
ByLayer
62
256
370
0
100
AcDbCircle
10
-9.6564320649
20
16.1827163176
40
15.6839033817
100
AcDbArc
50
288.470955641
51
293.553796183
0
ARC
5
126
100
AcDbEntity
8
Plates
6
ByLayer
62
256
370
0
100
AcDbCircle
10
-4.7449306823
20
1.49988998859
40
0.201499470383
100
AcDbArc
50
188.594382463
51
286.590466661
0
ARC
5
127
100
AcDbEntity
8
Plates
6
ByLayer
62
256
370
0
100
AcDbCircle
10
-5.21918386466
20
1.42501550405
40
0.278635406936
100
AcDbArc
50
290.525714546
51
9.2446156817
0
LINE
5
128
100
AcDbEntity
8
Plates
6
ByLayer
62
256
370
0
100
AcDbLine
10
-8.79571547932
20
13.7823156751
11
-8.89021393828
21
1.34321723349
0
ARC
5
129
100
AcDbEntity
8
Plates
6
ByLayer
62
256
370
0
100
AcDbCircle
10
-9.14491277447
20
1.43727965976
40
0.271512867448
100
AcDbArc
50
265.406797013
51
339.730387045
0
ARC
5
12A
100
AcDbEntity
8
Plates
6
ByLayer
62
256
370
0
100
AcDbCircle
10
-8.51295160407
20
1.39815440271
40
0.38124134269
100
AcDbArc
50
188.28520997
51
249.631536678
0
LINE
5
12B
100
AcDbEntity
8
Plates
6
ByLayer
62
256
370
0
100
AcDbLine
10
-9.16665570834
20
1.16663878698
11
-10.6092729788
21
1.54380640335
0
LINE
5
12C
100
AcDbEntity
8
Plates
6
ByLayer
62
256
370
0
100
AcDbLine
10
-12.7356564345
20
2.25182716554
11
-11.2445977286
21
1.73992489386
0
LINE
5
12D
100
AcDbEntity
8
Plates
6
ByLayer
62
256
370
0
100
AcDbLine
10
-12.9758676078
20
2.60410346645
11
-12.8377822428
21
14.7382425967
0
ARC
5
12E
100
AcDbEntity
8
Plates
6
ByLayer
62
256
370
0
100
AcDbCircle
10
-12.5725595047
20
2.6210762593
40
0.403665086093
100
AcDbArc
50
182.409810015
51
246.16900371
0
ARC
5
12F
100
AcDbEntity
8
Plates
6
ByLayer
62
256
370
0
100
AcDbCircle
10
-13.1926857914
20
2.63624525514
40
0.219187634945
100
AcDbArc
50
251.490000342
51
351.567710392
0
LINE
5
130
100
AcDbEntity
8
Plates
6
ByLayer
62
256
370
0
100
AcDbLine
10
-13.2622713249
20
2.42839657738
11
-14.6390160115
21
2.87006847804
0
LINE
5
131
100
AcDbEntity
8
Plates
6
ByLayer
62
256
370
0
100
AcDbLine
10
-15.1474501228
20
3.02497088106
11
-16.4887048086
21
3.41334681711
0
LINE
5
132
100
AcDbEntity
8
Plates
6
ByLayer
62
256
370
0
100
AcDbLine
10
-17.3418105816
20
13.6265642602
11
-16.7661490977
21
3.79899518867
0
ARC
5
133
100
AcDbEntity
8
Plates
6
ByLayer
62
256
370
0
100
AcDbCircle
10
-16.3172315239
20
3.82933271363
40
0.449941500083
100
AcDbArc
50
183.866129006
51
247.598084393
0
ARC
5
134
100
AcDbEntity
8
Plates
6
ByLayer
62
256
370
0
100
AcDbCircle
10
-16.9921591483
20
3.79239153788
40
0.225163538977
100
AcDbArc
50
258.516315002
51
359.145406342
0
LINE
5
135
100
AcDbEntity
8
Plates
6
ByLayer
62
256
370
0
100
AcDbLine
10
-19.194624304
20
4.15199401614
11
-18.7623995388
21
4.04391186046
0
LINE
5
136
100
AcDbEntity
8
Plates
6
ByLayer
62
256
370
0
100
AcDbLine
10
-17.0369867079
20
3.57173544984
11
-18.2613127022
21
3.91976685582
0
LINE
5
137
100
AcDbEntity
8
Plates
6
ByLayer
62
256
370
0
100
AcDbLine
10
-8.56696551404
20
13.8727228285
11
-6.62
21
12.78
0
LINE
5
138
100
AcDbEntity
8
Plates
6
ByLayer
62
256
370
0
100
AcDbLine
10
-6.21
20
12.55
11
-4.72997666907
21
11.7201158966
0
ARC
5
139
100
AcDbEntity
8
Plates
6
ByLayer
62
256
370
0
100
AcDbCircle
10
-7.09553638323
20
7.37166732955
40
6.51792470323
100
AcDbArc
50
256.2419469
51
272.510809462
0
ARC
5
13A
100
AcDbEntity
8
Plates
6
ByLayer
62
256
370
0
100
AcDbCircle
10
-7.23118885026
20
8.15131923646
40
7.29880165328
100
AcDbArc
50
276.539039803
51
286.800955532
0
ARC
5
13B
100
AcDbEntity
8
Plates
6
ByLayer
62
256
370
0
100
AcDbCircle
10
-6.83166666667
20
1.09083333333
40
0.231847950653
100
AcDbArc
50
275.362232533
51
2.26591713531
0
ARC
5
13C
100
AcDbEntity
8
Plates
6
ByLayer
62
256
370
0
100
AcDbCircle
10
-6.34833333333
20
1.15166666667
40
0.256915463831
100
AcDbArc
50
191.601511532
51
258.398488468
0
ARC
5
13D
100
AcDbEntity
8
Plates
6
ByLayer
62
256
370
0
100
AcDbCircle
10
-3.69633174452
20
2.1952663489
40
0.496354317065
100
AcDbArc
50
308.257850769
51
0.546428894909
0
ARC
5
13E
100
AcDbEntity
8
Plates
6
ByLayer
62
256
370
0
100
AcDbCircle
10
-2.9787411884
20
2.20514378422
40
0.221318594399
100
AcDbArc
50
181.331761874
51
287.906652684
0
ARC
5
13F
100
AcDbEntity
8
Plates
6
ByLayer
62
256
370
0
100
AcDbCircle
10
-3.0124785978
20
9.8111945528
40
0.512600849803
100
AcDbArc
50
358.74863332
51
38.3639910759
0
ARC
5
140
100
AcDbEntity
8
Plates
6
ByLayer
62
256
370
0
100
AcDbCircle
10
-2.37186969549
20
9.63295681485
40
0.210525059406
100
AcDbArc
50
50.5938240037
51
127.489972929
0
LINE
5
141
100
AcDbEntity
8
Plates
6
ByLayer
62
256
370
0
100
AcDbLine
10
-2.5
20
9.8
11
-3.2
21
2.2
0
LINE
5
142
100
AcDbEntity
8
Plates
6
ByLayer
62
256
370
0
100
AcDbLine
10
-6.6
20
1.1
11
-6.45
21
12.38
0
ARC
5
143
100
AcDbEntity
8
Plates
6
ByLayer
62
256
370
0
100
AcDbCircle
10
-6.24778688525
20
12.3489344262
40
0.204585467842
100
AcDbArc
50
79.3563721858
51
171.266054694
0
ARC
5
144
100
AcDbEntity
8
Plates
6
ByLayer
62
256
370
0
100
AcDbCircle
10
-7.0072513089
20
12.3792931937
40
0.55725175715
100
AcDbArc
50
0.0726727682276
51
45.9783112488
0
ARC
5
145
100
AcDbEntity
8
Plates
6
ByLayer
62
256
370
0
100
AcDbCircle
10
-10.1824802782
20
2.06062993044
40
0.670267534206
100
AcDbArc
50
185.189859028
51
230.45011696
0
ARC
5
146
100
AcDbEntity
8
Plates
6
ByLayer
62
256
370
0
100
AcDbCircle
10
-11.2059987008
20
2.11074902557
40
0.372827603069
100
AcDbArc
50
264.05749107
51
342.719400533
0
ARC
5
147
100
AcDbEntity
8
Plates
6
ByLayer
62
256
370
0
100
AcDbCircle
10
-14.4541522517
20
3.24531232832
40
0.418309164199
100
AcDbArc
50
186.218628732
51
243.772852613
0
ARC
5
148
100
AcDbEntity
8
Plates
6
ByLayer
62
256
370
0
100
AcDbCircle
10
-15.0959764928
20
3.25079340041
40
0.231614647271
100
AcDbArc
50
257.159470706
51
347.331999875
0
ARC
5
149
100
AcDbEntity
8
Plates
6
ByLayer
62
256
370
0
100
AcDbCircle
10
-18.0943846641
20
4.22355059703
40
0.346625924207
100
AcDbArc
50
175.623773269
51
241.211368805
0
ARC
5
14A
100
AcDbEntity
8
Plates
6
ByLayer
62
256
370
0
100
AcDbCircle
10
-18.7705732873
20
4.41191996052
40
0.36809886155
100
AcDbArc
50
271.27237499
51
333.903665317
0
ARC
5
14B
100
AcDbEntity
8
Plates
6
ByLayer
62
256
370
0
100
AcDbCircle
10
-10.6486165213
20
14.3648256915
40
0.202950859362
100
AcDbArc
50
77.4632986822
51
172.874598839
0
ARC
5
14C
100
AcDbEntity
8
Plates
6
ByLayer
62
256
370
0
100
AcDbCircle
10
-11.1865294009
20
14.3286302568
40
0.34207935196
100
AcDbArc
50
10.3349339154
51
66.360902205
0
LINE
5
14D
100
AcDbEntity
8
Plates
6
ByLayer
62
256
370
0
100
AcDbLine
10
-10.85
20
14.39
11
-10.85
21
2
0
ARC
5
14E
100
AcDbEntity
8
Plates
6
ByLayer
62
256
370
0
100
AcDbCircle
10
-14.5783397085
20
14.7762144394
40
0.1816997303
100
AcDbArc
50
101.878878287
51
178.806204407
0
ARC
5
14F
100
AcDbEntity
8
Plates
6
ByLayer
62
256
370
0
100
AcDbCircle
10
-14.9843828457
20
14.6598866801
40
0.254509078535
100
AcDbArc
50
28.160377982
51
100.589363772
0
ARC
5
150
100
AcDbEntity
8
Plates
6
ByLayer
62
256
370
0
100
AcDbCircle
10
-19.9875305135
20
11.2480716014
40
0.113292918176
100
AcDbArc
50
39.4117333355
51
148.793249977
0
ARC
5
151
100
AcDbEntity
8
Plates
6
ByLayer
62
256
370
0
100
AcDbCircle
10
-19.4540280812
20
11.3368704108
40
0.446290895209
100
AcDbArc
50
144.713876221
51
182.166375566
0
LINE
5
152
100
AcDbEntity
8
Plates
6
ByLayer
62
256
370
0
100
AcDbLine
10
-19.9
20
11.32
11
-18.44
21
4.25
0
LINE
5
153
100
AcDbEntity
8
Plates
6
ByLayer
62
256
370
0
100
AcDbLine
10
-14.87
20
3.2
11
-14.76
21
14.78
0
ARC
5
154
100
AcDbEntity
8
Plates
6
ByLayer
62
256
370
0
100
AcDbCircle
10
19.7788094221
20
9.3439819752
40
1.52488503722
100
AcDbArc
50
348.960888199
51
31.427969617
0
LINE
5
155
100
AcDbEntity
8
Plates
6
ByLayer
62
256
370
0
100
AcDbLine
10
21.2754790583
20
9.051998454
11
19.9592105108
21
4.82117854405
0
ARC
5
156
100
AcDbEntity
8
Plates
6
ByLayer
62
256
370
0
100
AcDbCircle
10
18.9253429986
20
5.23105179723
40
1.11215022202
100
AcDbArc
50
284.01209622
51
338.374318391
0
ARC
5
157
100
AcDbEntity
8
Plates
6
ByLayer
62
256
370
0
100
AcDbCircle
10
1.87777773961
20
3.15895256926
40
0.673280216552
100
AcDbArc
50
195.266788833
51
252.052827675
0
LINE
5
158
100
AcDbEntity
8
Plates
6
ByLayer
62
256
370
0
100
AcDbLine
10
1.22825744126
20
2.98166852592
11
0.613407535603
21
7.48521819185
0
ARC
5
159
100
AcDbEntity
8
Plates
6
ByLayer
62
256
370
0
100
AcDbCircle
10
1.8749045839
20
7.63741358137
40
1.27064481247
100
AcDbArc
50
131.733305852
51
186.879294829
0
ARC
5
15A
100
AcDbEntity
8
Plates
6
ByLayer
62
256
370
0
100
AcDbCircle
10
12.0025801934
20
-1.17106198758
40
14.683691117
100
AcDbArc
50
131.680758636
51
138.359242172
0
ARC
5
15B
100
AcDbEntity
8
Plates
6
ByLayer
62
256
370
0
100
AcDbCircle
10
13.4102958828
20
-2.20463656158
40
16.3939445242
100
AcDbArc
50
123.345617927
51
131.205670702
0
ARC
5
15C
100
AcDbEntity
8
Plates
6
ByLayer
62
256
370
0
100
AcDbCircle
10
4.45942926597
20
11.3737475122
40
0.131470917226
100
AcDbArc
50
14.399105118
51
117.491686684
0
ARC
5
15D
100
AcDbEntity
8
Plates
6
ByLayer
62
256
370
0
100
AcDbCircle
10
4.98411278552
20
11.4145641403
40
0.397425516821
100
AcDbArc
50
129.75126396
51
181.171171521
0
ARC
5
15E
100
AcDbEntity
8
Plates
6
ByLayer
62
256
370
0
100
AcDbCircle
10
8.63389542032
20
13.7074727825
40
0.178289624159
100
AcDbArc
50
24.820866674
51
112.049030972
0
ARC
5
15F
100
AcDbEntity
8
Plates
6
ByLayer
62
256
370
0
100
AcDbCircle
10
9.23699652318
20
13.6997364225
40
0.448941301999
100
AcDbArc
50
121.79814553
51
169.400533143
0
ARC
5
160
100
AcDbEntity
8
Plates
6
ByLayer
62
256
370
0
100
AcDbCircle
10
11.7991106429
20
7.67232593598
40
6.99338784396
100
AcDbArc
50
99.834976209
51
113.589968413
0
ARC
5
161
100
AcDbEntity
8
Plates
6
ByLayer
62
256
370
0
100
AcDbCircle
10
15.3321287512
20
-7.44057351443
40
22.494051802
100
AcDbArc
50
96.8899313954
51
100.975861149
0
ARC
5
162
100
AcDbEntity
8
Plates
6
ByLayer
62
256
370
0
100
AcDbCircle
10
12.6560171566
20
14.7081558015
40
0.184238328843
100
AcDbArc
50
9.398705355
51
96.9609548847
0
ARC
5
163
100
AcDbEntity
8
Plates
6
ByLayer
62
256
370
0
100
AcDbCircle
10
13.0727960154
20
14.7100997862
40
0.236692820093
100
AcDbArc
50
110.101785136
51
173.171368947
0
ARC
5
164
100
AcDbEntity
8
Plates
6
ByLayer
62
256
370
0
100
AcDbCircle
10
14.4144327574
20
9.9754419398
40
4.97300847634
100
AcDbArc
50
69.327305101
51
82.8762010687
0
ARC
5
165
100
AcDbEntity
8
Plates
6
ByLayer
62
256
370
0
100
AcDbCircle
10
13.9147551301
20
6.6029384734
40
8.38045318002
100
AcDbArc
50
85.2018659589
51
96.325344443
0
ARC
5
166
100
AcDbEntity
8
Plates
6
ByLayer
62
256
370
0
100
AcDbCircle
10
12.2788948617
20
7.18579300102
40
8.39828851612
100
AcDbArc
50
53.862209054
51
62.397995654
0
ARC
5
167
100
AcDbEntity
8
Plates
6
ByLayer
62
256
370
0
100
AcDbCircle
10
16.9236588735
20
13.6803245115
40
0.421593424551
100
AcDbArc
50
352.673877914
51
43.076125205
0
ARC
5
168
100
AcDbEntity
8
Plates
6
ByLayer
62
256
370
0
100
AcDbCircle
10
17.4705685204
20
13.6177527235
40
0.129059094991
100
AcDbArc
50
49.215175397
51
176.085073043
0
ARC
5
169
100
AcDbEntity
8
Plates
6
ByLayer
62
256
370
0
100
AcDbCircle
10
-0.0510604931828
20
-7.34297451132
40
27.4486257018
100
AcDbArc
50
43.624622714
51
50.102660549
0
LINE
5
16A
100
AcDbEntity
8
Plates
6
ByLayer
62
256
370
0
100
AcDbLine
10
21.0799882715
20
10.1390970477
11
20.0844303118
21
11.3067718092
0
ARC
5
16B
100
AcDbEntity
8
Plates
6
ByLayer
62
256
370
0
100
AcDbCircle
10
8.97006650178
20
18.0713323714
40
17.1807759574
100
AcDbArc
50
244.856986403
51
249.348471535
0
LINE
5
16C
100
AcDbEntity
8
Plates
6
ByLayer
62
256
370
0
100
AcDbLine
10
4.94416752267
20
1.46977823002
11
4.58677029322
21
11.4064410109
0
ARC
5
16D
100
AcDbEntity
8
Plates
6
ByLayer
62
256
370
0
100
AcDbCircle
10
9.6564320649
20
16.1827163176
40
15.6839033817
100
AcDbArc
50
246.446203817
51
251.529044359
0
ARC
5
16E
100
AcDbEntity
8
Plates
6
ByLayer
62
256
370
0
100
AcDbCircle
10
4.7449306823
20
1.49988998859
40
0.201499470383
100
AcDbArc
50
253.409533339
51
351.405617537
0
ARC
5
16F
100
AcDbEntity
8
Plates
6
ByLayer
62
256
370
0
100
AcDbCircle
10
5.21918386466
20
1.42501550405
40
0.278635406936
100
AcDbArc
50
170.755384318
51
249.474285454
0
LINE
5
170
100
AcDbEntity
8
Plates
6
ByLayer
62
256
370
0
100
AcDbLine
10
8.79571547932
20
13.7823156751
11
8.89021393828
21
1.34321723349
0
ARC
5
171
100
AcDbEntity
8
Plates
6
ByLayer
62
256
370
0
100
AcDbCircle
10
9.14491277447
20
1.43727965976
40
0.271512867448
100
AcDbArc
50
200.269612955
51
274.593202987
0
ARC
5
172
100
AcDbEntity
8
Plates
6
ByLayer
62
256
370
0
100
AcDbCircle
10
8.51295160407
20
1.39815440271
40
0.38124134269
100
AcDbArc
50
290.368463322
51
351.71479003
0
LINE
5
173
100
AcDbEntity
8
Plates
6
ByLayer
62
256
370
0
100
AcDbLine
10
9.16665570834
20
1.16663878698
11
10.6092729788
21
1.54380640335
0
LINE
5
174
100
AcDbEntity
8
Plates
6
ByLayer
62
256
370
0
100
AcDbLine
10
12.7356564345
20
2.25182716554
11
11.2445977286
21
1.73992489386
0
LINE
5
175
100
AcDbEntity
8
Plates
6
ByLayer
62
256
370
0
100
AcDbLine
10
12.9758676078
20
2.60410346645
11
12.8377822428
21
14.7382425967
0
ARC
5
176
100
AcDbEntity
8
Plates
6
ByLayer
62
256
370
0
100
AcDbCircle
10
12.5725595047
20
2.6210762593
40
0.403665086093
100
AcDbArc
50
293.83099629
51
357.590189985
0
ARC
5
177
100
AcDbEntity
8
Plates
6
ByLayer
62
256
370
0
100
AcDbCircle
10
13.1926857914
20
2.63624525514
40
0.219187634945
100
AcDbArc
50
188.432289608
51
288.509999658
0
LINE
5
178
100
AcDbEntity
8
Plates
6
ByLayer
62
256
370
0
100
AcDbLine
10
13.2622713249
20
2.42839657738
11
14.6390160115
21
2.87006847804
0
LINE
5
179
100
AcDbEntity
8
Plates
6
ByLayer
62
256
370
0
100
AcDbLine
10
15.1474501228
20
3.02497088106
11
16.4887048086
21
3.41334681711
0
LINE
5
17A
100
AcDbEntity
8
Plates
6
ByLayer
62
256
370
0
100
AcDbLine
10
17.3418105816
20
13.6265642602
11
16.7661490977
21
3.79899518867
0
ARC
5
17B
100
AcDbEntity
8
Plates
6
ByLayer
62
256
370
0
100
AcDbCircle
10
16.3172315239
20
3.82933271363
40
0.449941500083
100
AcDbArc
50
292.401915607
51
356.133870994
0
ARC
5
17C
100
AcDbEntity
8
Plates
6
ByLayer
62
256
370
0
100
AcDbCircle
10
16.9921591483
20
3.79239153788
40
0.225163538977
100
AcDbArc
50
180.854593658
51
281.483684998
0
LINE
5
17D
100
AcDbEntity
8
Plates
6
ByLayer
62
256
370
0
100
AcDbLine
10
19.194624304
20
4.15199401614
11
18.7623995388
21
4.04391186046
0
LINE
5
17E
100
AcDbEntity
8
Plates
6
ByLayer
62
256
370
0
100
AcDbLine
10
17.0369867079
20
3.57173544984
11
18.2613127022
21
3.91976685582
0
LINE
5
17F
100
AcDbEntity
8
Plates
6
ByLayer
62
256
370
0
100
AcDbLine
10
8.56696551404
20
13.8727228285
11
6.62
21
12.78
0
LINE
5
180
100
AcDbEntity
8
Plates
6
ByLayer
62
256
370
0
100
AcDbLine
10
6.21
20
12.55
11
4.72997666907
21
11.7201158966
0
ARC
5
181
100
AcDbEntity
8
Plates
6
ByLayer
62
256
370
0
100
AcDbCircle
10
7.09553638323
20
7.37166732955
40
6.51792470323
100
AcDbArc
50
267.489190538
51
283.7580531
0
ARC
5
182
100
AcDbEntity
8
Plates
6
ByLayer
62
256
370
0
100
AcDbCircle
10
7.23118885026
20
8.15131923646
40
7.29880165328
100
AcDbArc
50
253.199044468
51
263.460960197
0
ARC
5
183
100
AcDbEntity
8
Plates
6
ByLayer
62
256
370
0
100
AcDbCircle
10
6.83166666667
20
1.09083333333
40
0.231847950653
100
AcDbArc
50
177.734082865
51
264.637767467
0
ARC
5
184
100
AcDbEntity
8
Plates
6
ByLayer
62
256
370
0
100
AcDbCircle
10
6.34833333333
20
1.15166666667
40
0.256915463831
100
AcDbArc
50
281.601511532
51
348.398488468
0
ARC
5
185
100
AcDbEntity
8
Plates
6
ByLayer
62
256
370
0
100
AcDbCircle
10
3.69633174452
20
2.1952663489
40
0.496354317065
100
AcDbArc
50
179.453571105
51
231.742149231
0
ARC
5
186
100
AcDbEntity
8
Plates
6
ByLayer
62
256
370
0
100
AcDbCircle
10
2.9787411884
20
2.20514378422
40
0.221318594399
100
AcDbArc
50
252.093347316
51
358.668238126
0
ARC
5
187
100
AcDbEntity
8
Plates
6
ByLayer
62
256
370
0
100
AcDbCircle
10
3.0124785978
20
9.8111945528
40
0.512600849803
100
AcDbArc
50
141.636008924
51
181.25136668
0
ARC
5
188
100
AcDbEntity
8
Plates
6
ByLayer
62
256
370
0
100
AcDbCircle
10
2.37186969549
20
9.63295681485
40
0.210525059406
100
AcDbArc
50
52.510027071
51
129.406175996
0
LINE
5
189
100
AcDbEntity
8
Plates
6
ByLayer
62
256
370
0
100
AcDbLine
10
2.5
20
9.8
11
3.2
21
2.2
0
LINE
5
18A
100
AcDbEntity
8
Plates
6
ByLayer
62
256
370
0
100
AcDbLine
10
6.6
20
1.1
11
6.45
21
12.38
0
ARC
5
18B
100
AcDbEntity
8
Plates
6
ByLayer
62
256
370
0
100
AcDbCircle
10
6.24778688525
20
12.3489344262
40
0.204585467842
100
AcDbArc
50
8.733945306
51
100.643627814
0
ARC
5
18C
100
AcDbEntity
8
Plates
6
ByLayer
62
256
370
0
100
AcDbCircle
10
7.0072513089
20
12.3792931937
40
0.55725175715
100
AcDbArc
50
134.021688751
51
179.927327232
0
ARC
5
18D
100
AcDbEntity
8
Plates
6
ByLayer
62
256
370
0
100
AcDbCircle
10
10.1824802782
20
2.06062993044
40
0.670267534206
100
AcDbArc
50
309.54988304
51
354.810140972
0
ARC
5
18E
100
AcDbEntity
8
Plates
6
ByLayer
62
256
370
0
100
AcDbCircle
10
11.2059987008
20
2.11074902557
40
0.372827603069
100
AcDbArc
50
197.280599467
51
275.94250893
0
ARC
5
18F
100
AcDbEntity
8
Plates
6
ByLayer
62
256
370
0
100
AcDbCircle
10
14.4541522517
20
3.24531232832
40
0.418309164199
100
AcDbArc
50
296.227147387
51
353.781371268
0
ARC
5
190
100
AcDbEntity
8
Plates
6
ByLayer
62
256
370
0
100
AcDbCircle
10
15.0959764928
20
3.25079340041
40
0.231614647271
100
AcDbArc
50
192.668000125
51
282.840529294
0
ARC
5
191
100
AcDbEntity
8
Plates
6
ByLayer
62
256
370
0
100
AcDbCircle
10
18.0943846641
20
4.22355059703
40
0.346625924207
100
AcDbArc
50
298.788631195
51
4.376226731
0
ARC
5
192
100
AcDbEntity
8
Plates
6
ByLayer
62
256
370
0
100
AcDbCircle
10
18.7705732873
20
4.41191996052
40
0.36809886155
100
AcDbArc
50
206.096334683
51
268.72762501
0
ARC
5
193
100
AcDbEntity
8
Plates
6
ByLayer
62
256
370
0
100
AcDbCircle
10
10.6486165213
20
14.3648256915
40
0.202950859362
100
AcDbArc
50
7.125401161
51
102.536701318
0
ARC
5
194
100
AcDbEntity
8
Plates
6
ByLayer
62
256
370
0
100
AcDbCircle
10
11.1865294009
20
14.3286302568
40
0.34207935196
100
AcDbArc
50
113.639097795
51
169.665066085
0
LINE
5
195
100
AcDbEntity
8
Plates
6
ByLayer
62
256
370
0
100
AcDbLine
10
10.85
20
14.39
11
10.85
21
2
0
ARC
5
196
100
AcDbEntity
8
Plates
6
ByLayer
62
256
370
0
100
AcDbCircle
10
14.5783397085
20
14.7762144394
40
0.1816997303
100
AcDbArc
50
1.193795593
51
78.121121713
0
ARC
5
197
100
AcDbEntity
8
Plates
6
ByLayer
62
256
370
0
100
AcDbCircle
10
14.9843828457
20
14.6598866801
40
0.254509078535
100
AcDbArc
50
79.410636228
51
151.839622018
0
ARC
5
198
100
AcDbEntity
8
Plates
6
ByLayer
62
256
370
0
100
AcDbCircle
10
19.9875305135
20
11.2480716014
40
0.113292918176
100
AcDbArc
50
31.206750023
51
140.588266664
0
ARC
5
199
100
AcDbEntity
8
Plates
6
ByLayer
62
256
370
0
100
AcDbCircle
10
19.4540280812
20
11.3368704108
40
0.446290895209
100
AcDbArc
50
357.833624434
51
35.286123779
0
LINE
5
19A
100
AcDbEntity
8
Plates
6
ByLayer
62
256
370
0
100
AcDbLine
10
19.9
20
11.32
11
18.44
21
4.25
0
LINE
5
19B
100
AcDbEntity
8
Plates
6
ByLayer
62
256
370
0
100
AcDbLine
10
14.87
20
3.2
11
14.76
21
14.78
0
ENDSEC
0
SECTION
2
OBJECTS
0
DICTIONARY
5
C
330
0
100
AcDbDictionary
281
1
3
ACAD_GROUP
350
D
0
DICTIONARY
5
D
330
C
100
AcDbDictionary
281
1
0
ENDSEC
0
EOF
