999
dxfrw 0.6.3
  0
SECTION
  2
HEADER
  9
$ACADVER
  1
AC1021
  9
$DWGCODEPAGE
  3
ANSI_1252
  9
$INSBASE
 10
0
 20
0
 30
0
  9
$EXTMIN
 10
-80.55555555555711
 20
0.508
 30
0
  9
$EXTMAX
 10
83.3333333333338
 20
256.6666666666673
 30
0
  9
$LIMMIN
 10
0
 20
0
  9
$LIMMAX
 10
420
 20
297
  9
$ORTHOMODE
 70
    0
  9
$REGENMODE
 70
    1
  9
$FILLMODE
 70
    1
  9
$QTEXTMODE
 70
    0
  9
$MIRRTEXT
 70
    0
  9
$LTSCALE
 40
1
  9
$ATTMODE
 70
    0
  9
$TEXTSIZE
 40
2.5
  9
$TRACEWID
 40
15.68
  9
$TEXTSTYLE
  7
STANDARD
  9
$CLAYER
  8
0
  9
$CELTYPE
  6
BYLAYER
  9
$CECOLOR
 62
  256
  9
$CELTSCALE
 40
1
  9
$DISPSILH
 70
    0
  9
$DIMSCALE
 40
1
  9
$DIMASZ
 40
0.1
  9
$DIMEXO
 40
0.025
  9
$DIMDLI
 40
3.75
  9
$DIMRND
 40
0
  9
$DIMDLE
 40
0
  9
$DIMEXE
 40
0.05
  9
$DIMTP
 40
0
  9
$DIMTM
 40
0
  9
$DIMTXT
 40
0.1
  9
$DIMCEN
 40
2.5
  9
$DIMTSZ
 40
0
  9
$DIMTOL
 70
    0
  9
$DIMLIM
 70
    0
  9
$DIMTIH
 70
    0
  9
$DIMTOH
 70
    0
  9
$DIMSE1
 70
    0
  9
$DIMSE2
 70
    0
  9
$DIMTAD
 70
    1
  9
$DIMZIN
 70
    1
  9
$DIMBLK
  1

  9
$DIMASO
 70
    1
  9
$DIMSHO
 70
    1
  9
$DIMPOST
  1

  9
$DIMAPOST
  1

  9
$DIMALT
 70
    0
  9
$DIMALTD
 70
    3
  9
$DIMALTF
 40
0.03937
  9
$DIMLFAC
 40
1
  9
$DIMTOFL
 70
    1
  9
$DIMTVP
 40
0
  9
$DIMTIX
 70
    0
  9
$DIMSOXD
 70
    0
  9
$DIMSAH
 70
    0
  9
$DIMBLK1
  1

  9
$DIMBLK2
  1

  9
$DIMSTYLE
  2
STANDARD
  9
$DIMCLRD
 70
    0
  9
$DIMCLRE
 70
    0
  9
$DIMCLRT
 70
    0
  9
$DIMTFAC
 40
1
  9
$DIMGAP
 40
0.025
  9
$DIMJUST
 70
    0
  9
$DIMSD1
 70
    0
  9
$DIMSD2
 70
    0
  9
$DIMTOLJ
 70
    0
  9
$DIMTZIN
 70
    8
  9
$DIMALTZ
 70
    0
  9
$DIMALTTZ
 70
    0
  9
$DIMUPT
 70
    0
  9
$DIMDEC
 70
    4
  9
$DIMTDEC
 70
    2
  9
$DIMALTU
 70
    2
  9
$DIMALTTD
 70
    3
  9
$DIMTXSTY
  7
standard
  9
$DIMAUNIT
 70
    0
  9
$DIMADEC
 70
    2
  9
$DIMALTRND
 40
0
  9
$DIMAZIN
 70
    0
  9
$DIMDSEP
 70
    0
  9
$DIMATFIT
 70
    3
  9
$DIMFRAC
 70
    0
  9
$DIMLDRBLK
  1
STANDARD
  9
$DIMLUNIT
 70
    2
  9
$DIMLWD
 70
   -2
  9
$DIMLWE
 70
   -2
  9
$DIMTMOVE
 70
    0
  9
$DIMFXL
 40
0.04
  9
$DIMFXLON
 70
    0
  9
$DIMJOGANG
 40
0.7854
  9
$DIMTFILL
 70
    0
  9
$DIMTFILLCLR
 70
    0
  9
$DIMARCSYM
 70
    0
  9
$DIMLTYPE
  6

  9
$DIMLTEX1
  6

  9
$DIMLTEX2
  6

  9
$LUNITS
 70
    2
  9
$LUPREC
 70
    4
  9
$SKETCHINC
 40
1
  9
$FILLETRAD
 40
0
  9
$AUNITS
 70
    0
  9
$AUPREC
 70
    2
  9
$MENU
  1
.
  9
$ELEVATION
 40
0
  9
$PELEVATION
 40
0
  9
$THICKNESS
 40
0
  9
$LIMCHECK
 70
    0
  9
$CHAMFERA
 40
0
  9
$CHAMFERB
 40
0
  9
$CHAMFERC
 40
0
  9
$CHAMFERD
 40
0
  9
$SKPOLY
 70
    0
  9
$USRTIMER
 70
    1
  9
$ANGBASE
 50
0
  9
$ANGDIR
 70
    0
  9
$PDMODE
 70
   34
  9
$PDSIZE
 40
0
  9
$PLINEWID
 40
0
  9
$SPLFRAME
 70
    0
  9
$SPLINETYPE
 70
    2
  9
$SPLINESEGS
 70
    8
  9
$HANDSEED
  5
20000
  9
$SURFTAB1
 70
    6
  9
$SURFTAB2
 70
    6
  9
$SURFTYPE
 70
    6
  9
$SURFU
 70
    6
  9
$SURFV
 70
    6
  9
$UCSBASE
  2

  9
$UCSNAME
  2

  9
$UCSORG
 10
0
 20
0
 30
0
  9
$UCSXDIR
 10
1
 20
0
 30
0
  9
$UCSYDIR
 10
0
 20
1
 30
0
  9
$UCSORTHOREF
  2

  9
$UCSORTHOVIEW
 70
    0
  9
$UCSORGTOP
 10
0
 20
0
 30
0
  9
$UCSORGBOTTOM
 10
0
 20
0
 30
0
  9
$UCSORGLEFT
 10
0
 20
0
 30
0
  9
$UCSORGRIGHT
 10
0
 20
0
 30
0
  9
$UCSORGFRONT
 10
0
 20
0
 30
0
  9
$UCSORGBACK
 10
0
 20
0
 30
0
  9
$PUCSBASE
  2

  9
$PUCSNAME
  2

  9
$PUCSORG
 10
0
 20
0
 30
0
  9
$PUCSXDIR
 10
1
 20
0
 30
0
  9
$PUCSYDIR
 10
0
 20
1
 30
0
  9
$PUCSORTHOREF
  2

  9
$PUCSORTHOVIEW
 70
    0
  9
$PUCSORGTOP
 10
0
 20
0
 30
0
  9
$PUCSORGBOTTOM
 10
0
 20
0
 30
0
  9
$PUCSORGLEFT
 10
0
 20
0
 30
0
  9
$PUCSORGRIGHT
 10
0
 20
0
 30
0
  9
$PUCSORGFRONT
 10
0
 20
0
 30
0
  9
$PUCSORGBACK
 10
0
 20
0
 30
0
  9
$USERI1
 70
    0
  9
$USERI2
 70
    0
  9
$USERI3
 70
    0
  9
$USERI4
 70
    0
  9
$USERI5
 70
    0
  9
$USERR1
 40
0
  9
$USERR2
 40
0
  9
$USERR3
 40
0
  9
$USERR4
 40
0
  9
$USERR5
 40
0
  9
$WORLDVIEW
 70
    1
  9
$SHADEDGE
 70
    3
  9
$SHADEDIF
 70
   70
  9
$TILEMODE
 70
    1
  9
$MAXACTVP
 70
   64
  9
$PINSBASE
 10
11.29439509594421
 20
24.3760896131221
 30
0
  9
$PLIMCHECK
 70
    0
  9
$PEXTMIN
 10
0
 20
0
 30
0
  9
$PEXTMAX
 10
0
 20
0
 30
0
  9
$GRIDMODE
 70
    1
  9
$SNAPSTYLE
 70
    0
  9
$GRIDUNIT
 10
0
 20
0
  9
$PLIMMIN
 10
0
 20
0
  9
$PLIMMAX
 10
61
 20
91.40000000000001
  9
$UNITMODE
 70
    0
  9
$VISRETAIN
 70
    1
  9
$PLINEGEN
 70
    0
  9
$PSLTSCALE
 70
    1
  9
$TREEDEPTH
 70
 3020
  9
$CMLSTYLE
  2
Standard
  9
$CMLJUST
 70
    0
  9
$CMLSCALE
 40
20
  9
$PROXYGRAPHICS
 70
    1
  9
$MEASUREMENT
 70
    1
  9
$CELWEIGHT
370
   -1
  9
$ENDCAPS
280
    0
  9
$JOINSTYLE
280
    0
  9
$LWDISPLAY
290
    0
  9
$INSUNITS
 70
    5
  9
$HYPERLINKBASE
  1

  9
$STYLESHEET
  1

  9
$XEDIT
290
    1
  9
$CEPSNTYPE
380
    0
  9
$PSTYLEMODE
290
    1
  9
$EXTNAMES
290
    1
  9
$PSVPSCALE
 40
1
  9
$OLESTARTUP
290
    0
  9
$SORTENTS
280
  127
  9
$INDEXCTL
280
    0
  9
$HIDETEXT
280
    1
  9
$XCLIPFRAME
290
    0
  9
$HALOGAP
280
    0
  9
$OBSCOLOR
 70
  257
  9
$OBSLTYPE
280
    0
  9
$INTERSECTIONDISPLAY
280
    0
  9
$INTERSECTIONCOLOR
 70
  257
  9
$DIMASSOC
280
    1
  9
$PROJECTNAME
  1

  9
$CAMERADISPLAY
290
    0
  9
$LENSLENGTH
 40
50
  9
$CAMERAHEIGHT
 40
0
  9
$STEPSPERSEC
 40
2
  9
$STEPSIZE
 40
50
  9
$3DDWFPREC
 40
2
  9
$PSOLWIDTH
 40
5
  9
$PSOLHEIGHT
 40
80
  9
$LOFTANG1
 40
1.570796326794897
  9
$LOFTANG2
 40
1.570796326794897
  9
$LOFTMAG1
 40
0
  9
$LOFTMAG2
 40
0
  9
$LOFTPARAM
 70
    7
  9
$LOFTNORMALS
280
    1
  9
$LATITUDE
 40
1
  9
$LONGITUDE
 40
1
  9
$NORTHDIRECTION
 40
0
  9
$TIMEZONE
 70
-8000
  9
$LIGHTGLYPHDISPLAY
280
    1
  9
$TILEMODELIGHTSYNCH
280
    1
  9
$SOLIDHIST
280
    1
  9
$SHOWHIST
280
    1
  9
$DWFFRAME
280
    2
  9
$DGNFRAME
280
    0
  9
$REALWORLDSCALE
290
    1
  9
$INTERFERECOLOR
 62
    1
  9
$CSHADOW
280
    0
  9
$SHADOWPLANELOCATION
 40
0
  0
ENDSEC
  0
SECTION
  2
CLASSES
  0
ENDSEC
  0
SECTION
  2
TABLES
  0
TABLE
  2
VPORT
  5
8
330
0
100
AcDbSymbolTable
 70
    1
  0
VPORT
  5
31
330
2
100
AcDbSymbolTableRecord
100
AcDbViewportTableRecord
  2
*ACTIVE
 70
    0
 10
0
 20
0
 11
1
 21
1
 12
0.165642027630214
 22
78.80419464507432
 13
0
 23
0
 14
10
 24
10
 15
10
 25
10
 16
0
 26
0
 36
1
 17
0
 27
0
 37
0
 40
53.17109086929869
 41
1.339563862928349
 42
50
 43
0
 44
0
 50
0
 51
0
 71
    0
 72
  100
 73
    1
 74
    3
 75
    0
 76
    1
 77
    0
 78
    0
281
    0
 65
    1
110
0
120
0
130
0
111
1
121
0
131
0
112
0
122
1
132
0
 79
    0
146
0
348
10020
 60
    7
 61
    5
292
1
282
    1
141
0
142
0
 63
  250
421
3358443
  0
ENDTAB
  0
TABLE
  2
LTYPE
  5
5
330
0
100
AcDbSymbolTable
 70
    4
  0
LTYPE
  5
14
330
5
100
AcDbSymbolTableRecord
100
AcDbLinetypeTableRecord
  2
ByBlock
 70
    0
  3

 72
   65
 73
    0
 40
0
  0
LTYPE
  5
15
330
5
100
AcDbSymbolTableRecord
100
AcDbLinetypeTableRecord
  2
ByLayer
 70
    0
  3

 72
   65
 73
    0
 40
0
  0
LTYPE
  5
16
330
5
100
AcDbSymbolTableRecord
100
AcDbLinetypeTableRecord
  2
Continuous
 70
    0
  3
Solid line
 72
   65
 73
    0
 40
0
  0
LTYPE
  5
32
330
5
100
AcDbSymbolTableRecord
100
AcDbLinetypeTableRecord
  2
DOT
 70
    0
  3
Dot . . . . . . . . . . . . . . . . . . . . . .
 72
   65
 73
    2
 40
6.35
 49
0
 74
    0
 49
-6.35
 74
    0
  0
LTYPE
  5
33
330
5
100
AcDbSymbolTableRecord
100
AcDbLinetypeTableRecord
  2
DOTTINY
 70
    0
  3
Dot (.15x) .....................................
 72
   65
 73
    2
 40
0.9525
 49
0
 74
    0
 49
-0.9525
 74
    0
  0
LTYPE
  5
34
330
5
100
AcDbSymbolTableRecord
100
AcDbLinetypeTableRecord
  2
DOT2
 70
    0
  3
Dot (.5x) .....................................
 72
   65
 73
    2
 40
3.175
 49
0
 74
    0
 49
-3.175
 74
    0
  0
LTYPE
  5
35
330
5
100
AcDbSymbolTableRecord
100
AcDbLinetypeTableRecord
  2
DOTX2
 70
    0
  3
Dot (2x) .  .  .  .  .  .  .  .  .  .  .  .  .
 72
   65
 73
    2
 40
12.7
 49
0
 74
    0
 49
-12.7
 74
    0
  0
LTYPE
  5
36
330
5
100
AcDbSymbolTableRecord
100
AcDbLinetypeTableRecord
  2
DASHED
 70
    0
  3
Dashed _ _ _ _ _ _ _ _ _ _ _ _ _ _ _ _ _
 72
   65
 73
    2
 40
19.05
 49
12.7
 74
    0
 49
-6.35
 74
    0
  0
LTYPE
  5
37
330
5
100
AcDbSymbolTableRecord
100
AcDbLinetypeTableRecord
  2
DASHEDTINY
 70
    0
  3
Dashed (.15x) _ _ _ _ _ _ _ _ _ _ _ _ _ _ _ _ _
 72
   65
 73
    2
 40
2.8575
 49
1.905
 74
    0
 49
-0.9525
 74
    0
  0
LTYPE
  5
38
330
5
100
AcDbSymbolTableRecord
100
AcDbLinetypeTableRecord
  2
DASHED2
 70
    0
  3
Dashed (.5x) _ _ _ _ _ _ _ _ _ _ _ _ _ _ _ _ _
 72
   65
 73
    2
 40
9.524999999999999
 49
6.35
 74
    0
 49
-3.175
 74
    0
  0
LTYPE
  5
39
330
5
100
AcDbSymbolTableRecord
100
AcDbLinetypeTableRecord
  2
DASHEDX2
 70
    0
  3
Dashed (2x) ____  ____  ____  ____  ____  ___
 72
   65
 73
    2
 40
38.09999999999999
 49
25.4
 74
    0
 49
-12.7
 74
    0
  0
LTYPE
  5
3A
330
5
100
AcDbSymbolTableRecord
100
AcDbLinetypeTableRecord
  2
DASHDOT
 70
    0
  3
Dash dot __ . __ . __ . __ . __ . __ . __ . __
 72
   65
 73
    4
 40
25.4
 49
12.7
 74
    0
 49
-6.35
 74
    0
 49
0
 74
    0
 49
-6.35
 74
    0
  0
LTYPE
  5
3B
330
5
100
AcDbSymbolTableRecord
100
AcDbLinetypeTableRecord
  2
DASHDOTTINY
 70
    0
  3
Dash dot (.15x) _._._._._._._._._._._._._._._.
 72
   65
 73
    4
 40
3.81
 49
1.905
 74
    0
 49
-0.9525
 74
    0
 49
0
 74
    0
 49
-0.9525
 74
    0
  0
LTYPE
  5
3C
330
5
100
AcDbSymbolTableRecord
100
AcDbLinetypeTableRecord
  2
DASHDOT2
 70
    0
  3
Dash dot (.5x) _._._._._._._._._._._._._._._.
 72
   65
 73
    4
 40
12.7
 49
6.35
 74
    0
 49
-3.175
 74
    0
 49
0
 74
    0
 49
-3.175
 74
    0
  0
LTYPE
  5
3D
330
5
100
AcDbSymbolTableRecord
100
AcDbLinetypeTableRecord
  2
DASHDOTX2
 70
    0
  3
Dash dot (2x) ____  .  ____  .  ____  .  ___
 72
   65
 73
    4
 40
50.8
 49
25.4
 74
    0
 49
-12.7
 74
    0
 49
0
 74
    0
 49
-12.7
 74
    0
  0
LTYPE
  5
3E
330
5
100
AcDbSymbolTableRecord
100
AcDbLinetypeTableRecord
  2
DIVIDE
 70
    0
  3
Divide ____ . . ____ . . ____ . . ____ . . ____
 72
   65
 73
    6
 40
31.75
 49
12.7
 74
    0
 49
-6.35
 74
    0
 49
0
 74
    0
 49
-6.35
 74
    0
 49
0
 74
    0
 49
-6.35
 74
    0
  0
LTYPE
  5
3F
330
5
100
AcDbSymbolTableRecord
100
AcDbLinetypeTableRecord
  2
DIVIDETINY
 70
    0
  3
Divide (.15x) __..__..__..__..__..__..__..__.._
 72
   65
 73
    6
 40
4.7625
 49
1.905
 74
    0
 49
-0.9525
 74
    0
 49
0
 74
    0
 49
-0.9525
 74
    0
 49
0
 74
    0
 49
-0.9525
 74
    0
  0
LTYPE
  5
40
330
5
100
AcDbSymbolTableRecord
100
AcDbLinetypeTableRecord
  2
DIVIDE2
 70
    0
  3
Divide (.5x) __..__..__..__..__..__..__..__.._
 72
   65
 73
    6
 40
15.875
 49
6.35
 74
    0
 49
-3.175
 74
    0
 49
0
 74
    0
 49
-3.175
 74
    0
 49
0
 74
    0
 49
-3.175
 74
    0
  0
LTYPE
  5
41
330
5
100
AcDbSymbolTableRecord
100
AcDbLinetypeTableRecord
  2
DIVIDEX2
 70
    0
  3
Divide (2x) ________  .  .  ________  .  .  _
 72
   65
 73
    6
 40
63.5
 49
25.4
 74
    0
 49
-12.7
 74
    0
 49
0
 74
    0
 49
-12.7
 74
    0
 49
0
 74
    0
 49
-12.7
 74
    0
  0
LTYPE
  5
42
330
5
100
AcDbSymbolTableRecord
100
AcDbLinetypeTableRecord
  2
BORDER
 70
    0
  3
Border __ __ . __ __ . __ __ . __ __ . __ __ .
 72
   65
 73
    6
 40
44.45
 49
12.7
 74
    0
 49
-6.35
 74
    0
 49
12.7
 74
    0
 49
-6.35
 74
    0
 49
0
 74
    0
 49
-6.35
 74
    0
  0
LTYPE
  5
43
330
5
100
AcDbSymbolTableRecord
100
AcDbLinetypeTableRecord
  2
BORDERTINY
 70
    0
  3
Border (.15x) __.__.__.__.__.__.__.__.__.__.__.
 72
   65
 73
    6
 40
6.6675
 49
1.905
 74
    0
 49
-0.9525
 74
    0
 49
1.905
 74
    0
 49
-0.9525
 74
    0
 49
0
 74
    0
 49
-0.9525
 74
    0
  0
LTYPE
  5
44
330
5
100
AcDbSymbolTableRecord
100
AcDbLinetypeTableRecord
  2
BORDER2
 70
    0
  3
Border (.5x) __.__.__.__.__.__.__.__.__.__.__.
 72
   65
 73
    6
 40
22.225
 49
6.35
 74
    0
 49
-3.175
 74
    0
 49
6.35
 74
    0
 49
-3.175
 74
    0
 49
0
 74
    0
 49
-3.175
 74
    0
  0
LTYPE
  5
45
330
5
100
AcDbSymbolTableRecord
100
AcDbLinetypeTableRecord
  2
BORDERX2
 70
    0
  3
Border (2x) ____  ____  .  ____  ____  .  ___
 72
   65
 73
    6
 40
88.89999999999999
 49
25.4
 74
    0
 49
-12.7
 74
    0
 49
25.4
 74
    0
 49
-12.7
 74
    0
 49
0
 74
    0
 49
-12.7
 74
    0
  0
LTYPE
  5
46
330
5
100
AcDbSymbolTableRecord
100
AcDbLinetypeTableRecord
  2
CENTER
 70
    0
  3
Center ____ _ ____ _ ____ _ ____ _ ____ _ ____
 72
   65
 73
    4
 40
50.8
 49
31.75
 74
    0
 49
-6.35
 74
    0
 49
6.35
 74
    0
 49
-6.35
 74
    0
  0
LTYPE
  5
47
330
5
100
AcDbSymbolTableRecord
100
AcDbLinetypeTableRecord
  2
CENTERTINY
 70
    0
  3
Center (.15x) ___ _ ___ _ ___ _ ___ _ ___ _ ___
 72
   65
 73
    4
 40
7.619999999999999
 49
4.7625
 74
    0
 49
-0.9525
 74
    0
 49
0.9525
 74
    0
 49
-0.9525
 74
    0
  0
LTYPE
  5
48
330
5
100
AcDbSymbolTableRecord
100
AcDbLinetypeTableRecord
  2
CENTER2
 70
    0
  3
Center (.5x) ___ _ ___ _ ___ _ ___ _ ___ _ ___
 72
   65
 73
    4
 40
28.575
 49
19.05
 74
    0
 49
-3.175
 74
    0
 49
3.175
 74
    0
 49
-3.175
 74
    0
  0
LTYPE
  5
49
330
5
100
AcDbSymbolTableRecord
100
AcDbLinetypeTableRecord
  2
CENTERX2
 70
    0
  3
Center (2x) ________  __  ________  __  _____
 72
   65
 73
    4
 40
101.6
 49
63.5
 74
    0
 49
-12.7
 74
    0
 49
12.7
 74
    0
 49
-12.7
 74
    0
  0
ENDTAB
  0
TABLE
  2
LAYER
  5
2
330
0
100
AcDbSymbolTable
 70
    1
  0
LAYER
  5
10
330
2
100
AcDbSymbolTableRecord
100
AcDbLayerTableRecord
  2
0
 70
    0
 62
    7
  6
CONTINUOUS
370
    0
390
F
  0
ENDTAB
  0
TABLE
  2
STYLE
  5
3
330
0
100
AcDbSymbolTable
 70
    3
  0
STYLE
  5
4A
330
2
100
AcDbSymbolTableRecord
100
AcDbTextStyleTableRecord
  2
standard
 70
    0
 40
0
 41
1
 50
0
 71
    0
 42
1
  3
standard
  4

  0
STYLE
  5
4B
330
2
100
AcDbSymbolTableRecord
100
AcDbTextStyleTableRecord
  2
iso
 70
    0
 40
0
 41
1
 50
0
 71
    0
 42
1
  3
iso
  4

  0
ENDTAB
  0
TABLE
  2
VIEW
  5
6
330
0
100
AcDbSymbolTable
 70
    0
  0
ENDTAB
  0
TABLE
  2
UCS
  5
7
330
0
100
AcDbSymbolTable
 70
    0
  0
ENDTAB
  0
TABLE
  2
APPID
  5
9
330
0
100
AcDbSymbolTable
 70
    1
  0
APPID
  5
12
330
9
100
AcDbSymbolTableRecord
100
AcDbRegAppTableRecord
  2
ACAD
 70
    0
  0
APPID
  5
4C
330
9
100
AcDbSymbolTableRecord
100
AcDbRegAppTableRecord
  2
LibreCad
 70
    0
  0
ENDTAB
  0
TABLE
  2
DIMSTYLE
  5
A
330
0
100
AcDbSymbolTable
 70
    1
100
AcDbDimStyleTable
 71
    1
  0
DIMSTYLE
105
4D
330
A
100
AcDbSymbolTableRecord
100
AcDbDimStyleTableRecord
  2
Standard
 70
    0
 40
1
 41
0.1
 42
0.025
 43
0.38
 44
0.05
 45
0
 46
0
 47
0
 48
0
 49
0.04
140
0.1
141
0.09
142
0
143
25.4
144
1
145
0
146
1
147
0.025
148
0
 71
    0
 72
    0
 73
    0
 74
    1
 75
    0
 76
    0
 77
    0
 78
    1
 79
    0
170
    0
171
    2
172
    0
173
    0
174
    0
175
    0
176
    0
177
    0
178
    0
179
    2
271
    4
272
    4
273
    2
274
    2
275
    0
276
    0
277
    2
278
    0
279
    0
280
    0
281
    0
282
    0
283
    1
284
    0
285
    0
286
    0
288
    0
289
    3
340
standard
341

371
   -2
372
   -2
  0
ENDTAB
  0
TABLE
  2
BLOCK_RECORD
  5
1
330
0
100
AcDbSymbolTable
 70
    2
  0
BLOCK_RECORD
  5
1F
330
1
100
AcDbSymbolTableRecord
100
AcDbBlockTableRecord
  2
*Model_Space
 70
    0
280
    1
281
    0
  0
BLOCK_RECORD
  5
1E
330
1
100
AcDbSymbolTableRecord
100
AcDbBlockTableRecord
  2
*Paper_Space
 70
    0
280
    1
281
    0
  0
ENDTAB
  0
ENDSEC
  0
SECTION
  2
BLOCKS
  0
BLOCK
  5
20
330
1F
100
AcDbEntity
  8
0
100
AcDbBlockBegin
  2
*Model_Space
 70
    0
 10
0
 20
0
 30
0
  3
*Model_Space
  1

  0
ENDBLK
  5
21
330
1F
100
AcDbEntity
  8
0
100
AcDbBlockEnd
  0
BLOCK
  5
1C
330
1B
100
AcDbEntity
  8
0
100
AcDbBlockBegin
  2
*Paper_Space
 70
    0
 10
0
 20
0
 30
0
  3
*Paper_Space
  1

  0
ENDBLK
  5
1D
330
1F
100
AcDbEntity
  8
0
100
AcDbBlockEnd
  0
ENDSEC
  0
SECTION
  2
ENTITIES
  0
ARC
  5
4E
100
AcDbEntity
  8
0
  6
ByLayer
 62
  256
370
   -1
100
AcDbCircle
 10
-40.3322536
 20
32.6716136
 40
1.17781914694018
100
AcDbArc
 50
197.94105887
 51
242.91109861
  0
ARC
  5
4F
100
AcDbEntity
  8
0
  6
ByLayer
 62
  256
370
   -1
100
AcDbCircle
 10
-22.4826520988172
 20
100.43321959925
 40
71.22421920609
100
AcDbArc
 50
255.040168555
 51
269.696443941
  0
ARC
  5
50
100
AcDbEntity
  8
0
  6
ByLayer
 62
  256
370
   -1
100
AcDbCircle
 10
-5.387746399999997
 20
32.6716136
 40
1.17781914694018
100
AcDbArc
 50
297.08890139
 51
342.05894113
  0
ARC
  5
51
100
AcDbEntity
  8
0
  6
ByLayer
 62
  256
370
   -1
100
AcDbCircle
 10
-23.2373479011828
 20
100.43321959925
 40
71.22421920609
100
AcDbArc
 50
270.303556059
 51
284.959831445
  0
ELLIPSE
  5
52
100
AcDbEntity
  8
0
  6
ByLayer
 62
  256
370
   -1
100
AcDbEllipse
 10
-4.475284615402202
 20
10.5592684615326
 30
0
 11
2.12425578601384e-17
 21
0.39896806778744
 31
0
 40
0.869565217391
 41
3.00885504015
 42
4.450335474079997
  0
LINE
  5
53
100
AcDbEntity
  8
0
  6
ByLayer
 62
  256
370
   -1
100
AcDbLine
 10
-4.521199999999993
 20
10.1638100000254
 11
-22.86
 21
10.16381
  0
ELLIPSE
  5
54
100
AcDbEntity
  8
0
  6
ByLayer
 62
  256
370
   -1
100
AcDbEllipse
 10
-41.24471538467401
 20
10.5592684615326
 30
0
 11
0
 21
0.39896806778744
 31
0
 40
0.869565217391
 41
1.832849833100003
 42
3.27433026703
  0
LINE
  5
55
100
AcDbEntity
  8
0
  6
ByLayer
 62
  256
370
   -1
100
AcDbLine
 10
-41.19880000000001
 20
10.1638100000254
 11
-22.86
 21
10.16381
  0
ELLIPSE
  5
56
100
AcDbEntity
  8
0
  6
ByLayer
 62
  256
370
   -1
100
AcDbEllipse
 10
-4.475284615402202
 20
19.9572684615326
 30
0
 11
2.12425578601384e-17
 21
0.39896806778744
 31
0
 40
0.869565217391
 41
3.008855040149999
 42
4.450335474080001
  0
LINE
  5
57
100
AcDbEntity
  8
0
  6
ByLayer
 62
  256
370
   -1
100
AcDbLine
 10
-4.521199999999993
 20
19.5618100000254
 11
-22.86
 21
19.56181
  0
ELLIPSE
  5
58
100
AcDbEntity
  8
0
  6
ByLayer
 62
  256
370
   -1
100
AcDbEllipse
 10
-41.24471538467401
 20
19.9572684615326
 30
0
 11
0
 21
0.39896806778744
 31
0
 40
0.869565217391
 41
1.832849833100003
 42
3.274330267030001
  0
LINE
  5
59
100
AcDbEntity
  8
0
  6
ByLayer
 62
  256
370
   -1
100
AcDbLine
 10
-41.19880000000001
 20
19.5618100000254
 11
-22.86
 21
19.56181
  0
ARC
  5
5A
100
AcDbEntity
  8
0
  6
ByLayer
 62
  256
370
   -1
100
AcDbCircle
 10
19.1734830768078
 20
77.57179538569
 40
49.90525399549
100
AcDbArc
 50
255.713109906
 51
268.399946473
  0
ARC
  5
5B
100
AcDbEntity
  8
0
  6
ByLayer
 62
  256
370
   -1
100
AcDbCircle
 10
12.6437571428644
 20
45.235585714322
 40
17.0380275619514
100
AcDbArc
 50
237.056189081
 51
250.148770648
  0
ARC
  5
5C
100
AcDbEntity
  8
0
  6
ByLayer
 62
  256
370
   -1
100
AcDbCircle
 10
3.524249999999995
 20
31.18485
 40
0.28750847813658
100
AcDbArc
 50
210.5297059
 51
239.4702941
  0
ELLIPSE
  5
5D
100
AcDbEntity
  8
0
  6
ByLayer
 62
  256
370
   -1
100
AcDbEllipse
 10
7.257196906989407
 20
9.5077009478316
 30
0
 11
1.16122986623514
 21
0
 31
0
 40
0.9259259259259999
 41
3.149126998589999
 42
4.7282181618
  0
LINE
  5
5E
100
AcDbEntity
  8
0
  6
ByLayer
 62
  256
370
   -1
100
AcDbLine
 10
7.366
 20
18.542
 11
17.78
 21
18.542
  0
LINE
  5
5F
100
AcDbEntity
  8
0
  6
ByLayer
 62
  256
370
   -1
100
AcDbLine
 10
7.300976000000006
 20
8.4328
 11
17.78
 21
8.407400000000001
  0
LINE
  5
60
100
AcDbEntity
  8
0
  6
ByLayer
 62
  256
370
   -1
100
AcDbLine
 10
7.366
 20
0.50800000000254
 11
17.78
 21
0.508
  0
ARC
  5
61
100
AcDbEntity
  8
0
  6
ByLayer
 62
  256
370
   -1
100
AcDbCircle
 10
7.3841428571356
 20
19.8664285714322
 40
1.32455283174502
100
AcDbArc
 50
193.465208095
 51
269.215175397
  0
LINE
  5
62
100
AcDbEntity
  8
0
  6
ByLayer
 62
  256
370
   -1
100
AcDbLine
 10
28.194
 20
18.542
 11
17.78
 21
18.542
  0
ARC
  5
63
100
AcDbEntity
  8
0
  6
ByLayer
 62
  256
370
   -1
100
AcDbCircle
 10
28.175857142966
 20
19.8664285714322
 40
1.32455283174502
100
AcDbArc
 50
270.784824603
 51
346.534791905
  0
ARC
  5
64
100
AcDbEntity
  8
0
  6
ByLayer
 62
  256
370
   -1
100
AcDbCircle
 10
7.3841428571356
 20
1.83242857142966
 40
1.32455283174502
100
AcDbArc
 50
193.465208095
 51
269.215175397
  0
LINE
  5
65
100
AcDbEntity
  8
0
  6
ByLayer
 62
  256
370
   -1
100
AcDbLine
 10
28.194
 20
0.50800000000254
 11
17.78
 21
0.508
  0
ARC
  5
66
100
AcDbEntity
  8
0
  6
ByLayer
 62
  256
370
   -1
100
AcDbCircle
 10
28.175857142966
 20
1.83242857142966
 40
1.32455283174502
100
AcDbArc
 50
270.784824603
 51
346.534791905
  0
ELLIPSE
  5
67
100
AcDbEntity
  8
0
  6
ByLayer
 62
  256
370
   -1
100
AcDbEllipse
 10
-4.475284615402202
 20
2.9392684615326
 30
0
 11
2.12425578601384e-17
 21
0.39896806778744
 31
0
 40
0.869565217391
 41
3.00885504015
 42
4.45033547408
  0
LINE
  5
68
100
AcDbEntity
  8
0
  6
ByLayer
 62
  256
370
   -1
100
AcDbLine
 10
-4.521199999999993
 20
2.5438100000254
 11
-22.86
 21
2.54381
  0
ELLIPSE
  5
69
100
AcDbEntity
  8
0
  6
ByLayer
 62
  256
370
   -1
100
AcDbEllipse
 10
-41.24471538467401
 20
2.9392684615326
 30
0
 11
0
 21
0.39896806778744
 31
0
 40
0.869565217391
 41
1.832849833100003
 42
3.27433026703
  0
LINE
  5
6A
100
AcDbEntity
  8
0
  6
ByLayer
 62
  256
370
   -1
100
AcDbLine
 10
-41.19880000000001
 20
2.5438100000254
 11
-22.86
 21
2.54381
  0
CIRCLE
  5
6B
100
AcDbEntity
  8
0
  6
ByLayer
 62
  256
370
   -1
100
AcDbCircle
 10
-22.86
 20
30.1752
 40
0.1778
  0
CIRCLE
  5
6C
100
AcDbEntity
  8
0
  6
ByLayer
 62
  256
370
   -1
100
AcDbCircle
 10
-6.273799999999994
 20
11.21537
 40
0.1778
  0
CIRCLE
  5
6D
100
AcDbEntity
  8
0
  6
ByLayer
 62
  256
370
   -1
100
AcDbCircle
 10
-22.86
 20
11.12774
 40
0.1778
  0
CIRCLE
  5
6E
100
AcDbEntity
  8
0
  6
ByLayer
 62
  256
370
   -1
100
AcDbCircle
 10
-6.273799999999994
 20
20.61337
 40
0.1778
  0
CIRCLE
  5
6F
100
AcDbEntity
  8
0
  6
ByLayer
 62
  256
370
   -1
100
AcDbCircle
 10
-22.86
 20
20.52574
 40
0.1778
  0
CIRCLE
  5
70
100
AcDbEntity
  8
0
  6
ByLayer
 62
  256
370
   -1
100
AcDbCircle
 10
-6.273799999999994
 20
32.59963
 40
0.1778
  0
CIRCLE
  5
71
100
AcDbEntity
  8
0
  6
ByLayer
 62
  256
370
   -1
100
AcDbCircle
 10
17.78
 20
19.558
 40
0.1778
  0
CIRCLE
  5
72
100
AcDbEntity
  8
0
  6
ByLayer
 62
  256
370
   -1
100
AcDbCircle
 10
8.001000000000005
 20
19.558
 40
0.1778
  0
CIRCLE
  5
73
100
AcDbEntity
  8
0
  6
ByLayer
 62
  256
370
   -1
100
AcDbCircle
 10
17.78
 20
9.398000000000001
 40
0.1778
  0
CIRCLE
  5
74
100
AcDbEntity
  8
0
  6
ByLayer
 62
  256
370
   -1
100
AcDbCircle
 10
8.001000000000005
 20
9.398000000000001
 40
0.1778
  0
CIRCLE
  5
75
100
AcDbEntity
  8
0
  6
ByLayer
 62
  256
370
   -1
100
AcDbCircle
 10
17.78
 20
1.524
 40
0.1778
  0
CIRCLE
  5
76
100
AcDbEntity
  8
0
  6
ByLayer
 62
  256
370
   -1
100
AcDbCircle
 10
8.014207999999996
 20
1.57670500001016
 40
0.1778
  0
CIRCLE
  5
77
100
AcDbEntity
  8
0
  6
ByLayer
 62
  256
370
   -1
100
AcDbCircle
 10
22.98699999999999
 20
1.87706
 40
0.1778
  0
CIRCLE
  5
78
100
AcDbEntity
  8
0
  6
ByLayer
 62
  256
370
   -1
100
AcDbCircle
 10
12.57300000000001
 20
1.87706
 40
0.1778
  0
CIRCLE
  5
79
100
AcDbEntity
  8
0
  6
ByLayer
 62
  256
370
   -1
100
AcDbCircle
 10
27.54579200000001
 20
1.57670500001016
 40
0.1778
  0
CIRCLE
  5
7A
100
AcDbEntity
  8
0
  6
ByLayer
 62
  256
370
   -1
100
AcDbCircle
 10
-17.65299999999999
 20
3.85826
 40
0.1778
  0
CIRCLE
  5
7B
100
AcDbEntity
  8
0
  6
ByLayer
 62
  256
370
   -1
100
AcDbCircle
 10
-28.06700000000001
 20
3.85826
 40
0.1778
  0
LINE
  5
7C
100
AcDbEntity
  8
0
  6
ByLayer
 62
  256
370
   -1
100
AcDbLine
 10
2.031999999999996
 20
33.782
 11
3.276600000000002
 21
31.0388
  0
ARC
  5
7D
100
AcDbEntity
  8
0
  6
ByLayer
 62
  256
370
   -1
100
AcDbCircle
 10
7.855857142864394
 20
36.49738095226
 40
6.4257766640928
100
AcDbArc
 50
118.132754854
 51
204.9973475
  0
ARC
  5
7E
100
AcDbEntity
  8
0
  6
ByLayer
 62
  256
370
   -1
100
AcDbCircle
 10
17.0239069765274
 20
21.3714418606884
 40
24.1064184105618
100
AcDbArc
 50
88.2026344848
 51
120.397920413
  0
ARC
  5
7F
100
AcDbEntity
  8
0
  6
ByLayer
 62
  256
370
   -1
100
AcDbCircle
 10
16.3865169231922
 20
77.57179538569
 40
49.90525399549
100
AcDbArc
 50
271.600053527
 51
284.286890094
  0
ARC
  5
80
100
AcDbEntity
  8
0
  6
ByLayer
 62
  256
370
   -1
100
AcDbCircle
 10
22.9162428571356
 20
45.235585714322
 40
17.0380275619514
100
AcDbArc
 50
289.851229352
 51
302.943810919
  0
ARC
  5
81
100
AcDbEntity
  8
0
  6
ByLayer
 62
  256
370
   -1
100
AcDbCircle
 10
32.03575000000001
 20
31.18485
 40
0.28750847813658
100
AcDbArc
 50
300.5297059
 51
329.4702941
  0
LINE
  5
82
100
AcDbEntity
  8
0
  6
ByLayer
 62
  256
370
   -1
100
AcDbLine
 10
33.52799999999999
 20
33.782
 11
32.2834
 21
31.0388
  0
ARC
  5
83
100
AcDbEntity
  8
0
  6
ByLayer
 62
  256
370
   -1
100
AcDbCircle
 10
27.704142857034
 20
36.49738095226
 40
6.4257766640928
100
AcDbArc
 50
335.0026525
 51
61.8672451458
  0
ARC
  5
84
100
AcDbEntity
  8
0
  6
ByLayer
 62
  256
370
   -1
100
AcDbCircle
 10
18.5360930234726
 20
21.3714418606884
 40
24.1064184105618
100
AcDbArc
 50
59.60207958720001
 51
91.7973655152
  0
ARC
  5
85
100
AcDbEntity
  8
0
  6
ByLayer
 62
  256
370
   -1
100
AcDbCircle
 10
28.44800000000001
 20
30.48
 40
0.2032
100
AcDbArc
 50
180
 51
0
  0
ELLIPSE
  5
86
100
AcDbEntity
  8
0
  6
ByLayer
 62
  256
370
   -1
100
AcDbEllipse
 10
28.302803093036
 20
9.5077009478316
 30
0
 11
-1.16122986623514
 21
0
 31
0
 40
0.9259259259259999
 41
1.586469964649999
 42
3.134058308590001
  0
LINE
  5
87
100
AcDbEntity
  8
0
  6
ByLayer
 62
  256
370
   -1
100
AcDbLine
 10
28.32100304419001
 20
8.4326201759756
 11
17.78
 21
8.407400000000001
  0
ARC
  5
88
100
AcDbEntity
  8
0
  6
ByLayer
 62
  256
370
   -1
100
AcDbCircle
 10
15.88516
 20
30.350968
 40
12.766692075023
100
AcDbArc
 50
0.57909400885
 51
5.14571644337
  0
ARC
  5
89
100
AcDbEntity
  8
0
  6
ByLayer
 62
  256
370
   -1
100
AcDbCircle
 10
15.47875999999999
 20
30.350968
 40
12.766692075023
100
AcDbArc
 50
0.579094008849
 51
5.14571644337
  0
ARC
  5
8A
100
AcDbEntity
  8
0
  6
ByLayer
 62
  256
370
   -1
100
AcDbCircle
 10
28.3972
 20
31.496
 40
0.2032
100
AcDbArc
 50
0
 51
180
  0
ARC
  5
8B
100
AcDbEntity
  8
0
  6
ByLayer
 62
  256
370
   -1
100
AcDbCircle
 10
28.194
 20
19.558
 40
0.2032
100
AcDbArc
 50
180
 51
0
  0
ARC
  5
8C
100
AcDbEntity
  8
0
  6
ByLayer
 62
  256
370
   -1
100
AcDbCircle
 10
15.63115999999999
 20
19.428968
 40
12.766692075023
100
AcDbArc
 50
0.57909400885
 51
5.14571644337
  0
ARC
  5
8D
100
AcDbEntity
  8
0
  6
ByLayer
 62
  256
370
   -1
100
AcDbCircle
 10
15.22476
 20
19.428968
 40
12.766692075023
100
AcDbArc
 50
0.579094008849
 51
5.14571644337
  0
ARC
  5
8E
100
AcDbEntity
  8
0
  6
ByLayer
 62
  256
370
   -1
100
AcDbCircle
 10
28.14320000000001
 20
20.574
 40
0.2032
100
AcDbArc
 50
0
 51
180
  0
ARC
  5
8F
100
AcDbEntity
  8
0
  6
ByLayer
 62
  256
370
   -1
100
AcDbCircle
 10
28.194
 20
9.398000000000001
 40
0.2032
100
AcDbArc
 50
180
 51
0
  0
ARC
  5
90
100
AcDbEntity
  8
0
  6
ByLayer
 62
  256
370
   -1
100
AcDbCircle
 10
15.63115999999999
 20
9.268968000000001
 40
12.766692075023
100
AcDbArc
 50
0.57909400885
 51
5.14571644337
  0
ARC
  5
91
100
AcDbEntity
  8
0
  6
ByLayer
 62
  256
370
   -1
100
AcDbCircle
 10
15.22476
 20
9.268968000000001
 40
12.766692075023
100
AcDbArc
 50
0.579094008849
 51
5.14571644337
  0
ARC
  5
92
100
AcDbEntity
  8
0
  6
ByLayer
 62
  256
370
   -1
100
AcDbCircle
 10
28.14320000000001
 20
10.414
 40
0.2032
100
AcDbArc
 50
0
 51
180
  0
ARC
  5
93
100
AcDbEntity
  8
0
  6
ByLayer
 62
  256
370
   -1
100
AcDbCircle
 10
-39.11599999999999
 20
32.512
 40
0.2032
100
AcDbArc
 50
180
 51
0
  0
ARC
  5
94
100
AcDbEntity
  8
0
  6
ByLayer
 62
  256
370
   -1
100
AcDbCircle
 10
-26.55315999999999
 20
32.382968
 40
12.766692075023
100
AcDbArc
 50
174.854283557
 51
179.420905991
  0
ARC
  5
95
100
AcDbEntity
  8
0
  6
ByLayer
 62
  256
370
   -1
100
AcDbCircle
 10
-26.14676
 20
32.382968
 40
12.766692075023
100
AcDbArc
 50
174.854283557
 51
179.420905991
  0
ARC
  5
96
100
AcDbEntity
  8
0
  6
ByLayer
 62
  256
370
   -1
100
AcDbCircle
 10
-39.0652
 20
33.528
 40
0.2032
100
AcDbArc
 50
0
 51
180
  0
ARC
  5
97
100
AcDbEntity
  8
0
  6
ByLayer
 62
  256
370
   -1
100
AcDbCircle
 10
-39.11599999999999
 20
20.828
 40
0.2032
100
AcDbArc
 50
180
 51
0
  0
ARC
  5
98
100
AcDbEntity
  8
0
  6
ByLayer
 62
  256
370
   -1
100
AcDbCircle
 10
-26.55315999999999
 20
20.698968
 40
12.766692075023
100
AcDbArc
 50
174.854283557
 51
179.420905991
  0
ARC
  5
99
100
AcDbEntity
  8
0
  6
ByLayer
 62
  256
370
   -1
100
AcDbCircle
 10
-26.14676
 20
20.698968
 40
12.766692075023
100
AcDbArc
 50
174.854283557
 51
179.420905991
  0
ARC
  5
9A
100
AcDbEntity
  8
0
  6
ByLayer
 62
  256
370
   -1
100
AcDbCircle
 10
-39.0652
 20
21.844
 40
0.2032
100
AcDbArc
 50
0
 51
180
  0
ARC
  5
9B
100
AcDbEntity
  8
0
  6
ByLayer
 62
  256
370
   -1
100
AcDbCircle
 10
-39.11599999999999
 20
11.43
 40
0.2032
100
AcDbArc
 50
180
 51
0
  0
ARC
  5
9C
100
AcDbEntity
  8
0
  6
ByLayer
 62
  256
370
   -1
100
AcDbCircle
 10
-26.55315999999999
 20
11.300968
 40
12.766692075023
100
AcDbArc
 50
174.854283557
 51
179.420905991
  0
ARC
  5
9D
100
AcDbEntity
  8
0
  6
ByLayer
 62
  256
370
   -1
100
AcDbCircle
 10
-26.14676
 20
11.300968
 40
12.766692075023
100
AcDbArc
 50
174.854283557
 51
179.420905991
  0
ARC
  5
9E
100
AcDbEntity
  8
0
  6
ByLayer
 62
  256
370
   -1
100
AcDbCircle
 10
-39.0652
 20
12.446
 40
0.2032
100
AcDbArc
 50
0
 51
180
  0
CIRCLE
  5
9F
100
AcDbEntity
  8
0
  6
ByLayer
 62
  256
370
   -1
100
AcDbCircle
 10
18.79599999999999
 20
41.86936000000001
 40
0.16764
  0
CIRCLE
  5
A0
100
AcDbEntity
  8
0
  6
ByLayer
 62
  256
370
   -1
100
AcDbCircle
 10
16.764
 20
41.86936000000001
 40
0.16764
  0
CIRCLE
  5
A1
100
AcDbEntity
  8
0
  6
ByLayer
 62
  256
370
   -1
100
AcDbCircle
 10
-21.84399999999999
 20
41.148
 40
0.1651
  0
CIRCLE
  5
A2
100
AcDbEntity
  8
0
  6
ByLayer
 62
  256
370
   -1
100
AcDbCircle
 10
-23.876
 20
41.148
 40
0.1651
  0
CIRCLE
  5
A3
100
AcDbEntity
  8
0
  6
ByLayer
 62
  256
370
   -1
100
AcDbCircle
 10
17.78
 20
28.956
 40
0.1778
  0
CIRCLE
  5
A4
100
AcDbEntity
  8
0
  6
ByLayer
 62
  256
370
   -1
100
AcDbCircle
 10
8.001000000000005
 20
30.2006
 40
0.1778
  0
ARC
  5
A5
100
AcDbEntity
  8
0
  6
ByLayer
 62
  256
370
   -1
100
AcDbCircle
 10
-37.71900000000002
 20
42.29100000000002
 40
1.448022789875925
100
AcDbArc
 50
285.2551187030584
 51
344.7448812969419
  0
ARC
  5
A6
100
AcDbEntity
  8
0
  6
ByLayer
 62
  256
370
   -1
100
AcDbCircle
 10
-35.00966666666667
 20
41.57133333333336
 40
1.35532796358994
100
AcDbArc
 50
91.78991060824579
 51
165.5297058999348
  0
ARC
  5
A7
100
AcDbEntity
  8
0
  6
ByLayer
 62
  256
370
   -1
100
AcDbCircle
 10
-21.65349999999984
 20
-44.1960000000023
 40
88.14625735815676
100
AcDbArc
 50
90.78425923804807
 51
98.74302414340427
  0
ARC
  5
A8
100
AcDbEntity
  8
0
  6
ByLayer
 62
  256
370
   -1
100
AcDbCircle
 10
-8.000999999999976
 20
42.29100000000002
 40
1.448022789875925
100
AcDbArc
 50
195.2551187030581
 51
254.7448812969416
  0
ARC
  5
A9
100
AcDbEntity
  8
0
  6
ByLayer
 62
  256
370
   -1
100
AcDbCircle
 10
-10.71033333333332
 20
41.57133333333336
 40
1.35532796358994
100
AcDbArc
 50
14.47029410006519
 51
88.2100893917542
  0
ARC
  5
AA
100
AcDbEntity
  8
0
  6
ByLayer
 62
  256
370
   -1
100
AcDbCircle
 10
-24.06650000000016
 20
-44.19600000000228
 40
88.14625735815676
100
AcDbArc
 50
81.25697585659574
 51
89.21574076195195
  0
LINE
  5
AB
100
AcDbEntity
  8
0
  6
ByLayer
 62
  256
370
   -1
100
AcDbLine
 10
-39.78400000000022
 20
40.24813000000211
 11
-40.64760000000024
 21
39.19657000000209
  0
ARC
  5
AC
100
AcDbEntity
  8
0
  6
ByLayer
 62
  256
370
   -1
100
AcDbCircle
 10
-39.25319051135418
 20
39.79484102270833
 40
0.6980183451548471
100
AcDbArc
 50
109.554535554235
 51
139.5040667410969
  0
ARC
  5
AD
100
AcDbEntity
  8
0
  6
ByLayer
 62
  256
370
   -1
100
AcDbCircle
 10
-35.33958692296045
 20
25.71420692250942
 40
15.31077309288833
100
AcDbArc
 50
97.49983454682554
 51
105.7160589007867
  0
ARC
  5
AE
100
AcDbEntity
  8
0
  6
ByLayer
 62
  256
370
   -1
100
AcDbCircle
 10
-39.61999999999966
 20
34.59
 40
2.022003956475202
100
AcDbArc
 50
168.3010623911994
 51
182.5510950890004
  0
ARC
  5
AF
100
AcDbEntity
  8
0
  6
ByLayer
 62
  256
370
   -1
100
AcDbCircle
 10
-17.66615198999922
 20
35.4445526242308
 40
23.99244814658477
100
AcDbArc
 50
182.2562461370175
 51
187.5098991350175
  0
ARC
  5
B0
100
AcDbEntity
  8
0
  6
ByLayer
 62
  256
370
   -1
100
AcDbCircle
 10
-0.9264705889293481
 20
29.22122416547315
 40
41.08199416896581
100
AcDbArc
 50
166.660050478209
 51
171.913703476209
  0
ARC
  5
B1
100
AcDbEntity
  8
0
  6
ByLayer
 62
  256
370
   -1
100
AcDbCircle
 10
-39.75630757465296
 20
38.43110698248795
 40
1.174876937667486
100
AcDbArc
 50
139.3432358436287
 51
166.7695004057097
  0
ARC
  5
B2
100
AcDbEntity
  8
0
  6
ByLayer
 62
  256
370
   -1
100
AcDbCircle
 10
-5.387746400107105
 20
32.67161359983396
 40
1.17781914694018
100
AcDbArc
 50
297.0889013894555
 51
342.0589411294554
  0
ARC
  5
B3
100
AcDbEntity
  8
0
  6
ByLayer
 62
  256
370
   -1
100
AcDbCircle
 10
-8.001000000015665
 20
42.2909999998588
 40
1.448022789875925
100
AcDbArc
 50
195.2551187025136
 51
254.7448812963971
  0
ARC
  5
B4
100
AcDbEntity
  8
0
  6
ByLayer
 62
  256
370
   -1
100
AcDbCircle
 10
-10.71033333335585
 20
41.57133333321789
 40
1.35532796358994
100
AcDbArc
 50
14.47029409952068
 51
88.21008939120968
  0
LINE
  5
B5
100
AcDbEntity
  8
0
  6
ByLayer
 62
  256
370
   -1
100
AcDbLine
 10
-5.935999999964679
 20
40.24813000016287
 11
-5.072399999954683
 21
39.19657000017107
  0
ARC
  5
B6
100
AcDbEntity
  8
0
  6
ByLayer
 62
  256
370
   -1
100
AcDbCircle
 10
-6.466809488606415
 20
39.79484102286405
 40
0.6980183451548471
100
AcDbArc
 50
40.49593325944741
 51
70.4454644463093
  0
ARC
  5
B7
100
AcDbEntity
  8
0
  6
ByLayer
 62
  256
370
   -1
100
AcDbCircle
 10
-10.38041307686638
 20
25.71420692262797
 40
15.31077309288833
100
AcDbArc
 50
74.28394109975761
 51
82.50016545371876
  0
ARC
  5
B8
100
AcDbEntity
  8
0
  6
ByLayer
 62
  256
370
   -1
100
AcDbCircle
 10
-6.099999999911503
 20
34.59000000015922
 40
2.022003956475202
100
AcDbArc
 50
357.4489049115439
 51
11.6989376093449
  0
ARC
  5
B9
100
AcDbEntity
  8
0
  6
ByLayer
 62
  256
370
   -1
100
AcDbCircle
 10
-28.05384800992005
 20
35.44455262418146
 40
23.99244814658477
100
AcDbArc
 50
352.4901008655268
 51
357.7437538635268
  0
ARC
  5
BA
100
AcDbEntity
  8
0
  6
ByLayer
 62
  256
370
   -1
100
AcDbCircle
 10
-44.7935294109308
 20
29.22122416526479
 40
41.08199416896581
100
AcDbArc
 50
8.086296524335319
 51
13.33994952233528
  0
ARC
  5
BB
100
AcDbEntity
  8
0
  6
ByLayer
 62
  256
370
   -1
100
AcDbCircle
 10
-5.963692425294681
 20
38.43110698264847
 40
1.174876937667486
100
AcDbArc
 50
13.23049959483462
 51
40.65676415691559
  0
MTEXT
  5
BC
100
AcDbEntity
  8
0
  6
ByLayer
 62
  256
370
   -1
100
AcDbMText
 10
14
 20
38
 30
0
 40
0.5
 41
7.41666692381039
 71
    1
 72
    1
  1
Pauldrons Early 15thC\PSize: Small - Medium\PLength: 3 Plates\PPlate: 1R
  7
iso
210
0
220
0
230
1
 50
0
 73
    2
 44
1
  0
MTEXT
  5
BD
100
AcDbEntity
  8
0
  6
ByLayer
 62
  256
370
   -1
100
AcDbMText
 10
-26.87499978799787
 20
37.33333333333334
 30
0
 40
0.5
 41
7.41666692381039
 71
    1
 72
    1
  1
Pauldrons Early 15thC\PSize: Small - Medium\PPlate: 1L
  7
iso
210
0
220
0
230
1
 50
0
 73
    2
 44
1
  0
MTEXT
  5
BE
100
AcDbEntity
  8
0
  6
ByLayer
 62
  256
370
   -1
100
AcDbMText
 10
-26.87499978799787
 20
15.33333333333334
 30
0
 40
0.5
 41
7.41666692381039
 71
    1
 72
    1
  1
Pauldrons Early 15thC\PSize: Small - Medium\PPlate: 3L
  7
iso
210
0
220
0
230
1
 50
0
 73
    2
 44
1
  0
ELLIPSE
  5
BF
100
AcDbEntity
  8
0
  6
ByLayer
 62
  256
370
   -1
100
AcDbEllipse
 10
-5.303226923065196
 20
16.12534630767824
 30
0
 11
-0.4740405355691732
 21
4.689624065383273e-17
 31
0
 40
0.9200000000003221
 41
3.797665235265104
 42
4.88533014787369
  0
LINE
  5
C0
100
AcDbEntity
  8
0
  6
ByLayer
 62
  256
370
   -1
100
AcDbLine
 10
-4.927599999999998
 20
16.391382
 11
-4.063999999999993
 21
15.550134
  0
ELLIPSE
  5
C1
100
AcDbEntity
  8
0
  6
ByLayer
 62
  256
370
   -1
100
AcDbEllipse
 10
-4.635500000000008
 20
15.141194
 30
0
 11
-0.7240113949376944
 21
7.162554690033947e-17
 31
0
 40
0.9200000000003221
 41
3.159134713645103
 42
3.802635822445103
  0
LINE
  5
C2
100
AcDbEntity
  8
0
  6
ByLayer
 62
  256
370
   -1
100
AcDbLine
 10
-5.384799999999998
 20
16.554958
 11
-22.86
 21
16.554958
  0
LINE
  5
C3
100
AcDbEntity
  8
0
  6
ByLayer
 62
  256
370
   -1
100
AcDbLine
 10
-3.911599999999993
 20
15.152878
 11
-4.140199999999993
 21
10.45591
  0
ELLIPSE
  5
C4
100
AcDbEntity
  8
0
  6
ByLayer
 62
  256
370
   -1
100
AcDbEllipse
 10
-40.416773076884
 20
16.12534630767824
 30
0
 11
-0.4740405355691732
 21
2.670448232935006e-17
 31
0
 40
0.9200000000003221
 41
4.539447812895112
 42
5.627112725499687
  0
LINE
  5
C5
100
AcDbEntity
  8
0
  6
ByLayer
 62
  256
370
   -1
100
AcDbLine
 10
-40.79239999999999
 20
16.391382
 11
-41.65600000000001
 21
15.550134
  0
ELLIPSE
  5
C6
100
AcDbEntity
  8
0
  6
ByLayer
 62
  256
370
   -1
100
AcDbEllipse
 10
-41.08450000000002
 20
15.141194
 30
0
 11
-0.7240113949376944
 21
4.078627891842053e-17
 31
0
 40
0.9200000000003221
 41
5.622142138328693
 42
6.265643247124695
  0
LINE
  5
C7
100
AcDbEntity
  8
0
  6
ByLayer
 62
  256
370
   -1
100
AcDbLine
 10
-40.33519999999999
 20
16.554958
 11
-22.86
 21
16.554958
  0
LINE
  5
C8
100
AcDbEntity
  8
0
  6
ByLayer
 62
  256
370
   -1
100
AcDbLine
 10
-41.80840000000001
 20
15.152878
 11
-41.57980000000001
 21
10.45591
  0
CIRCLE
  5
C9
100
AcDbEntity
  8
0
  6
ByLayer
 62
  256
370
   -1
100
AcDbCircle
 10
-39.751
 20
15.199614
 40
0.1778
  0
ELLIPSE
  5
CA
100
AcDbEntity
  8
0
  6
ByLayer
 62
  256
370
   -1
100
AcDbEllipse
 10
-5.303226923065196
 20
25.5233463077392
 30
0
 11
-0.4740405355691732
 21
4.689624065383273e-17
 31
0
 40
0.9200000000003221
 41
3.797665235265104
 42
4.88533014787369
  0
LINE
  5
CB
100
AcDbEntity
  8
0
  6
ByLayer
 62
  256
370
   -1
100
AcDbLine
 10
-4.927599999999998
 20
25.789382
 11
-4.063999999999993
 21
24.948134
  0
ELLIPSE
  5
CC
100
AcDbEntity
  8
0
  6
ByLayer
 62
  256
370
   -1
100
AcDbEllipse
 10
-4.635500000000008
 20
24.539194
 30
0
 11
-0.7240113949376944
 21
7.162554690033947e-17
 31
0
 40
0.9200000000003221
 41
3.159134713645108
 42
3.802635822445107
  0
LINE
  5
CD
100
AcDbEntity
  8
0
  6
ByLayer
 62
  256
370
   -1
100
AcDbLine
 10
-5.384799999999998
 20
25.952958
 11
-22.86
 21
25.952958
  0
LINE
  5
CE
100
AcDbEntity
  8
0
  6
ByLayer
 62
  256
370
   -1
100
AcDbLine
 10
-3.911599999999993
 20
24.550878
 11
-4.140199999999993
 21
19.85391
  0
ELLIPSE
  5
CF
100
AcDbEntity
  8
0
  6
ByLayer
 62
  256
370
   -1
100
AcDbEllipse
 10
-40.416773076884
 20
25.5233463077392
 30
0
 11
-0.4740405355691732
 21
2.670448232935006e-17
 31
0
 40
0.9200000000003221
 41
4.539447812895112
 42
5.627112725499687
  0
LINE
  5
D0
100
AcDbEntity
  8
0
  6
ByLayer
 62
  256
370
   -1
100
AcDbLine
 10
-40.79239999999999
 20
25.789382
 11
-41.65600000000001
 21
24.948134
  0
ELLIPSE
  5
D1
100
AcDbEntity
  8
0
  6
ByLayer
 62
  256
370
   -1
100
AcDbEllipse
 10
-41.08450000000002
 20
24.539194
 30
0
 11
-0.7240113949376944
 21
4.078627891842053e-17
 31
0
 40
0.9200000000003221
 41
5.622142138328689
 42
6.265643247124693
  0
LINE
  5
D2
100
AcDbEntity
  8
0
  6
ByLayer
 62
  256
370
   -1
100
AcDbLine
 10
-40.33519999999999
 20
25.952958
 11
-22.86
 21
25.952958
  0
LINE
  5
D3
100
AcDbEntity
  8
0
  6
ByLayer
 62
  256
370
   -1
100
AcDbLine
 10
-41.80840000000001
 20
24.550878
 11
-41.57980000000001
 21
19.85391
  0
MTEXT
  5
D4
100
AcDbEntity
  8
0
  6
ByLayer
 62
  256
370
   -1
100
AcDbMText
 10
-26.48611089910901
 20
24.33333333333333
 30
0
 40
0.5
 41
7.41666692381039
 71
    1
 72
    1
  1
Pauldrons Early 15thC\PSize: Small - Medium\PPlate: 2L
  7
iso
210
0
220
0
230
1
 50
0
 73
    2
 44
1
  0
ELLIPSE
  5
D5
100
AcDbEntity
  8
0
  6
ByLayer
 62
  256
370
   -1
100
AcDbEllipse
 10
-5.303226923065196
 20
7.082946307674906
 30
0
 11
-0.4740405355691732
 21
4.689624065383273e-17
 31
0
 40
0.9200000000003221
 41
3.797665235265098
 42
4.88533014787369
  0
LINE
  5
D6
100
AcDbEntity
  8
0
  6
ByLayer
 62
  256
370
   -1
100
AcDbLine
 10
-4.927599999999998
 20
7.348981999996663
 11
-4.063999999999993
 21
6.507733999996663
  0
ELLIPSE
  5
D7
100
AcDbEntity
  8
0
  6
ByLayer
 62
  256
370
   -1
100
AcDbEllipse
 10
-4.635500000000008
 20
6.098793999996664
 30
0
 11
-0.7240113949376944
 21
7.162554690033947e-17
 31
0
 40
0.9200000000003221
 41
3.159134713645103
 42
3.802635822445104
  0
LINE
  5
D8
100
AcDbEntity
  8
0
  6
ByLayer
 62
  256
370
   -1
100
AcDbLine
 10
-5.384799999999998
 20
7.512557999996664
 11
-22.86
 21
7.512557999996664
  0
ELLIPSE
  5
D9
100
AcDbEntity
  8
0
  6
ByLayer
 62
  256
370
   -1
100
AcDbEllipse
 10
-40.416773076884
 20
7.082946307674906
 30
0
 11
-0.4740405355691732
 21
2.670448232935006e-17
 31
0
 40
0.9200000000003221
 41
4.539447812895112
 42
5.627112725499691
  0
LINE
  5
DA
100
AcDbEntity
  8
0
  6
ByLayer
 62
  256
370
   -1
100
AcDbLine
 10
-40.79239999999999
 20
7.348981999996663
 11
-41.65600000000001
 21
6.507733999996663
  0
ELLIPSE
  5
DB
100
AcDbEntity
  8
0
  6
ByLayer
 62
  256
370
   -1
100
AcDbEllipse
 10
-41.08450000000002
 20
6.098793999996664
 30
0
 11
-0.7240113949376944
 21
4.078627891842053e-17
 31
0
 40
0.9200000000003221
 41
5.622142138328689
 42
6.265643247124689
  0
LINE
  5
DC
100
AcDbEntity
  8
0
  6
ByLayer
 62
  256
370
   -1
100
AcDbLine
 10
-40.33519999999999
 20
7.512557999996664
 11
-22.86
 21
7.512557999996664
  0
LINE
  5
DD
100
AcDbEntity
  8
0
  6
ByLayer
 62
  256
370
   -1
100
AcDbLine
 10
-41.80840000000001
 20
6.109461999996664
 11
-41.57980000000001
 21
2.835909999996664
  0
LINE
  5
DE
100
AcDbEntity
  8
0
  6
ByLayer
 62
  256
370
   -1
100
AcDbLine
 10
-3.911599999999993
 20
6.110477999996664
 11
-4.140199999999993
 21
2.835909999996664
  0
CIRCLE
  5
DF
100
AcDbEntity
  8
0
  6
ByLayer
 62
  256
370
   -1
100
AcDbCircle
 10
-39.751
 20
6.157213999996664
 40
0.1778
  0
CIRCLE
  5
E0
100
AcDbEntity
  8
0
  6
ByLayer
 62
  256
370
   -1
100
AcDbCircle
 10
-39.751
 20
24.597614
 40
0.1778
  0
LINE
  5
E1
100
AcDbEntity
  8
0
  6
ByLayer
 62
  256
370
   -1
100
AcDbLine
 10
17.78
 20
25.449784
 11
6.858000000000004
 21
25.4508
  0
LINE
  5
E2
100
AcDbEntity
  8
0
  6
ByLayer
 62
  256
370
   -1
100
AcDbLine
 10
6.096000000000004
 20
19.558
 11
6.096000000000004
 21
21.3868
  0
LINE
  5
E3
100
AcDbEntity
  8
0
  6
ByLayer
 62
  256
370
   -1
100
AcDbLine
 10
5.841999999999999
 20
22.1996
 11
4.775199999999998
 21
23.8252
  0
ELLIPSE
  5
E4
100
AcDbEntity
  8
0
  6
ByLayer
 62
  256
370
   -1
100
AcDbEllipse
 10
5.190066666658197
 20
23.99724266667344
 30
0
 11
0.46729250720382
 21
0
 31
0
 40
0.8000000000000002
 41
2.464022064134149
 42
3.619825938063102
  0
LINE
  5
E5
100
AcDbEntity
  8
0
  6
ByLayer
 62
  256
370
   -1
100
AcDbLine
 10
4.825999999999993
 20
24.2316
 11
6.349999999999994
 21
25.28824
  0
ELLIPSE
  5
E6
100
AcDbEntity
  8
0
  6
ByLayer
 62
  256
370
   -1
100
AcDbEllipse
 10
6.908799999999999
 20
24.75992
 30
0
 11
0.8650928273902601
 21
0
 31
0
 40
0.8
 41
1.629552149511845
 42
2.273053258299122
  0
ELLIPSE
  5
E7
100
AcDbEntity
  8
0
  6
ByLayer
 62
  256
370
   -1
100
AcDbEllipse
 10
3.880555555561202
 20
21.37551111110208
 30
0
 11
2.2154893838333
 21
0
 31
0
 40
0.8
 41
0.006369340618670005
 42
0.4835879856346752
  0
ELLIPSE
  5
E8
100
AcDbEntity
  8
0
  6
ByLayer
 62
  256
370
   -1
100
AcDbEllipse
 10
30.369933333418
 20
23.99724266667344
 30
0
 11
0.46729250720382
 21
0
 31
0
 40
0.8000000000000002
 41
5.804952022706273
 42
0.6775705894556445
  0
LINE
  5
E9
100
AcDbEntity
  8
0
  6
ByLayer
 62
  256
370
   -1
100
AcDbLine
 10
30.73400000000001
 20
24.2316
 11
29.21000000000001
 21
25.28824
  0
LINE
  5
EA
100
AcDbEntity
  8
0
  6
ByLayer
 62
  256
370
   -1
100
AcDbLine
 10
17.78
 20
25.449784
 11
28.702
 21
25.4508
  0
ELLIPSE
  5
EB
100
AcDbEntity
  8
0
  6
ByLayer
 62
  256
370
   -1
100
AcDbEllipse
 10
28.6512
 20
24.75992
 30
0
 11
0.8650928273902601
 21
0
 31
0
 40
0.8
 41
0.8685393952854299
 42
1.512040504077949
  0
LINE
  5
EC
100
AcDbEntity
  8
0
  6
ByLayer
 62
  256
370
   -1
100
AcDbLine
 10
29.464
 20
19.558
 11
29.464
 21
21.3868
  0
LINE
  5
ED
100
AcDbEntity
  8
0
  6
ByLayer
 62
  256
370
   -1
100
AcDbLine
 10
29.718
 20
22.1996
 11
30.7848
 21
23.8252
  0
ELLIPSE
  5
EE
100
AcDbEntity
  8
0
  6
ByLayer
 62
  256
370
   -1
100
AcDbEllipse
 10
31.679444444388
 20
21.37551111110208
 30
0
 11
2.2154893838333
 21
0
 31
0
 40
0.8
 41
2.658004667956864
 42
3.135223312966429
  0
LINE
  5
EF
100
AcDbEntity
  8
0
  6
ByLayer
 62
  256
370
   -1
100
AcDbLine
 10
17.78
 20
15.41272
 11
7.366
 21
15.41272
  0
LINE
  5
F0
100
AcDbEntity
  8
0
  6
ByLayer
 62
  256
370
   -1
100
AcDbLine
 10
6.096000000000004
 20
14.49832
 11
6.096000000000004
 21
9.499600000000001
  0
ELLIPSE
  5
F1
100
AcDbEntity
  8
0
  6
ByLayer
 62
  256
370
   -1
100
AcDbEllipse
 10
7.369735294129597
 20
14.38775529410928
 30
0
 11
1.28121132737664
 21
0
 31
0
 40
0.8
 41
1.573711770430004
 42
3.033511086733963
  0
LINE
  5
F2
100
AcDbEntity
  8
0
  6
ByLayer
 62
  256
370
   -1
100
AcDbLine
 10
17.78
 20
15.41272
 11
28.194
 21
15.41272
  0
LINE
  5
F3
100
AcDbEntity
  8
0
  6
ByLayer
 62
  256
370
   -1
100
AcDbLine
 10
29.464
 20
14.49832
 11
29.464
 21
9.499600000000001
  0
ELLIPSE
  5
F4
100
AcDbEntity
  8
0
  6
ByLayer
 62
  256
370
   -1
100
AcDbEllipse
 10
28.190264705972
 20
14.38775529410928
 30
0
 11
1.28121132737664
 21
0
 31
0
 40
0.8
 41
0.1080815668567019
 42
1.567880883159789
  0
MTEXT
  5
F5
100
AcDbEntity
  8
0
  6
ByLayer
 62
  256
370
   -1
100
AcDbMText
 10
14.05555555555551
 20
13.5
 30
0
 40
0.5
 41
7.41666692381039
 71
    1
 72
    1
  1
Pauldrons Early 15thC\PSize: Small - Medium\PPlate: 3R
  7
iso
210
0
220
0
230
1
 50
0
 73
    2
 44
1
  0
MTEXT
  5
F6
100
AcDbEntity
  8
0
  6
ByLayer
 62
  256
370
   -1
100
AcDbMText
 10
-27.05555555555558
 20
6.800000000000001
 30
0
 40
0.5
 41
7.41666692381039
 71
    1
 72
    1
  1
Pauldrons Early 15thC\PSize: Small - Medium\PPlate: 4L
  7
iso
210
0
220
0
230
1
 50
0
 73
    2
 44
1
  0
MTEXT
  5
F7
100
AcDbEntity
  8
0
  6
ByLayer
 62
  256
370
   -1
100
AcDbMText
 10
14.51388910089099
 20
5.333333333333333
 30
0
 40
0.5
 41
7.41666692381039
 71
    1
 72
    1
  1
Pauldrons Early 15thC\PSize: Small - Medium\PPlate: 4R
  7
iso
210
0
220
0
230
1
 50
0
 73
    2
 44
1
  0
MTEXT
  5
F8
100
AcDbEntity
  8
0
  6
ByLayer
 62
  256
370
   -1
100
AcDbMText
 10
14.05555555555551
 20
23.5
 30
0
 40
0.5
 41
7.41666692381039
 71
    1
 72
    1
  1
Pauldrons Early 15thC\PSize: Small - Medium\PPlate: 2R
  7
iso
210
0
220
0
230
1
 50
0
 73
    2
 44
1
  0
LINE
  5
F9
100
AcDbEntity
  8
0
  6
ByLayer
 62
  256
370
   -1
100
AcDbLine
 10
6.096000000000004
 20
4.9784
 11
6.096000000000004
 21
1.524
  0
LINE
  5
FA
100
AcDbEntity
  8
0
  6
ByLayer
 62
  256
370
   -1
100
AcDbLine
 10
29.464
 20
4.9784
 11
29.464
 21
1.524
  0
ELLIPSE
  5
FB
100
AcDbEntity
  8
0
  6
ByLayer
 62
  256
370
   -1
100
AcDbEllipse
 10
28.394121212152
 20
4.935296969701281
 30
0
 11
1.07123458893878
 21
0
 31
0
 40
0.8
 41
0.05031720446148569
 42
1.520479122334109
  0
LINE
  5
FC
100
AcDbEntity
  8
0
  6
ByLayer
 62
  256
370
   -1
100
AcDbLine
 10
28.44800000000001
 20
5.791200000000002
 11
17.78
 21
5.791200000000002
  0
ELLIPSE
  5
FD
100
AcDbEntity
  8
0
  6
ByLayer
 62
  256
370
   -1
100
AcDbEllipse
 10
7.165878787873396
 20
4.935296969701281
 30
0
 11
1.07123458893878
 21
0
 31
0
 40
0.8
 41
1.621113531255684
 42
3.091275449120279
  0
LINE
  5
FE
100
AcDbEntity
  8
0
  6
ByLayer
 62
  256
370
   -1
100
AcDbLine
 10
7.111999999999995
 20
5.791200000000002
 11
17.78
 21
5.791200000000002
  0
CIRCLE
  5
FF
100
AcDbEntity
  8
0
  6
ByLayer
 62
  256
370
   -1
100
AcDbCircle
 10
28.33624
 20
4.3688
 40
0.1778
  0
CIRCLE
  5
100
100
AcDbEntity
  8
0
  6
ByLayer
 62
  256
370
   -1
100
AcDbCircle
 10
28.33624000005777
 20
13.88871999998732
 40
0.1778
  0
CIRCLE
  5
101
100
AcDbEntity
  8
0
  6
ByLayer
 62
  256
370
   -1
100
AcDbCircle
 10
28.34132
 20
24.041608
 40
0.1778
  0
ARC
  5
102
100
AcDbEntity
  8
0
  6
ByLayer
 62
  256
370
   -1
100
AcDbCircle
 10
-48.39870432
 20
99.20593632000001
 40
1.413382976328216
100
AcDbArc
 50
197.94105887
 51
242.91109861
  0
ARC
  5
103
100
AcDbEntity
  8
0
  6
ByLayer
 62
  256
370
   -1
100
AcDbCircle
 10
-26.97918251858064
 20
180.5198635191
 40
85.469063047308
100
AcDbArc
 50
255.040168555
 51
269.696443941
  0
ARC
  5
104
100
AcDbEntity
  8
0
  6
ByLayer
 62
  256
370
   -1
100
AcDbCircle
 10
-6.465295679999997
 20
99.20593632000001
 40
1.413382976328216
100
AcDbArc
 50
297.08890139
 51
342.05894113
  0
ARC
  5
105
100
AcDbEntity
  8
0
  6
ByLayer
 62
  256
370
   -1
100
AcDbCircle
 10
-27.88481748141936
 20
180.5198635191
 40
85.469063047308
100
AcDbArc
 50
270.303556059
 51
284.959831445
  0
ELLIPSE
  5
106
100
AcDbEntity
  8
0
  6
ByLayer
 62
  256
370
   -1
100
AcDbEllipse
 10
-5.370341538482642
 20
72.67112215383912
 30
0
 11
2.549106943216608e-17
 21
0.478761681344928
 31
0
 40
0.8695652173910001
 41
3.008855040150003
 42
4.450335474079998
  0
LINE
  5
107
100
AcDbEntity
  8
0
  6
ByLayer
 62
  256
370
   -1
100
AcDbLine
 10
-5.425439999999992
 20
72.19657200003047
 11
-27.432
 21
72.196572
  0
ELLIPSE
  5
108
100
AcDbEntity
  8
0
  6
ByLayer
 62
  256
370
   -1
100
AcDbEllipse
 10
-49.49365846160881
 20
72.67112215383912
 30
0
 11
0
 21
0.478761681344928
 31
0
 40
0.8695652173910001
 41
1.832849833100017
 42
3.274330267029993
  0
LINE
  5
109
100
AcDbEntity
  8
0
  6
ByLayer
 62
  256
370
   -1
100
AcDbLine
 10
-49.43856
 20
72.19657200003047
 11
-27.432
 21
72.196572
  0
ELLIPSE
  5
10A
100
AcDbEntity
  8
0
  6
ByLayer
 62
  256
370
   -1
100
AcDbEllipse
 10
-5.370341538482642
 20
83.94872215383913
 30
0
 11
2.549106943216608e-17
 21
0.478761681344928
 31
0
 40
0.8695652173910001
 41
3.008855040149999
 42
4.450335474079998
  0
LINE
  5
10B
100
AcDbEntity
  8
0
  6
ByLayer
 62
  256
370
   -1
100
AcDbLine
 10
-5.425439999999992
 20
83.47417200003048
 11
-27.432
 21
83.47417200000001
  0
ELLIPSE
  5
10C
100
AcDbEntity
  8
0
  6
ByLayer
 62
  256
370
   -1
100
AcDbEllipse
 10
-49.49365846160881
 20
83.94872215383913
 30
0
 11
0
 21
0.478761681344928
 31
0
 40
0.8695652173910001
 41
1.832849833100017
 42
3.274330267029993
  0
LINE
  5
10D
100
AcDbEntity
  8
0
  6
ByLayer
 62
  256
370
   -1
100
AcDbLine
 10
-49.43856
 20
83.47417200003048
 11
-27.432
 21
83.47417200000001
  0
ARC
  5
10E
100
AcDbEntity
  8
0
  6
ByLayer
 62
  256
370
   -1
100
AcDbCircle
 10
23.00817969216936
 20
153.086154462828
 40
59.886304794588
100
AcDbArc
 50
255.713109906
 51
268.399946473
  0
ARC
  5
10F
100
AcDbEntity
  8
0
  6
ByLayer
 62
  256
370
   -1
100
AcDbCircle
 10
15.17250857143728
 20
114.2827028571864
 40
20.44563307434168
100
AcDbArc
 50
237.056189081
 51
250.148770648
  0
ARC
  5
110
100
AcDbEntity
  8
0
  6
ByLayer
 62
  256
370
   -1
100
AcDbCircle
 10
4.229099999999994
 20
97.42182
 40
0.345010173763896
100
AcDbArc
 50
210.5297059
 51
239.4702941
  0
ELLIPSE
  5
111
100
AcDbEntity
  8
0
  6
ByLayer
 62
  256
370
   -1
100
AcDbEllipse
 10
8.708636288387288
 20
71.40924113739791
 30
0
 11
1.393475839482168
 21
0
 31
0
 40
0.9259259259259999
 41
3.149126998589989
 42
4.728218161799999
  0
LINE
  5
112
100
AcDbEntity
  8
0
  6
ByLayer
 62
  256
370
   -1
100
AcDbLine
 10
8.8392
 20
82.2504
 11
21.336
 21
82.2504
  0
LINE
  5
113
100
AcDbEntity
  8
0
  6
ByLayer
 62
  256
370
   -1
100
AcDbLine
 10
8.761171200000007
 20
70.11936
 11
21.336
 21
70.08887999999999
  0
LINE
  5
114
100
AcDbEntity
  8
0
  6
ByLayer
 62
  256
370
   -1
100
AcDbLine
 10
8.8392
 20
60.60960000000305
 11
21.336
 21
60.6096
  0
ARC
  5
115
100
AcDbEntity
  8
0
  6
ByLayer
 62
  256
370
   -1
100
AcDbCircle
 10
8.860971428562721
 20
83.83971428571863
 40
1.589463398094024
100
AcDbArc
 50
193.465208095
 51
269.215175397
  0
LINE
  5
116
100
AcDbEntity
  8
0
  6
ByLayer
 62
  256
370
   -1
100
AcDbLine
 10
33.8328
 20
82.2504
 11
21.336
 21
82.2504
  0
ARC
  5
117
100
AcDbEntity
  8
0
  6
ByLayer
 62
  256
370
   -1
100
AcDbCircle
 10
33.81102857155919
 20
83.83971428571863
 40
1.589463398094024
100
AcDbArc
 50
270.784824603
 51
346.534791905
  0
ARC
  5
118
100
AcDbEntity
  8
0
  6
ByLayer
 62
  256
370
   -1
100
AcDbCircle
 10
8.860971428562721
 20
62.19891428571559
 40
1.589463398094024
100
AcDbArc
 50
193.465208095
 51
269.215175397
  0
LINE
  5
119
100
AcDbEntity
  8
0
  6
ByLayer
 62
  256
370
   -1
100
AcDbLine
 10
33.8328
 20
60.60960000000305
 11
21.336
 21
60.6096
  0
ARC
  5
11A
100
AcDbEntity
  8
0
  6
ByLayer
 62
  256
370
   -1
100
AcDbCircle
 10
33.81102857155919
 20
62.19891428571559
 40
1.589463398094024
100
AcDbArc
 50
270.784824603
 51
346.534791905
  0
ELLIPSE
  5
11B
100
AcDbEntity
  8
0
  6
ByLayer
 62
  256
370
   -1
100
AcDbEllipse
 10
-5.370341538482642
 20
63.52712215383912
 30
0
 11
2.549106943216608e-17
 21
0.478761681344928
 31
0
 40
0.8695652173910001
 41
3.008855040149997
 42
4.450335474079998
  0
LINE
  5
11C
100
AcDbEntity
  8
0
  6
ByLayer
 62
  256
370
   -1
100
AcDbLine
 10
-5.425439999999992
 20
63.05257200003048
 11
-27.432
 21
63.052572
  0
ELLIPSE
  5
11D
100
AcDbEntity
  8
0
  6
ByLayer
 62
  256
370
   -1
100
AcDbEllipse
 10
-49.49365846160881
 20
63.52712215383912
 30
0
 11
0
 21
0.478761681344928
 31
0
 40
0.8695652173910001
 41
1.832849833099989
 42
3.274330267029995
  0
LINE
  5
11E
100
AcDbEntity
  8
0
  6
ByLayer
 62
  256
370
   -1
100
AcDbLine
 10
-49.43856
 20
63.05257200003048
 11
-27.432
 21
63.052572
  0
LINE
  5
11F
100
AcDbEntity
  8
0
  6
ByLayer
 62
  256
370
   -1
100
AcDbLine
 10
2.438399999999996
 20
100.5384
 11
3.931920000000002
 21
97.24655999999999
  0
ARC
  5
120
100
AcDbEntity
  8
0
  6
ByLayer
 62
  256
370
   -1
100
AcDbCircle
 10
9.427028571437273
 20
103.796857142712
 40
7.71093199691136
100
AcDbArc
 50
118.132754854
 51
204.9973475
  0
ARC
  5
121
100
AcDbEntity
  8
0
  6
ByLayer
 62
  256
370
   -1
100
AcDbCircle
 10
20.42868837183288
 20
85.64573023282608
 40
28.92770209267416
100
AcDbArc
 50
88.2026344848
 51
120.397920413
  0
ARC
  5
122
100
AcDbEntity
  8
0
  6
ByLayer
 62
  256
370
   -1
100
AcDbCircle
 10
19.66382030783064
 20
153.086154462828
 40
59.886304794588
100
AcDbArc
 50
271.600053527
 51
284.286890094
  0
ARC
  5
123
100
AcDbEntity
  8
0
  6
ByLayer
 62
  256
370
   -1
100
AcDbCircle
 10
27.49949142856272
 20
114.2827028571864
 40
20.44563307434168
100
AcDbArc
 50
289.851229352
 51
302.943810919
  0
ARC
  5
124
100
AcDbEntity
  8
0
  6
ByLayer
 62
  256
370
   -1
100
AcDbCircle
 10
38.44290000000001
 20
97.42182
 40
0.345010173763896
100
AcDbArc
 50
300.5297059
 51
329.4702941
  0
LINE
  5
125
100
AcDbEntity
  8
0
  6
ByLayer
 62
  256
370
   -1
100
AcDbLine
 10
40.23359999999999
 20
100.5384
 11
38.74008
 21
97.24655999999999
  0
ARC
  5
126
100
AcDbEntity
  8
0
  6
ByLayer
 62
  256
370
   -1
100
AcDbCircle
 10
33.2449714284408
 20
103.796857142712
 40
7.71093199691136
100
AcDbArc
 50
335.0026525
 51
61.8672451458
  0
ARC
  5
127
100
AcDbEntity
  8
0
  6
ByLayer
 62
  256
370
   -1
100
AcDbCircle
 10
22.24331162816712
 20
85.64573023282608
 40
28.92770209267416
100
AcDbArc
 50
59.60207958720001
 51
91.7973655152
  0
ELLIPSE
  5
128
100
AcDbEntity
  8
0
  6
ByLayer
 62
  256
370
   -1
100
AcDbEllipse
 10
33.9633637116432
 20
71.40924113739791
 30
0
 11
-1.393475839482168
 21
0
 31
0
 40
0.9259259259259999
 41
1.586469964650001
 42
3.134058308590005
  0
LINE
  5
129
100
AcDbEntity
  8
0
  6
ByLayer
 62
  256
370
   -1
100
AcDbLine
 10
33.98520365302801
 20
70.11914421117072
 11
21.336
 21
70.08887999999999
  0
ARC
  5
12A
100
AcDbEntity
  8
0
  6
ByLayer
 62
  256
370
   -1
100
AcDbCircle
 10
-45.26280000000003
 20
110.7492
 40
1.73762734785111
100
AcDbArc
 50
285.2551187030584
 51
344.7448812969419
  0
ARC
  5
12B
100
AcDbEntity
  8
0
  6
ByLayer
 62
  256
370
   -1
100
AcDbCircle
 10
-42.01160000000001
 20
109.8856
 40
1.626393556307928
100
AcDbArc
 50
91.78991060824579
 51
165.5297058999348
  0
ARC
  5
12C
100
AcDbEntity
  8
0
  6
ByLayer
 62
  256
370
   -1
100
AcDbCircle
 10
-25.98419999999981
 20
6.96479999999724
 40
105.7755088297881
100
AcDbArc
 50
90.78425923804807
 51
98.74302414340427
  0
ARC
  5
12D
100
AcDbEntity
  8
0
  6
ByLayer
 62
  256
370
   -1
100
AcDbCircle
 10
-9.601199999999972
 20
110.7492
 40
1.73762734785111
100
AcDbArc
 50
195.2551187030581
 51
254.7448812969416
  0
ARC
  5
12E
100
AcDbEntity
  8
0
  6
ByLayer
 62
  256
370
   -1
100
AcDbCircle
 10
-12.85239999999999
 20
109.8856
 40
1.626393556307928
100
AcDbArc
 50
14.47029410006519
 51
88.2100893917542
  0
ARC
  5
12F
100
AcDbEntity
  8
0
  6
ByLayer
 62
  256
370
   -1
100
AcDbCircle
 10
-28.87980000000019
 20
6.964799999997268
 40
105.7755088297881
100
AcDbArc
 50
81.25697585659574
 51
89.21574076195195
  0
LINE
  5
130
100
AcDbEntity
  8
0
  6
ByLayer
 62
  256
370
   -1
100
AcDbLine
 10
-47.74080000000026
 20
108.2977560000025
 11
-48.77712000000029
 21
107.0358840000025
  0
ARC
  5
131
100
AcDbEntity
  8
0
  6
ByLayer
 62
  256
370
   -1
100
AcDbCircle
 10
-47.10382861362501
 20
107.75380922725
 40
0.8376220141858165
100
AcDbArc
 50
109.554535554235
 51
139.5040667410969
  0
ARC
  5
132
100
AcDbEntity
  8
0
  6
ByLayer
 62
  256
370
   -1
100
AcDbCircle
 10
-42.40750430755254
 20
90.8570483070113
 40
18.372927711466
100
AcDbArc
 50
97.49983454682554
 51
105.7160589007867
  0
ARC
  5
133
100
AcDbEntity
  8
0
  6
ByLayer
 62
  256
370
   -1
100
AcDbCircle
 10
-47.54399999999959
 20
101.508
 40
2.426404747770243
100
AcDbArc
 50
168.3010623911994
 51
182.5510950890004
  0
ARC
  5
134
100
AcDbEntity
  8
0
  6
ByLayer
 62
  256
370
   -1
100
AcDbCircle
 10
-21.19938238799907
 20
102.533463149077
 40
28.79093777590172
100
AcDbArc
 50
182.2562461370175
 51
187.5098991350175
  0
ARC
  5
135
100
AcDbEntity
  8
0
  6
ByLayer
 62
  256
370
   -1
100
AcDbCircle
 10
-1.111764706715218
 20
95.06546899856778
 40
49.29839300275896
100
AcDbArc
 50
166.660050478209
 51
171.913703476209
  0
ARC
  5
136
100
AcDbEntity
  8
0
  6
ByLayer
 62
  256
370
   -1
100
AcDbCircle
 10
-47.70756908958356
 20
106.1173283789855
 40
1.409852325200983
100
AcDbArc
 50
139.3432358436287
 51
166.7695004057097
  0
ARC
  5
137
100
AcDbEntity
  8
0
  6
ByLayer
 62
  256
370
   -1
100
AcDbCircle
 10
-6.465295680128525
 20
99.20593631980074
 40
1.413382976328216
100
AcDbArc
 50
297.0889013894555
 51
342.0589411294554
  0
ARC
  5
138
100
AcDbEntity
  8
0
  6
ByLayer
 62
  256
370
   -1
100
AcDbCircle
 10
-9.601200000018798
 20
110.7491999998306
 40
1.73762734785111
100
AcDbArc
 50
195.2551187025136
 51
254.7448812963971
  0
ARC
  5
139
100
AcDbEntity
  8
0
  6
ByLayer
 62
  256
370
   -1
100
AcDbCircle
 10
-12.85240000002702
 20
109.8855999998615
 40
1.626393556307928
100
AcDbArc
 50
14.47029409952068
 51
88.21008939120968
  0
LINE
  5
13A
100
AcDbEntity
  8
0
  6
ByLayer
 62
  256
370
   -1
100
AcDbLine
 10
-7.123199999957614
 20
108.2977560001954
 11
-6.08687999994562
 21
107.0358840002053
  0
ARC
  5
13B
100
AcDbEntity
  8
0
  6
ByLayer
 62
  256
370
   -1
100
AcDbCircle
 10
-7.760171386327698
 20
107.7538092274368
 40
0.8376220141858165
100
AcDbArc
 50
40.49593325944741
 51
70.4454644463093
  0
ARC
  5
13C
100
AcDbEntity
  8
0
  6
ByLayer
 62
  256
370
   -1
100
AcDbCircle
 10
-12.45649569223965
 20
90.85704830715356
 40
18.372927711466
100
AcDbArc
 50
74.28394109975761
 51
82.50016545371876
  0
ARC
  5
13D
100
AcDbEntity
  8
0
  6
ByLayer
 62
  256
370
   -1
100
AcDbCircle
 10
-7.319999999893803
 20
101.5080000001911
 40
2.426404747770243
100
AcDbArc
 50
357.4489049115439
 51
11.6989376093449
  0
ARC
  5
13E
100
AcDbEntity
  8
0
  6
ByLayer
 62
  256
370
   -1
100
AcDbCircle
 10
-33.66461761190406
 20
102.5334631490177
 40
28.79093777590172
100
AcDbArc
 50
352.4901008655268
 51
357.7437538635268
  0
ARC
  5
13F
100
AcDbEntity
  8
0
  6
ByLayer
 62
  256
370
   -1
100
AcDbCircle
 10
-53.75223529311696
 20
95.06546899831775
 40
49.29839300275896
100
AcDbArc
 50
8.086296524335319
 51
13.33994952233528
  0
ARC
  5
140
100
AcDbEntity
  8
0
  6
ByLayer
 62
  256
370
   -1
100
AcDbCircle
 10
-7.156430910353618
 20
106.1173283791781
 40
1.409852325200983
100
AcDbArc
 50
13.23049959483462
 51
40.65676415691559
  0
ELLIPSE
  5
141
100
AcDbEntity
  8
0
  6
ByLayer
 62
  256
370
   -1
100
AcDbEllipse
 10
-6.363872307678236
 20
79.35041556921389
 30
0
 11
-0.5688486426830077
 21
5.627548878459926e-17
 31
0
 40
0.9200000000003221
 41
3.797665235265099
 42
4.885330147873689
  0
LINE
  5
142
100
AcDbEntity
  8
0
  6
ByLayer
 62
  256
370
   -1
100
AcDbLine
 10
-5.913119999999997
 20
79.66965839999999
 11
-4.876799999999991
 21
78.6601608
  0
ELLIPSE
  5
143
100
AcDbEntity
  8
0
  6
ByLayer
 62
  256
370
   -1
100
AcDbEllipse
 10
-5.562600000000009
 20
78.1694328
 30
0
 11
-0.8688136739252332
 21
8.595065628040737e-17
 31
0
 40
0.9200000000003221
 41
3.159134713645112
 42
3.802635822445106
  0
LINE
  5
144
100
AcDbEntity
  8
0
  6
ByLayer
 62
  256
370
   -1
100
AcDbLine
 10
-6.461759999999998
 20
79.86594959999999
 11
-27.432
 21
79.86594959999999
  0
LINE
  5
145
100
AcDbEntity
  8
0
  6
ByLayer
 62
  256
370
   -1
100
AcDbLine
 10
-4.693919999999991
 20
78.18345360000001
 11
-4.968239999999992
 21
72.54709200000001
  0
ELLIPSE
  5
146
100
AcDbEntity
  8
0
  6
ByLayer
 62
  256
370
   -1
100
AcDbEllipse
 10
-48.5001276922608
 20
79.35041556921389
 30
0
 11
-0.5688486426830077
 21
3.204537879522007e-17
 31
0
 40
0.9200000000003221
 41
4.539447812895116
 42
5.627112725499691
  0
LINE
  5
147
100
AcDbEntity
  8
0
  6
ByLayer
 62
  256
370
   -1
100
AcDbLine
 10
-48.95087999999998
 20
79.66965839999999
 11
-49.98720000000001
 21
78.6601608
  0
ELLIPSE
  5
148
100
AcDbEntity
  8
0
  6
ByLayer
 62
  256
370
   -1
100
AcDbEllipse
 10
-49.30140000000002
 20
78.1694328
 30
0
 11
-0.8688136739252332
 21
4.894353470210464e-17
 31
0
 40
0.9200000000003221
 41
5.622142138328702
 42
6.265643247124695
  0
LINE
  5
149
100
AcDbEntity
  8
0
  6
ByLayer
 62
  256
370
   -1
100
AcDbLine
 10
-48.40223999999998
 20
79.86594959999999
 11
-27.432
 21
79.86594959999999
  0
LINE
  5
14A
100
AcDbEntity
  8
0
  6
ByLayer
 62
  256
370
   -1
100
AcDbLine
 10
-50.17008000000001
 20
78.18345360000001
 11
-49.89576
 21
72.54709200000001
  0
ELLIPSE
  5
14B
100
AcDbEntity
  8
0
  6
ByLayer
 62
  256
370
   -1
100
AcDbEllipse
 10
-6.363872307678236
 20
90.62801556928704
 30
0
 11
-0.5688486426830077
 21
5.627548878459926e-17
 31
0
 40
0.9200000000003221
 41
3.797665235265121
 42
4.885330147873689
  0
LINE
  5
14C
100
AcDbEntity
  8
0
  6
ByLayer
 62
  256
370
   -1
100
AcDbLine
 10
-5.913119999999997
 20
90.94725840000001
 11
-4.876799999999991
 21
89.93776079999999
  0
ELLIPSE
  5
14D
100
AcDbEntity
  8
0
  6
ByLayer
 62
  256
370
   -1
100
AcDbEllipse
 10
-5.562600000000009
 20
89.44703280000002
 30
0
 11
-0.8688136739252332
 21
8.595065628040737e-17
 31
0
 40
0.9200000000003221
 41
3.159134713645094
 42
3.802635822445108
  0
LINE
  5
14E
100
AcDbEntity
  8
0
  6
ByLayer
 62
  256
370
   -1
100
AcDbLine
 10
-6.461759999999998
 20
91.1435496
 11
-27.432
 21
91.1435496
  0
LINE
  5
14F
100
AcDbEntity
  8
0
  6
ByLayer
 62
  256
370
   -1
100
AcDbLine
 10
-4.693919999999991
 20
89.4610536
 11
-4.968239999999992
 21
83.824692
  0
ELLIPSE
  5
150
100
AcDbEntity
  8
0
  6
ByLayer
 62
  256
370
   -1
100
AcDbEllipse
 10
-48.5001276922608
 20
90.62801556928704
 30
0
 11
-0.5688486426830077
 21
3.204537879522007e-17
 31
0
 40
0.9200000000003221
 41
4.53944781289512
 42
5.627112725499691
  0
LINE
  5
151
100
AcDbEntity
  8
0
  6
ByLayer
 62
  256
370
   -1
100
AcDbLine
 10
-48.95087999999998
 20
90.94725840000001
 11
-49.98720000000001
 21
89.93776079999999
  0
ELLIPSE
  5
152
100
AcDbEntity
  8
0
  6
ByLayer
 62
  256
370
   -1
100
AcDbEllipse
 10
-49.30140000000002
 20
89.44703280000002
 30
0
 11
-0.8688136739252332
 21
4.894353470210464e-17
 31
0
 40
0.9200000000003221
 41
5.622142138328687
 42
6.265643247124713
  0
LINE
  5
153
100
AcDbEntity
  8
0
  6
ByLayer
 62
  256
370
   -1
100
AcDbLine
 10
-48.40223999999998
 20
91.1435496
 11
-27.432
 21
91.1435496
  0
LINE
  5
154
100
AcDbEntity
  8
0
  6
ByLayer
 62
  256
370
   -1
100
AcDbLine
 10
-50.17008000000001
 20
89.4610536
 11
-49.89576
 21
83.824692
  0
ELLIPSE
  5
155
100
AcDbEntity
  8
0
  6
ByLayer
 62
  256
370
   -1
100
AcDbEllipse
 10
-6.363872307678236
 20
68.49953556920988
 30
0
 11
-0.5688486426830077
 21
5.627548878459926e-17
 31
0
 40
0.9200000000003221
 41
3.797665235265118
 42
4.885330147873689
  0
LINE
  5
156
100
AcDbEntity
  8
0
  6
ByLayer
 62
  256
370
   -1
100
AcDbLine
 10
-5.913119999999997
 20
68.81877839999601
 11
-4.876799999999991
 21
67.80928079999599
  0
ELLIPSE
  5
157
100
AcDbEntity
  8
0
  6
ByLayer
 62
  256
370
   -1
100
AcDbEllipse
 10
-5.562600000000009
 20
67.31855279999598
 30
0
 11
-0.8688136739252332
 21
8.595065628040737e-17
 31
0
 40
0.9200000000003221
 41
3.159134713645112
 42
3.802635822445108
  0
LINE
  5
158
100
AcDbEntity
  8
0
  6
ByLayer
 62
  256
370
   -1
100
AcDbLine
 10
-6.461759999999998
 20
69.015069599996
 11
-27.432
 21
69.015069599996
  0
ELLIPSE
  5
159
100
AcDbEntity
  8
0
  6
ByLayer
 62
  256
370
   -1
100
AcDbEllipse
 10
-48.5001276922608
 20
68.49953556920988
 30
0
 11
-0.5688486426830077
 21
3.204537879522007e-17
 31
0
 40
0.9200000000003221
 41
4.53944781289512
 42
5.627112725499691
  0
LINE
  5
15A
100
AcDbEntity
  8
0
  6
ByLayer
 62
  256
370
   -1
100
AcDbLine
 10
-48.95087999999998
 20
68.81877839999601
 11
-49.98720000000001
 21
67.80928079999599
  0
ELLIPSE
  5
15B
100
AcDbEntity
  8
0
  6
ByLayer
 62
  256
370
   -1
100
AcDbEllipse
 10
-49.30140000000002
 20
67.31855279999598
 30
0
 11
-0.8688136739252332
 21
4.894353470210464e-17
 31
0
 40
0.9200000000003221
 41
5.622142138328674
 42
6.265643247124695
  0
LINE
  5
15C
100
AcDbEntity
  8
0
  6
ByLayer
 62
  256
370
   -1
100
AcDbLine
 10
-48.40223999999998
 20
69.015069599996
 11
-27.432
 21
69.015069599996
  0
LINE
  5
15D
100
AcDbEntity
  8
0
  6
ByLayer
 62
  256
370
   -1
100
AcDbLine
 10
-50.17008000000001
 20
67.331354399996
 11
-49.89576
 21
63.403091999996
  0
LINE
  5
15E
100
AcDbEntity
  8
0
  6
ByLayer
 62
  256
370
   -1
100
AcDbLine
 10
-4.693919999999991
 20
67.332573599996
 11
-4.968239999999992
 21
63.403091999996
  0
LINE
  5
15F
100
AcDbEntity
  8
0
  6
ByLayer
 62
  256
370
   -1
100
AcDbLine
 10
21.336
 20
90.53974079999999
 11
8.229600000000005
 21
90.54096
  0
LINE
  5
160
100
AcDbEntity
  8
0
  6
ByLayer
 62
  256
370
   -1
100
AcDbLine
 10
7.315200000000004
 20
83.46959999999999
 11
7.315200000000004
 21
85.66416
  0
LINE
  5
161
100
AcDbEntity
  8
0
  6
ByLayer
 62
  256
370
   -1
100
AcDbLine
 10
7.010399999999998
 20
86.63952
 11
5.730239999999998
 21
88.59023999999999
  0
ELLIPSE
  5
162
100
AcDbEntity
  8
0
  6
ByLayer
 62
  256
370
   -1
100
AcDbEllipse
 10
6.228079999989836
 20
88.79669120000813
 30
0
 11
0.5607510086445839
 21
0
 31
0
 40
0.8000000000000003
 41
2.464022064134122
 42
3.619825938063096
  0
LINE
  5
163
100
AcDbEntity
  8
0
  6
ByLayer
 62
  256
370
   -1
100
AcDbLine
 10
5.791199999999992
 20
89.07792000000001
 11
7.619999999999993
 21
90.345888
  0
ELLIPSE
  5
164
100
AcDbEntity
  8
0
  6
ByLayer
 62
  256
370
   -1
100
AcDbEllipse
 10
8.290559999999999
 20
89.71190399999999
 30
0
 11
1.038111392868312
 21
0
 31
0
 40
0.8000000000000002
 41
1.629552149511845
 42
2.273053258299127
  0
ELLIPSE
  5
165
100
AcDbEntity
  8
0
  6
ByLayer
 62
  256
370
   -1
100
AcDbEllipse
 10
4.656666666673442
 20
85.6506133333225
 30
0
 11
2.65858726059996
 21
0
 31
0
 40
0.7999999999999999
 41
0.006369340618670449
 42
0.4835879856346743
  0
ELLIPSE
  5
166
100
AcDbEntity
  8
0
  6
ByLayer
 62
  256
370
   -1
100
AcDbEllipse
 10
36.44392000010161
 20
88.79669120000813
 30
0
 11
0.5607510086445839
 21
0
 31
0
 40
0.8000000000000003
 41
5.804952022706281
 42
0.6775705894556809
  0
LINE
  5
167
100
AcDbEntity
  8
0
  6
ByLayer
 62
  256
370
   -1
100
AcDbLine
 10
36.88080000000001
 20
89.07792000000001
 11
35.05200000000001
 21
90.345888
  0
LINE
  5
168
100
AcDbEntity
  8
0
  6
ByLayer
 62
  256
370
   -1
100
AcDbLine
 10
21.336
 20
90.53974079999999
 11
34.4424
 21
90.54096
  0
ELLIPSE
  5
169
100
AcDbEntity
  8
0
  6
ByLayer
 62
  256
370
   -1
100
AcDbEllipse
 10
34.38144
 20
89.71190399999999
 30
0
 11
1.038111392868312
 21
0
 31
0
 40
0.8000000000000002
 41
0.8685393952854383
 42
1.512040504077951
  0
LINE
  5
16A
100
AcDbEntity
  8
0
  6
ByLayer
 62
  256
370
   -1
100
AcDbLine
 10
35.3568
 20
83.46959999999999
 11
35.3568
 21
85.66416
  0
LINE
  5
16B
100
AcDbEntity
  8
0
  6
ByLayer
 62
  256
370
   -1
100
AcDbLine
 10
35.6616
 20
86.63952
 11
36.94176
 21
88.59023999999999
  0
ELLIPSE
  5
16C
100
AcDbEntity
  8
0
  6
ByLayer
 62
  256
370
   -1
100
AcDbEllipse
 10
38.01533333326559
 20
85.6506133333225
 30
0
 11
2.65858726059996
 21
0
 31
0
 40
0.7999999999999999
 41
2.658004667956857
 42
3.135223312966426
  0
LINE
  5
16D
100
AcDbEntity
  8
0
  6
ByLayer
 62
  256
370
   -1
100
AcDbLine
 10
21.336
 20
78.49526400000001
 11
8.8392
 21
78.49526400000001
  0
LINE
  5
16E
100
AcDbEntity
  8
0
  6
ByLayer
 62
  256
370
   -1
100
AcDbLine
 10
7.315200000000004
 20
77.39798400000001
 11
7.315200000000004
 21
71.39952
  0
ELLIPSE
  5
16F
100
AcDbEntity
  8
0
  6
ByLayer
 62
  256
370
   -1
100
AcDbEllipse
 10
8.843682352955517
 20
77.26530635293113
 30
0
 11
1.537453592851968
 21
0
 31
0
 40
0.7999999999999999
 41
1.573711770430004
 42
3.033511086733967
  0
LINE
  5
170
100
AcDbEntity
  8
0
  6
ByLayer
 62
  256
370
   -1
100
AcDbLine
 10
21.336
 20
78.49526400000001
 11
33.8328
 21
78.49526400000001
  0
LINE
  5
171
100
AcDbEntity
  8
0
  6
ByLayer
 62
  256
370
   -1
100
AcDbLine
 10
35.3568
 20
77.39798400000001
 11
35.3568
 21
71.39952
  0
ELLIPSE
  5
172
100
AcDbEntity
  8
0
  6
ByLayer
 62
  256
370
   -1
100
AcDbEllipse
 10
33.82831764716639
 20
77.26530635293113
 30
0
 11
1.537453592851968
 21
0
 31
0
 40
0.7999999999999999
 41
0.1080815668567099
 42
1.567880883159786
  0
LINE
  5
173
100
AcDbEntity
  8
0
  6
ByLayer
 62
  256
370
   -1
100
AcDbLine
 10
7.315200000000004
 20
65.97407999999999
 11
7.315200000000004
 21
61.8288
  0
LINE
  5
174
100
AcDbEntity
  8
0
  6
ByLayer
 62
  256
370
   -1
100
AcDbLine
 10
35.3568
 20
65.97407999999999
 11
35.3568
 21
61.8288
  0
ELLIPSE
  5
175
100
AcDbEntity
  8
0
  6
ByLayer
 62
  256
370
   -1
100
AcDbEllipse
 10
34.0729454545824
 20
65.92235636364154
 30
0
 11
1.285481506726536
 21
0
 31
0
 40
0.8000000000000002
 41
0.05031720446148791
 42
1.520479122334112
  0
LINE
  5
176
100
AcDbEntity
  8
0
  6
ByLayer
 62
  256
370
   -1
100
AcDbLine
 10
34.13760000000001
 20
66.94944000000001
 11
21.336
 21
66.94944000000001
  0
ELLIPSE
  5
177
100
AcDbEntity
  8
0
  6
ByLayer
 62
  256
370
   -1
100
AcDbEllipse
 10
8.599054545448075
 20
65.92235636364154
 30
0
 11
1.285481506726536
 21
0
 31
0
 40
0.8000000000000002
 41
1.621113531255684
 42
3.091275449120281
  0
LINE
  5
178
100
AcDbEntity
  8
0
  6
ByLayer
 62
  256
370
   -1
100
AcDbLine
 10
8.534399999999993
 20
66.94944000000001
 11
21.336
 21
66.94944000000001
  0
ARC
  5
179
100
AcDbEntity
  8
0
  6
ByLayer
 62
  256
370
   -1
100
AcDbCircle
 10
-46.93919999999998
 20
73.71600000000001
 40
0.2048256
100
AcDbArc
 50
180
 51
0
  0
ARC
  5
17A
100
AcDbEntity
  8
0
  6
ByLayer
 62
  256
370
   -1
100
AcDbCircle
 10
-34.27585727999999
 20
73.585935744
 40
12.86882561162318
100
AcDbArc
 50
174.854283557
 51
179.420905991
  0
ARC
  5
17B
100
AcDbEntity
  8
0
  6
ByLayer
 62
  256
370
   -1
100
AcDbCircle
 10
-33.86620608
 20
73.585935744
 40
12.86882561162318
100
AcDbArc
 50
174.854283557
 51
179.420905991
  0
ARC
  5
17C
100
AcDbEntity
  8
0
  6
ByLayer
 62
  256
370
   -1
100
AcDbCircle
 10
-46.8879936
 20
74.740128
 40
0.2048256
100
AcDbArc
 50
0
 51
180
  0
ARC
  5
17D
100
AcDbEntity
  8
0
  6
ByLayer
 62
  256
370
   -1
100
AcDbCircle
 10
-46.93919999999998
 20
84.9936
 40
0.2048256
100
AcDbArc
 50
180
 51
0
  0
ARC
  5
17E
100
AcDbEntity
  8
0
  6
ByLayer
 62
  256
370
   -1
100
AcDbCircle
 10
-34.27585727999999
 20
84.86353574399999
 40
12.86882561162318
100
AcDbArc
 50
174.854283557
 51
179.420905991
  0
ARC
  5
17F
100
AcDbEntity
  8
0
  6
ByLayer
 62
  256
370
   -1
100
AcDbCircle
 10
-33.86620608
 20
84.86353574399999
 40
12.86882561162318
100
AcDbArc
 50
174.854283557
 51
179.420905991
  0
ARC
  5
180
100
AcDbEntity
  8
0
  6
ByLayer
 62
  256
370
   -1
100
AcDbCircle
 10
-46.8879936
 20
86.01772799999999
 40
0.2048256
100
AcDbArc
 50
0
 51
180
  0
ARC
  5
181
100
AcDbEntity
  8
0
  6
ByLayer
 62
  256
370
   -1
100
AcDbCircle
 10
-46.93919999999998
 20
99.01439999999999
 40
0.2048256
100
AcDbArc
 50
180
 51
0
  0
ARC
  5
182
100
AcDbEntity
  8
0
  6
ByLayer
 62
  256
370
   -1
100
AcDbCircle
 10
-34.27585727999999
 20
98.88433574399998
 40
12.86882561162318
100
AcDbArc
 50
174.854283557
 51
179.420905991
  0
ARC
  5
183
100
AcDbEntity
  8
0
  6
ByLayer
 62
  256
370
   -1
100
AcDbCircle
 10
-33.86620608
 20
98.88433574399998
 40
12.86882561162318
100
AcDbArc
 50
174.854283557
 51
179.420905991
  0
ARC
  5
184
100
AcDbEntity
  8
0
  6
ByLayer
 62
  256
370
   -1
100
AcDbCircle
 10
-46.8879936
 20
100.038528
 40
0.2048256
100
AcDbArc
 50
0
 51
180
  0
ARC
  5
185
100
AcDbEntity
  8
0
  6
ByLayer
 62
  256
370
   -1
100
AcDbCircle
 10
34.1376
 20
96.57599999999999
 40
0.2048256
100
AcDbArc
 50
180
 51
360
  0
ARC
  5
186
100
AcDbEntity
  8
0
  6
ByLayer
 62
  256
370
   -1
100
AcDbCircle
 10
21.47425728000001
 20
96.44593574399998
 40
12.86882561162318
100
AcDbArc
 50
0.5790940089999975
 51
5.145716442999963
  0
ARC
  5
187
100
AcDbEntity
  8
0
  6
ByLayer
 62
  256
370
   -1
100
AcDbCircle
 10
21.06460608000002
 20
96.44593574399998
 40
12.86882561162318
100
AcDbArc
 50
0.5790940089999975
 51
5.145716442999963
  0
ARC
  5
188
100
AcDbEntity
  8
0
  6
ByLayer
 62
  256
370
   -1
100
AcDbCircle
 10
34.08639360000002
 20
97.60012799999998
 40
0.2048256
100
AcDbArc
 50
360
 51
180
  0
ARC
  5
189
100
AcDbEntity
  8
0
  6
ByLayer
 62
  256
370
   -1
100
AcDbCircle
 10
33.8328
 20
83.46959999999999
 40
0.2048256
100
AcDbArc
 50
180
 51
360
  0
ARC
  5
18A
100
AcDbEntity
  8
0
  6
ByLayer
 62
  256
370
   -1
100
AcDbCircle
 10
21.16945728000001
 20
83.33953574399997
 40
12.86882561162318
100
AcDbArc
 50
0.5790940089999975
 51
5.145716442999963
  0
ARC
  5
18B
100
AcDbEntity
  8
0
  6
ByLayer
 62
  256
370
   -1
100
AcDbCircle
 10
20.75980608000002
 20
83.33953574399997
 40
12.86882561162318
100
AcDbArc
 50
0.5790940089999975
 51
5.145716442999963
  0
ARC
  5
18C
100
AcDbEntity
  8
0
  6
ByLayer
 62
  256
370
   -1
100
AcDbCircle
 10
33.78159360000002
 20
84.49372799999998
 40
0.2048256
100
AcDbArc
 50
360
 51
180
  0
ARC
  5
18D
100
AcDbEntity
  8
0
  6
ByLayer
 62
  256
370
   -1
100
AcDbCircle
 10
33.8328
 20
71.27759999999999
 40
0.2048256
100
AcDbArc
 50
180
 51
360
  0
ARC
  5
18E
100
AcDbEntity
  8
0
  6
ByLayer
 62
  256
370
   -1
100
AcDbCircle
 10
21.16945728000001
 20
71.14753574399998
 40
12.86882561162318
100
AcDbArc
 50
0.5790940089999975
 51
5.145716442999963
  0
ARC
  5
18F
100
AcDbEntity
  8
0
  6
ByLayer
 62
  256
370
   -1
100
AcDbCircle
 10
20.75980608000002
 20
71.14753574399998
 40
12.86882561162318
100
AcDbArc
 50
0.5790940089999975
 51
5.145716442999963
  0
ARC
  5
190
100
AcDbEntity
  8
0
  6
ByLayer
 62
  256
370
   -1
100
AcDbCircle
 10
33.78159360000002
 20
72.30172799999998
 40
0.2048256
100
AcDbArc
 50
360
 51
180
  0
CIRCLE
  5
191
100
AcDbEntity
  8
0
  6
ByLayer
 62
  256
370
   -1
100
AcDbCircle
 10
-47.70120000000001
 20
67.38865679999599
 40
0.1651
  0
CIRCLE
  5
192
100
AcDbEntity
  8
0
  6
ByLayer
 62
  256
370
   -1
100
AcDbCircle
 10
-33.68040000000001
 20
64.629912
 40
0.1651
  0
CIRCLE
  5
193
100
AcDbEntity
  8
0
  6
ByLayer
 62
  256
370
   -1
100
AcDbCircle
 10
-21.18359999999999
 20
64.629912
 40
0.1651
  0
CIRCLE
  5
194
100
AcDbEntity
  8
0
  6
ByLayer
 62
  256
370
   -1
100
AcDbCircle
 10
-7.528559999999993
 20
73.45844400000001
 40
0.1651
  0
CIRCLE
  5
195
100
AcDbEntity
  8
0
  6
ByLayer
 62
  256
370
   -1
100
AcDbCircle
 10
-27.432
 20
73.35328800000001
 40
0.1651
  0
CIRCLE
  5
196
100
AcDbEntity
  8
0
  6
ByLayer
 62
  256
370
   -1
100
AcDbCircle
 10
-47.70120000000001
 20
78.2395368
 40
0.1651
  0
CIRCLE
  5
197
100
AcDbEntity
  8
0
  6
ByLayer
 62
  256
370
   -1
100
AcDbCircle
 10
-47.70120000000001
 20
89.51713679999999
 40
0.1651
  0
CIRCLE
  5
198
100
AcDbEntity
  8
0
  6
ByLayer
 62
  256
370
   -1
100
AcDbCircle
 10
-27.432
 20
84.630888
 40
0.1651
  0
CIRCLE
  5
199
100
AcDbEntity
  8
0
  6
ByLayer
 62
  256
370
   -1
100
AcDbCircle
 10
-7.528559999999993
 20
84.73604400000001
 40
0.1651
  0
CIRCLE
  5
19A
100
AcDbEntity
  8
0
  6
ByLayer
 62
  256
370
   -1
100
AcDbCircle
 10
-27.432
 20
96.21024
 40
0.1651
  0
CIRCLE
  5
19B
100
AcDbEntity
  8
0
  6
ByLayer
 62
  256
370
   -1
100
AcDbCircle
 10
-7.528559999999993
 20
99.11955599999999
 40
0.1651
  0
CIRCLE
  5
19C
100
AcDbEntity
  8
0
  6
ByLayer
 62
  256
370
   -1
100
AcDbCircle
 10
-26.21279999999999
 20
109.3776
 40
0.1651
  0
CIRCLE
  5
19D
100
AcDbEntity
  8
0
  6
ByLayer
 62
  256
370
   -1
100
AcDbCircle
 10
-28.65120000000001
 20
109.3776
 40
0.1651
  0
CIRCLE
  5
19E
100
AcDbEntity
  8
0
  6
ByLayer
 62
  256
370
   -1
100
AcDbCircle
 10
20.11679999999999
 20
110.243232
 40
0.1651
  0
CIRCLE
  5
19F
100
AcDbEntity
  8
0
  6
ByLayer
 62
  256
370
   -1
100
AcDbCircle
 10
22.55519999999999
 20
110.243232
 40
0.1651
  0
CIRCLE
  5
1A0
100
AcDbEntity
  8
0
  6
ByLayer
 62
  256
370
   -1
100
AcDbCircle
 10
9.601200000000006
 20
96.24072000000001
 40
0.1651
  0
CIRCLE
  5
1A1
100
AcDbEntity
  8
0
  6
ByLayer
 62
  256
370
   -1
100
AcDbCircle
 10
21.336
 20
94.74719999999999
 40
0.1651
  0
CIRCLE
  5
1A2
100
AcDbEntity
  8
0
  6
ByLayer
 62
  256
370
   -1
100
AcDbCircle
 10
34.009584
 20
88.8499296
 40
0.1651
  0
CIRCLE
  5
1A3
100
AcDbEntity
  8
0
  6
ByLayer
 62
  256
370
   -1
100
AcDbCircle
 10
21.336
 20
83.46959999999999
 40
0.1651
  0
CIRCLE
  5
1A4
100
AcDbEntity
  8
0
  6
ByLayer
 62
  256
370
   -1
100
AcDbCircle
 10
9.601200000000006
 20
83.46959999999999
 40
0.1651
  0
CIRCLE
  5
1A5
100
AcDbEntity
  8
0
  6
ByLayer
 62
  256
370
   -1
100
AcDbCircle
 10
9.601200000000006
 20
71.27759999999999
 40
0.1651
  0
CIRCLE
  5
1A6
100
AcDbEntity
  8
0
  6
ByLayer
 62
  256
370
   -1
100
AcDbCircle
 10
21.336
 20
71.27759999999999
 40
0.1651
  0
CIRCLE
  5
1A7
100
AcDbEntity
  8
0
  6
ByLayer
 62
  256
370
   -1
100
AcDbCircle
 10
34.00348800006932
 20
76.66646399998479
 40
0.1651
  0
CIRCLE
  5
1A8
100
AcDbEntity
  8
0
  6
ByLayer
 62
  256
370
   -1
100
AcDbCircle
 10
9.617049599999996
 20
61.89204600001219
 40
0.1651
  0
CIRCLE
  5
1A9
100
AcDbEntity
  8
0
  6
ByLayer
 62
  256
370
   -1
100
AcDbCircle
 10
15.08760000000001
 20
62.252472
 40
0.1651
  0
CIRCLE
  5
1AA
100
AcDbEntity
  8
0
  6
ByLayer
 62
  256
370
   -1
100
AcDbCircle
 10
21.336
 20
61.8288
 40
0.1651
  0
CIRCLE
  5
1AB
100
AcDbEntity
  8
0
  6
ByLayer
 62
  256
370
   -1
100
AcDbCircle
 10
27.58439999999999
 20
62.252472
 40
0.1651
  0
CIRCLE
  5
1AC
100
AcDbEntity
  8
0
  6
ByLayer
 62
  256
370
   -1
100
AcDbCircle
 10
33.0549504
 20
61.89204600001219
 40
0.1651
  0
CIRCLE
  5
1AD
100
AcDbEntity
  8
0
  6
ByLayer
 62
  256
370
   -1
100
AcDbCircle
 10
34.003488
 20
65.24256
 40
0.1651
  0
ARC
  5
1AE
100
AcDbEntity
  8
0
  6
ByLayer
 62
  256
370
   -1
100
AcDbCircle
 10
-56.46515504
 20
172.74025904
 40
1.648946805716252
100
AcDbArc
 50
197.94105887
 51
242.91109861
  0
ARC
  5
1AF
100
AcDbEntity
  8
0
  6
ByLayer
 62
  256
370
   -1
100
AcDbCircle
 10
-31.47571293834407
 20
267.60650743895
 40
99.713906888526
100
AcDbArc
 50
255.040168555
 51
269.696443941
  0
ARC
  5
1B0
100
AcDbEntity
  8
0
  6
ByLayer
 62
  256
370
   -1
100
AcDbCircle
 10
-7.542844959999996
 20
172.74025904
 40
1.648946805716252
100
AcDbArc
 50
297.08890139
 51
342.05894113
  0
ARC
  5
1B1
100
AcDbEntity
  8
0
  6
ByLayer
 62
  256
370
   -1
100
AcDbCircle
 10
-32.53228706165592
 20
267.60650743895
 40
99.713906888526
100
AcDbArc
 50
270.303556059
 51
284.959831445
  0
ELLIPSE
  5
1B2
100
AcDbEntity
  8
0
  6
ByLayer
 62
  256
370
   -1
100
AcDbEllipse
 10
-6.265398461563083
 20
141.7829758461457
 30
0
 11
2.973958100419376e-17
 21
0.558555294902416
 31
0
 40
0.869565217391
 41
3.008855040150001
 42
4.45033547407999
  0
LINE
  5
1B3
100
AcDbEntity
  8
0
  6
ByLayer
 62
  256
370
   -1
100
AcDbLine
 10
-6.32967999999999
 20
141.2293340000355
 11
-32.004
 21
141.229334
  0
ELLIPSE
  5
1B4
100
AcDbEntity
  8
0
  6
ByLayer
 62
  256
370
   -1
100
AcDbEllipse
 10
-57.74260153854361
 20
141.7829758461457
 30
0
 11
0
 21
0.558555294902416
 31
0
 40
0.869565217391
 41
1.832849833100014
 42
3.274330267030002
  0
LINE
  5
1B5
100
AcDbEntity
  8
0
  6
ByLayer
 62
  256
370
   -1
100
AcDbLine
 10
-57.67832000000001
 20
141.2293340000355
 11
-32.004
 21
141.229334
  0
ELLIPSE
  5
1B6
100
AcDbEntity
  8
0
  6
ByLayer
 62
  256
370
   -1
100
AcDbEllipse
 10
-6.265398461563083
 20
154.9401758461456
 30
0
 11
2.973958100419376e-17
 21
0.558555294902416
 31
0
 40
0.869565217391
 41
3.008855040150001
 42
4.45033547407999
  0
LINE
  5
1B7
100
AcDbEntity
  8
0
  6
ByLayer
 62
  256
370
   -1
100
AcDbLine
 10
-6.32967999999999
 20
154.3865340000355
 11
-32.004
 21
154.386534
  0
ELLIPSE
  5
1B8
100
AcDbEntity
  8
0
  6
ByLayer
 62
  256
370
   -1
100
AcDbEllipse
 10
-57.74260153854361
 20
154.9401758461456
 30
0
 11
0
 21
0.558555294902416
 31
0
 40
0.869565217391
 41
1.832849833100014
 42
3.274330267030002
  0
LINE
  5
1B9
100
AcDbEntity
  8
0
  6
ByLayer
 62
  256
370
   -1
100
AcDbLine
 10
-57.67832000000001
 20
154.3865340000355
 11
-32.004
 21
154.386534
  0
ARC
  5
1BA
100
AcDbEntity
  8
0
  6
ByLayer
 62
  256
370
   -1
100
AcDbCircle
 10
26.84287630753091
 20
235.600513539966
 40
69.867355593686
100
AcDbArc
 50
255.713109906
 51
268.399946473
  0
ARC
  5
1BB
100
AcDbEntity
  8
0
  6
ByLayer
 62
  256
370
   -1
100
AcDbCircle
 10
17.70126000001016
 20
190.3298200000508
 40
23.85323858673196
100
AcDbArc
 50
237.056189081
 51
250.148770648
  0
ARC
  5
1BC
100
AcDbEntity
  8
0
  6
ByLayer
 62
  256
370
   -1
100
AcDbCircle
 10
4.933949999999992
 20
170.65879
 40
0.402511869391212
100
AcDbArc
 50
210.5297059
 51
239.4702941
  0
ELLIPSE
  5
1BD
100
AcDbEntity
  8
0
  6
ByLayer
 62
  256
370
   -1
100
AcDbEllipse
 10
10.16007566978517
 20
140.3107813269642
 30
0
 11
1.625721812729196
 21
0
 31
0
 40
0.9259259259259998
 41
3.149126998589995
 42
4.7282181618
  0
LINE
  5
1BE
100
AcDbEntity
  8
0
  6
ByLayer
 62
  256
370
   -1
100
AcDbLine
 10
10.3124
 20
152.9588
 11
24.892
 21
152.9588
  0
LINE
  5
1BF
100
AcDbEntity
  8
0
  6
ByLayer
 62
  256
370
   -1
100
AcDbLine
 10
10.22136640000001
 20
138.80592
 11
24.892
 21
138.77036
  0
LINE
  5
1C0
100
AcDbEntity
  8
0
  6
ByLayer
 62
  256
370
   -1
100
AcDbLine
 10
10.3124
 20
127.7112000000035
 11
24.892
 21
127.7112
  0
ARC
  5
1C1
100
AcDbEntity
  8
0
  6
ByLayer
 62
  256
370
   -1
100
AcDbCircle
 10
10.33779999998984
 20
154.8130000000051
 40
1.854373964443028
100
AcDbArc
 50
193.465208095
 51
269.215175397
  0
LINE
  5
1C2
100
AcDbEntity
  8
0
  6
ByLayer
 62
  256
370
   -1
100
AcDbLine
 10
39.4716
 20
152.9588
 11
24.892
 21
152.9588
  0
ARC
  5
1C3
100
AcDbEntity
  8
0
  6
ByLayer
 62
  256
370
   -1
100
AcDbCircle
 10
39.44620000015239
 20
154.8130000000051
 40
1.854373964443028
100
AcDbArc
 50
270.784824603
 51
346.534791905
  0
ARC
  5
1C4
100
AcDbEntity
  8
0
  6
ByLayer
 62
  256
370
   -1
100
AcDbCircle
 10
10.33779999998984
 20
129.5654000000015
 40
1.854373964443028
100
AcDbArc
 50
193.465208095
 51
269.215175397
  0
LINE
  5
1C5
100
AcDbEntity
  8
0
  6
ByLayer
 62
  256
370
   -1
100
AcDbLine
 10
39.4716
 20
127.7112000000035
 11
24.892
 21
127.7112
  0
ARC
  5
1C6
100
AcDbEntity
  8
0
  6
ByLayer
 62
  256
370
   -1
100
AcDbCircle
 10
39.44620000015239
 20
129.5654000000015
 40
1.854373964443028
100
AcDbArc
 50
270.784824603
 51
346.534791905
  0
ELLIPSE
  5
1C7
100
AcDbEntity
  8
0
  6
ByLayer
 62
  256
370
   -1
100
AcDbEllipse
 10
-6.265398461563083
 20
131.1149758461457
 30
0
 11
2.973958100419376e-17
 21
0.558555294902416
 31
0
 40
0.869565217391
 41
3.008855040150004
 42
4.45033547407999
  0
LINE
  5
1C8
100
AcDbEntity
  8
0
  6
ByLayer
 62
  256
370
   -1
100
AcDbLine
 10
-6.32967999999999
 20
130.5613340000356
 11
-32.004
 21
130.561334
  0
ELLIPSE
  5
1C9
100
AcDbEntity
  8
0
  6
ByLayer
 62
  256
370
   -1
100
AcDbEllipse
 10
-57.74260153854361
 20
131.1149758461457
 30
0
 11
0
 21
0.558555294902416
 31
0
 40
0.869565217391
 41
1.832849833100014
 42
3.274330267030002
  0
LINE
  5
1CA
100
AcDbEntity
  8
0
  6
ByLayer
 62
  256
370
   -1
100
AcDbLine
 10
-57.67832000000001
 20
130.5613340000356
 11
-32.004
 21
130.561334
  0
LINE
  5
1CB
100
AcDbEntity
  8
0
  6
ByLayer
 62
  256
370
   -1
100
AcDbLine
 10
2.844799999999995
 20
174.2948
 11
4.587240000000002
 21
170.45432
  0
ARC
  5
1CC
100
AcDbEntity
  8
0
  6
ByLayer
 62
  256
370
   -1
100
AcDbCircle
 10
10.99820000001015
 20
178.096333333164
 40
8.996087329729919
100
AcDbArc
 50
118.132754854
 51
204.9973475
  0
ARC
  5
1CD
100
AcDbEntity
  8
0
  6
ByLayer
 62
  256
370
   -1
100
AcDbCircle
 10
23.83346976713836
 20
156.9200186049638
 40
33.74898577478652
100
AcDbArc
 50
88.2026344848
 51
120.397920413
  0
ARC
  5
1CE
100
AcDbEntity
  8
0
  6
ByLayer
 62
  256
370
   -1
100
AcDbCircle
 10
22.94112369246908
 20
235.600513539966
 40
69.867355593686
100
AcDbArc
 50
271.600053527
 51
284.286890094
  0
ARC
  5
1CF
100
AcDbEntity
  8
0
  6
ByLayer
 62
  256
370
   -1
100
AcDbCircle
 10
32.08273999998984
 20
190.3298200000508
 40
23.85323858673196
100
AcDbArc
 50
289.851229352
 51
302.943810919
  0
ARC
  5
1D0
100
AcDbEntity
  8
0
  6
ByLayer
 62
  256
370
   -1
100
AcDbCircle
 10
44.85005000000001
 20
170.65879
 40
0.402511869391212
100
AcDbArc
 50
300.5297059
 51
329.4702941
  0
LINE
  5
1D1
100
AcDbEntity
  8
0
  6
ByLayer
 62
  256
370
   -1
100
AcDbLine
 10
46.93919999999999
 20
174.2948
 11
45.19676
 21
170.45432
  0
ARC
  5
1D2
100
AcDbEntity
  8
0
  6
ByLayer
 62
  256
370
   -1
100
AcDbCircle
 10
38.7857999998476
 20
178.096333333164
 40
8.996087329729919
100
AcDbArc
 50
335.0026525
 51
61.8672451458
  0
ARC
  5
1D3
100
AcDbEntity
  8
0
  6
ByLayer
 62
  256
370
   -1
100
AcDbCircle
 10
25.95053023286164
 20
156.9200186049638
 40
33.74898577478652
100
AcDbArc
 50
59.60207958720001
 51
91.7973655152
  0
ELLIPSE
  5
1D4
100
AcDbEntity
  8
0
  6
ByLayer
 62
  256
370
   -1
100
AcDbEllipse
 10
39.6239243302504
 20
140.3107813269642
 30
0
 11
-1.625721812729196
 21
0
 31
0
 40
0.9259259259259998
 41
1.586469964649998
 42
3.134058308590006
  0
LINE
  5
1D5
100
AcDbEntity
  8
0
  6
ByLayer
 62
  256
370
   -1
100
AcDbLine
 10
39.64940426186601
 20
138.8056682463659
 11
24.892
 21
138.77036
  0
ARC
  5
1D6
100
AcDbEntity
  8
0
  6
ByLayer
 62
  256
370
   -1
100
AcDbCircle
 10
-52.80660000000003
 20
186.2074
 40
2.027231905826295
100
AcDbArc
 50
285.2551187030584
 51
344.7448812969419
  0
ARC
  5
1D7
100
AcDbEntity
  8
0
  6
ByLayer
 62
  256
370
   -1
100
AcDbCircle
 10
-49.01353333333334
 20
185.1998666666667
 40
1.897459149025916
100
AcDbArc
 50
91.78991060824579
 51
165.5297058999348
  0
ARC
  5
1D8
100
AcDbEntity
  8
0
  6
ByLayer
 62
  256
370
   -1
100
AcDbCircle
 10
-30.31489999999977
 20
65.12559999999678
 40
123.4047603014195
100
AcDbArc
 50
90.78425923804807
 51
98.74302414340427
  0
ARC
  5
1D9
100
AcDbEntity
  8
0
  6
ByLayer
 62
  256
370
   -1
100
AcDbCircle
 10
-11.20139999999997
 20
186.2074
 40
2.027231905826295
100
AcDbArc
 50
195.2551187030581
 51
254.7448812969416
  0
ARC
  5
1DA
100
AcDbEntity
  8
0
  6
ByLayer
 62
  256
370
   -1
100
AcDbCircle
 10
-14.99446666666665
 20
185.1998666666667
 40
1.897459149025916
100
AcDbArc
 50
14.47029410006519
 51
88.2100893917542
  0
ARC
  5
1DB
100
AcDbEntity
  8
0
  6
ByLayer
 62
  256
370
   -1
100
AcDbCircle
 10
-33.69310000000022
 20
65.12559999999682
 40
123.4047603014195
100
AcDbArc
 50
81.25697585659574
 51
89.21574076195195
  0
LINE
  5
1DC
100
AcDbEntity
  8
0
  6
ByLayer
 62
  256
370
   -1
100
AcDbLine
 10
-55.69760000000031
 20
183.3473820000029
 11
-56.90664000000033
 21
181.8751980000029
  0
ARC
  5
1DD
100
AcDbEntity
  8
0
  6
ByLayer
 62
  256
370
   -1
100
AcDbCircle
 10
-54.95446671589585
 20
182.7127774317917
 40
0.9772256832167858
100
AcDbArc
 50
109.554535554235
 51
139.5040667410969
  0
ARC
  5
1DE
100
AcDbEntity
  8
0
  6
ByLayer
 62
  256
370
   -1
100
AcDbCircle
 10
-49.47542169214463
 20
162.9998896915132
 40
21.43508233004366
100
AcDbArc
 50
97.49983454682554
 51
105.7160589007867
  0
ARC
  5
1DF
100
AcDbEntity
  8
0
  6
ByLayer
 62
  256
370
   -1
100
AcDbCircle
 10
-55.46799999999953
 20
175.426
 40
2.830805539065283
100
AcDbArc
 50
168.3010623911994
 51
182.5510950890004
  0
ARC
  5
1E0
100
AcDbEntity
  8
0
  6
ByLayer
 62
  256
370
   -1
100
AcDbCircle
 10
-24.73261278599891
 20
176.6223736739231
 40
33.58942740521868
100
AcDbArc
 50
182.2562461370175
 51
187.5098991350175
  0
ARC
  5
1E1
100
AcDbEntity
  8
0
  6
ByLayer
 62
  256
370
   -1
100
AcDbCircle
 10
-1.297058824501087
 20
167.9097138316624
 40
57.51479183655213
100
AcDbArc
 50
166.660050478209
 51
171.913703476209
  0
ARC
  5
1E2
100
AcDbEntity
  8
0
  6
ByLayer
 62
  256
370
   -1
100
AcDbCircle
 10
-55.65883060451415
 20
180.8035497754831
 40
1.644827712734481
100
AcDbArc
 50
139.3432358436287
 51
166.7695004057097
  0
ARC
  5
1E3
100
AcDbEntity
  8
0
  6
ByLayer
 62
  256
370
   -1
100
AcDbCircle
 10
-7.542844960149946
 20
172.7402590397676
 40
1.648946805716252
100
AcDbArc
 50
297.0889013894555
 51
342.0589411294554
  0
ARC
  5
1E4
100
AcDbEntity
  8
0
  6
ByLayer
 62
  256
370
   -1
100
AcDbCircle
 10
-11.20140000002193
 20
186.2073999998023
 40
2.027231905826295
100
AcDbArc
 50
195.2551187025136
 51
254.7448812963971
  0
ARC
  5
1E5
100
AcDbEntity
  8
0
  6
ByLayer
 62
  256
370
   -1
100
AcDbCircle
 10
-14.99446666669819
 20
185.199866666505
 40
1.897459149025916
100
AcDbArc
 50
14.47029409952068
 51
88.21008939120968
  0
LINE
  5
1E6
100
AcDbEntity
  8
0
  6
ByLayer
 62
  256
370
   -1
100
AcDbLine
 10
-8.310399999950549
 20
183.347382000228
 11
-7.101359999936556
 21
181.8751980002395
  0
ARC
  5
1E7
100
AcDbEntity
  8
0
  6
ByLayer
 62
  256
370
   -1
100
AcDbCircle
 10
-9.053533284048981
 20
182.7127774320097
 40
0.9772256832167858
100
AcDbArc
 50
40.49593325944741
 51
70.4454644463093
  0
ARC
  5
1E8
100
AcDbEntity
  8
0
  6
ByLayer
 62
  256
370
   -1
100
AcDbCircle
 10
-14.53257830761292
 20
162.9998896916792
 40
21.43508233004366
100
AcDbArc
 50
74.28394109975761
 51
82.50016545371876
  0
ARC
  5
1E9
100
AcDbEntity
  8
0
  6
ByLayer
 62
  256
370
   -1
100
AcDbCircle
 10
-8.539999999876104
 20
175.4260000002229
 40
2.830805539065283
100
AcDbArc
 50
357.4489049115439
 51
11.6989376093449
  0
ARC
  5
1EA
100
AcDbEntity
  8
0
  6
ByLayer
 62
  256
370
   -1
100
AcDbCircle
 10
-39.27538721388806
 20
176.622373673854
 40
33.58942740521868
100
AcDbArc
 50
352.4901008655268
 51
357.7437538635268
  0
ARC
  5
1EB
100
AcDbEntity
  8
0
  6
ByLayer
 62
  256
370
   -1
100
AcDbCircle
 10
-62.71094117530312
 20
167.9097138313707
 40
57.51479183655213
100
AcDbArc
 50
8.086296524335319
 51
13.33994952233528
  0
ARC
  5
1EC
100
AcDbEntity
  8
0
  6
ByLayer
 62
  256
370
   -1
100
AcDbCircle
 10
-8.349169395412554
 20
180.8035497757078
 40
1.644827712734481
100
AcDbArc
 50
13.23049959483462
 51
40.65676415691559
  0
ELLIPSE
  5
1ED
100
AcDbEntity
  8
0
  6
ByLayer
 62
  256
370
   -1
100
AcDbEllipse
 10
-7.424517692291274
 20
149.5754848307495
 30
0
 11
-0.6636567497968423
 21
6.56547369153658e-17
 31
0
 40
0.9200000000003221
 41
3.79766523526509
 42
4.88533014787369
  0
LINE
  5
1EE
100
AcDbEntity
  8
0
  6
ByLayer
 62
  256
370
   -1
100
AcDbLine
 10
-6.898639999999997
 20
149.9479348
 11
-5.68959999999999
 21
148.7701876
  0
ELLIPSE
  5
1EF
100
AcDbEntity
  8
0
  6
ByLayer
 62
  256
370
   -1
100
AcDbEllipse
 10
-6.48970000000001
 20
148.1976716
 30
0
 11
-1.013615952912772
 21
1.002757656604753e-16
 31
0
 40
0.9200000000003221
 41
3.159134713645114
 42
3.802635822445095
  0
LINE
  5
1F0
100
AcDbEntity
  8
0
  6
ByLayer
 62
  256
370
   -1
100
AcDbLine
 10
-7.538719999999997
 20
150.1769412
 11
-32.004
 21
150.1769412
  0
LINE
  5
1F1
100
AcDbEntity
  8
0
  6
ByLayer
 62
  256
370
   -1
100
AcDbLine
 10
-5.47623999999999
 20
148.2140292
 11
-5.79627999999999
 21
141.638274
  0
ELLIPSE
  5
1F2
100
AcDbEntity
  8
0
  6
ByLayer
 62
  256
370
   -1
100
AcDbEllipse
 10
-56.5834823076376
 20
149.5754848307495
 30
0
 11
-0.6636567497968423
 21
3.738627526109008e-17
 31
0
 40
0.9200000000003221
 41
4.539447812895102
 42
5.627112725499664
  0
LINE
  5
1F3
100
AcDbEntity
  8
0
  6
ByLayer
 62
  256
370
   -1
100
AcDbLine
 10
-57.10935999999997
 20
149.9479348
 11
-58.3184
 21
148.7701876
  0
ELLIPSE
  5
1F4
100
AcDbEntity
  8
0
  6
ByLayer
 62
  256
370
   -1
100
AcDbEllipse
 10
-57.51830000000002
 20
148.1976716
 30
0
 11
-1.013615952912772
 21
5.710079048578874e-17
 31
0
 40
0.9200000000003221
 41
5.622142138328665
 42
6.265643247124691
  0
LINE
  5
1F5
100
AcDbEntity
  8
0
  6
ByLayer
 62
  256
370
   -1
100
AcDbLine
 10
-56.46927999999998
 20
150.1769412
 11
-32.004
 21
150.1769412
  0
LINE
  5
1F6
100
AcDbEntity
  8
0
  6
ByLayer
 62
  256
370
   -1
100
AcDbLine
 10
-58.53176000000001
 20
148.2140292
 11
-58.21172000000001
 21
141.638274
  0
ELLIPSE
  5
1F7
100
AcDbEntity
  8
0
  6
ByLayer
 62
  256
370
   -1
100
AcDbEllipse
 10
-7.424517692291274
 20
162.7326848308349
 30
0
 11
-0.6636567497968423
 21
6.56547369153658e-17
 31
0
 40
0.9200000000003221
 41
3.79766523526509
 42
4.88533014787369
  0
LINE
  5
1F8
100
AcDbEntity
  8
0
  6
ByLayer
 62
  256
370
   -1
100
AcDbLine
 10
-6.898639999999997
 20
163.1051348
 11
-5.68959999999999
 21
161.9273876
  0
ELLIPSE
  5
1F9
100
AcDbEntity
  8
0
  6
ByLayer
 62
  256
370
   -1
100
AcDbEllipse
 10
-6.48970000000001
 20
161.3548716
 30
0
 11
-1.013615952912772
 21
1.002757656604753e-16
 31
0
 40
0.9200000000003221
 41
3.159134713645084
 42
3.802635822445072
  0
LINE
  5
1FA
100
AcDbEntity
  8
0
  6
ByLayer
 62
  256
370
   -1
100
AcDbLine
 10
-7.538719999999997
 20
163.3341412
 11
-32.004
 21
163.3341412
  0
LINE
  5
1FB
100
AcDbEntity
  8
0
  6
ByLayer
 62
  256
370
   -1
100
AcDbLine
 10
-5.47623999999999
 20
161.3712292
 11
-5.79627999999999
 21
154.795474
  0
ELLIPSE
  5
1FC
100
AcDbEntity
  8
0
  6
ByLayer
 62
  256
370
   -1
100
AcDbEllipse
 10
-56.5834823076376
 20
162.7326848308349
 30
0
 11
-0.6636567497968423
 21
3.738627526109008e-17
 31
0
 40
0.9200000000003221
 41
4.539447812895102
 42
5.627112725499664
  0
LINE
  5
1FD
100
AcDbEntity
  8
0
  6
ByLayer
 62
  256
370
   -1
100
AcDbLine
 10
-57.10935999999997
 20
163.1051348
 11
-58.3184
 21
161.9273876
  0
ELLIPSE
  5
1FE
100
AcDbEntity
  8
0
  6
ByLayer
 62
  256
370
   -1
100
AcDbEllipse
 10
-57.51830000000002
 20
161.3548716
 30
0
 11
-1.013615952912772
 21
5.710079048578874e-17
 31
0
 40
0.9200000000003221
 41
5.622142138328689
 42
6.265643247124722
  0
LINE
  5
1FF
100
AcDbEntity
  8
0
  6
ByLayer
 62
  256
370
   -1
100
AcDbLine
 10
-56.46927999999998
 20
163.3341412
 11
-32.004
 21
163.3341412
  0
LINE
  5
200
100
AcDbEntity
  8
0
  6
ByLayer
 62
  256
370
   -1
100
AcDbLine
 10
-58.53176000000001
 20
161.3712292
 11
-58.21172000000001
 21
154.795474
  0
ELLIPSE
  5
201
100
AcDbEntity
  8
0
  6
ByLayer
 62
  256
370
   -1
100
AcDbEllipse
 10
-7.424517692291274
 20
136.9161248307449
 30
0
 11
-0.6636567497968423
 21
6.56547369153658e-17
 31
0
 40
0.9200000000003221
 41
3.797665235265088
 42
4.88533014787369
  0
LINE
  5
202
100
AcDbEntity
  8
0
  6
ByLayer
 62
  256
370
   -1
100
AcDbLine
 10
-6.898639999999997
 20
137.2885747999953
 11
-5.68959999999999
 21
136.1108275999953
  0
ELLIPSE
  5
203
100
AcDbEntity
  8
0
  6
ByLayer
 62
  256
370
   -1
100
AcDbEllipse
 10
-6.48970000000001
 20
135.5383115999953
 30
0
 11
-1.013615952912772
 21
1.002757656604753e-16
 31
0
 40
0.9200000000003221
 41
3.159134713645114
 42
3.802635822445096
  0
LINE
  5
204
100
AcDbEntity
  8
0
  6
ByLayer
 62
  256
370
   -1
100
AcDbLine
 10
-7.538719999999997
 20
137.5175811999953
 11
-32.004
 21
137.5175811999953
  0
ELLIPSE
  5
205
100
AcDbEntity
  8
0
  6
ByLayer
 62
  256
370
   -1
100
AcDbEllipse
 10
-56.5834823076376
 20
136.9161248307449
 30
0
 11
-0.6636567497968423
 21
3.738627526109008e-17
 31
0
 40
0.9200000000003221
 41
4.53944781289511
 42
5.627112725499701
  0
LINE
  5
206
100
AcDbEntity
  8
0
  6
ByLayer
 62
  256
370
   -1
100
AcDbLine
 10
-57.10935999999997
 20
137.2885747999953
 11
-58.3184
 21
136.1108275999953
  0
ELLIPSE
  5
207
100
AcDbEntity
  8
0
  6
ByLayer
 62
  256
370
   -1
100
AcDbEllipse
 10
-57.51830000000002
 20
135.5383115999953
 30
0
 11
-1.013615952912772
 21
5.710079048578874e-17
 31
0
 40
0.9200000000003221
 41
5.622142138328689
 42
6.265643247124691
  0
LINE
  5
208
100
AcDbEntity
  8
0
  6
ByLayer
 62
  256
370
   -1
100
AcDbLine
 10
-56.46927999999998
 20
137.5175811999953
 11
-32.004
 21
137.5175811999953
  0
LINE
  5
209
100
AcDbEntity
  8
0
  6
ByLayer
 62
  256
370
   -1
100
AcDbLine
 10
-58.53176000000001
 20
135.5532467999953
 11
-58.21172000000001
 21
130.9702739999953
  0
LINE
  5
20A
100
AcDbEntity
  8
0
  6
ByLayer
 62
  256
370
   -1
100
AcDbLine
 10
-5.47623999999999
 20
135.5546691999953
 11
-5.79627999999999
 21
130.9702739999953
  0
LINE
  5
20B
100
AcDbEntity
  8
0
  6
ByLayer
 62
  256
370
   -1
100
AcDbLine
 10
24.892
 20
162.6296976
 11
9.601200000000006
 21
162.63112
  0
LINE
  5
20C
100
AcDbEntity
  8
0
  6
ByLayer
 62
  256
370
   -1
100
AcDbLine
 10
8.534400000000005
 20
154.3812
 11
8.534400000000005
 21
156.94152
  0
LINE
  5
20D
100
AcDbEntity
  8
0
  6
ByLayer
 62
  256
370
   -1
100
AcDbLine
 10
8.178799999999997
 20
158.07944
 11
6.685279999999997
 21
160.35528
  0
ELLIPSE
  5
20E
100
AcDbEntity
  8
0
  6
ByLayer
 62
  256
370
   -1
100
AcDbEllipse
 10
7.266093333321475
 20
160.5961397333428
 30
0
 11
0.6542095100853479
 21
0
 31
0
 40
0.8000000000000003
 41
2.464022064134174
 42
3.619825938063096
  0
LINE
  5
20F
100
AcDbEntity
  8
0
  6
ByLayer
 62
  256
370
   -1
100
AcDbLine
 10
6.75639999999999
 20
160.92424
 11
8.889999999999992
 21
162.403536
  0
ELLIPSE
  5
210
100
AcDbEntity
  8
0
  6
ByLayer
 62
  256
370
   -1
100
AcDbEllipse
 10
9.672319999999999
 20
161.663888
 30
0
 11
1.211129958346364
 21
0
 31
0
 40
0.8
 41
1.629552149511846
 42
2.273053258299119
  0
ELLIPSE
  5
211
100
AcDbEntity
  8
0
  6
ByLayer
 62
  256
370
   -1
100
AcDbEllipse
 10
5.432777777785682
 20
156.9257155555429
 30
0
 11
3.10168513736662
 21
0
 31
0
 40
0.8
 41
0.006369340618677999
 42
0.483587985634681
  0
ELLIPSE
  5
212
100
AcDbEntity
  8
0
  6
ByLayer
 62
  256
370
   -1
100
AcDbEllipse
 10
42.5179066667852
 20
160.5961397333428
 30
0
 11
0.6542095100853479
 21
0
 31
0
 40
0.8000000000000003
 41
5.804952022706282
 42
0.6775705894556188
  0
LINE
  5
213
100
AcDbEntity
  8
0
  6
ByLayer
 62
  256
370
   -1
100
AcDbLine
 10
43.02760000000001
 20
160.92424
 11
40.89400000000001
 21
162.403536
  0
LINE
  5
214
100
AcDbEntity
  8
0
  6
ByLayer
 62
  256
370
   -1
100
AcDbLine
 10
24.892
 20
162.6296976
 11
40.18279999999999
 21
162.63112
  0
ELLIPSE
  5
215
100
AcDbEntity
  8
0
  6
ByLayer
 62
  256
370
   -1
100
AcDbEllipse
 10
40.11168
 20
161.663888
 30
0
 11
1.211129958346364
 21
0
 31
0
 40
0.8
 41
0.8685393952854215
 42
1.512040504077945
  0
LINE
  5
216
100
AcDbEntity
  8
0
  6
ByLayer
 62
  256
370
   -1
100
AcDbLine
 10
41.24959999999999
 20
154.3812
 11
41.24959999999999
 21
156.94152
  0
LINE
  5
217
100
AcDbEntity
  8
0
  6
ByLayer
 62
  256
370
   -1
100
AcDbLine
 10
41.6052
 20
158.07944
 11
43.09872
 21
160.35528
  0
ELLIPSE
  5
218
100
AcDbEntity
  8
0
  6
ByLayer
 62
  256
370
   -1
100
AcDbEllipse
 10
44.35122222214319
 20
156.9257155555429
 30
0
 11
3.10168513736662
 21
0
 31
0
 40
0.8
 41
2.658004667956869
 42
3.13522331296643
  0
LINE
  5
219
100
AcDbEntity
  8
0
  6
ByLayer
 62
  256
370
   -1
100
AcDbLine
 10
24.892
 20
148.577808
 11
10.3124
 21
148.577808
  0
LINE
  5
21A
100
AcDbEntity
  8
0
  6
ByLayer
 62
  256
370
   -1
100
AcDbLine
 10
8.534400000000005
 20
147.297648
 11
8.534400000000005
 21
140.29944
  0
ELLIPSE
  5
21B
100
AcDbEntity
  8
0
  6
ByLayer
 62
  256
370
   -1
100
AcDbEllipse
 10
10.31762941178144
 20
147.142857411753
 30
0
 11
1.793695858327296
 21
0
 31
0
 40
0.7999999999999999
 41
1.573711770430004
 42
3.033511086733956
  0
LINE
  5
21C
100
AcDbEntity
  8
0
  6
ByLayer
 62
  256
370
   -1
100
AcDbLine
 10
24.892
 20
148.577808
 11
39.4716
 21
148.577808
  0
LINE
  5
21D
100
AcDbEntity
  8
0
  6
ByLayer
 62
  256
370
   -1
100
AcDbLine
 10
41.24959999999999
 20
147.297648
 11
41.24959999999999
 21
140.29944
  0
ELLIPSE
  5
21E
100
AcDbEntity
  8
0
  6
ByLayer
 62
  256
370
   -1
100
AcDbEllipse
 10
39.4663705883608
 20
147.142857411753
 30
0
 11
1.793695858327296
 21
0
 31
0
 40
0.7999999999999999
 41
0.1080815668567134
 42
1.567880883159791
  0
LINE
  5
21F
100
AcDbEntity
  8
0
  6
ByLayer
 62
  256
370
   -1
100
AcDbLine
 10
8.534400000000005
 20
133.96976
 11
8.534400000000005
 21
129.1336
  0
LINE
  5
220
100
AcDbEntity
  8
0
  6
ByLayer
 62
  256
370
   -1
100
AcDbLine
 10
41.24959999999999
 20
133.96976
 11
41.24959999999999
 21
129.1336
  0
ELLIPSE
  5
221
100
AcDbEntity
  8
0
  6
ByLayer
 62
  256
370
   -1
100
AcDbEllipse
 10
39.7517696970128
 20
133.9094157575818
 30
0
 11
1.499728424514292
 21
0
 31
0
 40
0.8
 41
0.05031720446148791
 42
1.520479122334107
  0
LINE
  5
222
100
AcDbEntity
  8
0
  6
ByLayer
 62
  256
370
   -1
100
AcDbLine
 10
39.8272
 20
135.10768
 11
24.892
 21
135.10768
  0
ELLIPSE
  5
223
100
AcDbEntity
  8
0
  6
ByLayer
 62
  256
370
   -1
100
AcDbEllipse
 10
10.03223030302275
 20
133.9094157575818
 30
0
 11
1.499728424514292
 21
0
 31
0
 40
0.8
 41
1.621113531255683
 42
3.091275449120289
  0
LINE
  5
224
100
AcDbEntity
  8
0
  6
ByLayer
 62
  256
370
   -1
100
AcDbLine
 10
9.956799999999992
 20
135.10768
 11
24.892
 21
135.10768
  0
ARC
  5
225
100
AcDbEntity
  8
0
  6
ByLayer
 62
  256
370
   -1
100
AcDbCircle
 10
-54.76239999999998
 20
143.002
 40
0.2048256
100
AcDbArc
 50
180
 51
0
  0
ARC
  5
226
100
AcDbEntity
  8
0
  6
ByLayer
 62
  256
370
   -1
100
AcDbCircle
 10
-42.09905727999999
 20
142.871935744
 40
12.86882561162318
100
AcDbArc
 50
174.854283557
 51
179.420905991
  0
ARC
  5
227
100
AcDbEntity
  8
0
  6
ByLayer
 62
  256
370
   -1
100
AcDbCircle
 10
-41.68940608
 20
142.871935744
 40
12.86882561162318
100
AcDbArc
 50
174.854283557
 51
179.420905991
  0
ARC
  5
228
100
AcDbEntity
  8
0
  6
ByLayer
 62
  256
370
   -1
100
AcDbCircle
 10
-54.7111936
 20
144.026128
 40
0.2048256
100
AcDbArc
 50
0
 51
180
  0
ARC
  5
229
100
AcDbEntity
  8
0
  6
ByLayer
 62
  256
370
   -1
100
AcDbCircle
 10
-54.76239999999998
 20
156.1592
 40
0.2048256
100
AcDbArc
 50
180
 51
0
  0
ARC
  5
22A
100
AcDbEntity
  8
0
  6
ByLayer
 62
  256
370
   -1
100
AcDbCircle
 10
-42.09905727999999
 20
156.029135744
 40
12.86882561162318
100
AcDbArc
 50
174.854283557
 51
179.420905991
  0
ARC
  5
22B
100
AcDbEntity
  8
0
  6
ByLayer
 62
  256
370
   -1
100
AcDbCircle
 10
-41.68940608
 20
156.029135744
 40
12.86882561162318
100
AcDbArc
 50
174.854283557
 51
179.420905991
  0
ARC
  5
22C
100
AcDbEntity
  8
0
  6
ByLayer
 62
  256
370
   -1
100
AcDbCircle
 10
-54.7111936
 20
157.183328
 40
0.2048256
100
AcDbArc
 50
0
 51
180
  0
ARC
  5
22D
100
AcDbEntity
  8
0
  6
ByLayer
 62
  256
370
   -1
100
AcDbCircle
 10
-54.76239999999998
 20
172.5168
 40
0.2048256
100
AcDbArc
 50
180
 51
0
  0
ARC
  5
22E
100
AcDbEntity
  8
0
  6
ByLayer
 62
  256
370
   -1
100
AcDbCircle
 10
-42.09905727999999
 20
172.386735744
 40
12.86882561162318
100
AcDbArc
 50
174.854283557
 51
179.420905991
  0
ARC
  5
22F
100
AcDbEntity
  8
0
  6
ByLayer
 62
  256
370
   -1
100
AcDbCircle
 10
-41.68940608
 20
172.386735744
 40
12.86882561162318
100
AcDbArc
 50
174.854283557
 51
179.420905991
  0
ARC
  5
230
100
AcDbEntity
  8
0
  6
ByLayer
 62
  256
370
   -1
100
AcDbCircle
 10
-54.7111936
 20
173.540928
 40
0.2048256
100
AcDbArc
 50
0
 51
180
  0
ARC
  5
231
100
AcDbEntity
  8
0
  6
ByLayer
 62
  256
370
   -1
100
AcDbCircle
 10
39.4716
 20
140.1572
 40
0.2032
100
AcDbArc
 50
180
 51
0
  0
ARC
  5
232
100
AcDbEntity
  8
0
  6
ByLayer
 62
  256
370
   -1
100
AcDbCircle
 10
26.90875999999999
 20
140.028168
 40
12.766692075023
100
AcDbArc
 50
0.57909400885
 51
5.14571644337
  0
ARC
  5
233
100
AcDbEntity
  8
0
  6
ByLayer
 62
  256
370
   -1
100
AcDbCircle
 10
26.50235999999999
 20
140.028168
 40
12.766692075023
100
AcDbArc
 50
0.579094008849
 51
5.14571644337
  0
ARC
  5
234
100
AcDbEntity
  8
0
  6
ByLayer
 62
  256
370
   -1
100
AcDbCircle
 10
39.42079999999999
 20
141.1732
 40
0.2032
100
AcDbArc
 50
0
 51
180
  0
ARC
  5
235
100
AcDbEntity
  8
0
  6
ByLayer
 62
  256
370
   -1
100
AcDbCircle
 10
39.4716
 20
154.3812
 40
0.2032
100
AcDbArc
 50
180
 51
0
  0
ARC
  5
236
100
AcDbEntity
  8
0
  6
ByLayer
 62
  256
370
   -1
100
AcDbCircle
 10
26.90875999999999
 20
154.252168
 40
12.766692075023
100
AcDbArc
 50
0.57909400885
 51
5.14571644337
  0
ARC
  5
237
100
AcDbEntity
  8
0
  6
ByLayer
 62
  256
370
   -1
100
AcDbCircle
 10
26.50235999999999
 20
154.252168
 40
12.766692075023
100
AcDbArc
 50
0.579094008849
 51
5.14571644337
  0
ARC
  5
238
100
AcDbEntity
  8
0
  6
ByLayer
 62
  256
370
   -1
100
AcDbCircle
 10
39.42079999999999
 20
155.3972
 40
0.2032
100
AcDbArc
 50
0
 51
180
  0
ARC
  5
239
100
AcDbEntity
  8
0
  6
ByLayer
 62
  256
370
   -1
100
AcDbCircle
 10
39.8272
 20
169.672
 40
0.2032
100
AcDbArc
 50
180
 51
0
  0
ARC
  5
23A
100
AcDbEntity
  8
0
  6
ByLayer
 62
  256
370
   -1
100
AcDbCircle
 10
27.26436
 20
169.542968
 40
12.766692075023
100
AcDbArc
 50
0.57909400885
 51
5.14571644337
  0
ARC
  5
23B
100
AcDbEntity
  8
0
  6
ByLayer
 62
  256
370
   -1
100
AcDbCircle
 10
26.85795999999999
 20
169.542968
 40
12.766692075023
100
AcDbArc
 50
0.579094008849
 51
5.14571644337
  0
ARC
  5
23C
100
AcDbEntity
  8
0
  6
ByLayer
 62
  256
370
   -1
100
AcDbCircle
 10
39.7764
 20
170.688
 40
0.2032
100
AcDbArc
 50
0
 51
180
  0
CIRCLE
  5
23D
100
AcDbEntity
  8
0
  6
ByLayer
 62
  256
370
   -1
100
AcDbCircle
 10
-33.42640000000001
 20
184.6072
 40
0.1778
  0
CIRCLE
  5
23E
100
AcDbEntity
  8
0
  6
ByLayer
 62
  256
370
   -1
100
AcDbCircle
 10
-30.58159999999999
 20
184.6072
 40
0.1778
  0
CIRCLE
  5
23F
100
AcDbEntity
  8
0
  6
ByLayer
 62
  256
370
   -1
100
AcDbCircle
 10
-8.783319999999991
 20
172.639482
 40
0.1778
  0
CIRCLE
  5
240
100
AcDbEntity
  8
0
  6
ByLayer
 62
  256
370
   -1
100
AcDbCircle
 10
-32.004
 20
169.24528
 40
0.1778
  0
CIRCLE
  5
241
100
AcDbEntity
  8
0
  6
ByLayer
 62
  256
370
   -1
100
AcDbCircle
 10
-55.6514
 20
161.4366596
 40
0.1778
  0
CIRCLE
  5
242
100
AcDbEntity
  8
0
  6
ByLayer
 62
  256
370
   -1
100
AcDbCircle
 10
-32.004
 20
155.736036
 40
0.1778
  0
CIRCLE
  5
243
100
AcDbEntity
  8
0
  6
ByLayer
 62
  256
370
   -1
100
AcDbCircle
 10
-8.783319999999991
 20
155.858718
 40
0.1778
  0
CIRCLE
  5
244
100
AcDbEntity
  8
0
  6
ByLayer
 62
  256
370
   -1
100
AcDbCircle
 10
-8.783319999999991
 20
142.701518
 40
0.1778
  0
CIRCLE
  5
245
100
AcDbEntity
  8
0
  6
ByLayer
 62
  256
370
   -1
100
AcDbCircle
 10
-32.004
 20
142.578836
 40
0.1778
  0
CIRCLE
  5
246
100
AcDbEntity
  8
0
  6
ByLayer
 62
  256
370
   -1
100
AcDbCircle
 10
-55.6514
 20
148.2794596
 40
0.1778
  0
CIRCLE
  5
247
100
AcDbEntity
  8
0
  6
ByLayer
 62
  256
370
   -1
100
AcDbCircle
 10
-55.6514
 20
135.6200995999953
 40
0.1778
  0
CIRCLE
  5
248
100
AcDbEntity
  8
0
  6
ByLayer
 62
  256
370
   -1
100
AcDbCircle
 10
-39.2938
 20
132.401564
 40
0.1778
  0
CIRCLE
  5
249
100
AcDbEntity
  8
0
  6
ByLayer
 62
  256
370
   -1
100
AcDbCircle
 10
-24.71419999999999
 20
132.401564
 40
0.1778
  0
CIRCLE
  5
24A
100
AcDbEntity
  8
0
  6
ByLayer
 62
  256
370
   -1
100
AcDbCircle
 10
11.21989119999999
 20
129.2073870000143
 40
0.1778
  0
CIRCLE
  5
24B
100
AcDbEntity
  8
0
  6
ByLayer
 62
  256
370
   -1
100
AcDbCircle
 10
17.60220000000001
 20
129.627884
 40
0.1778
  0
CIRCLE
  5
24C
100
AcDbEntity
  8
0
  6
ByLayer
 62
  256
370
   -1
100
AcDbCircle
 10
24.892
 20
129.1336
 40
0.1778
  0
CIRCLE
  5
24D
100
AcDbEntity
  8
0
  6
ByLayer
 62
  256
370
   -1
100
AcDbCircle
 10
32.18179999999999
 20
129.627884
 40
0.1778
  0
CIRCLE
  5
24E
100
AcDbEntity
  8
0
  6
ByLayer
 62
  256
370
   -1
100
AcDbCircle
 10
38.56410880000001
 20
129.2073870000143
 40
0.1778
  0
CIRCLE
  5
24F
100
AcDbEntity
  8
0
  6
ByLayer
 62
  256
370
   -1
100
AcDbCircle
 10
39.67073600000001
 20
133.11632
 40
0.1778
  0
CIRCLE
  5
250
100
AcDbEntity
  8
0
  6
ByLayer
 62
  256
370
   -1
100
AcDbCircle
 10
11.20140000000001
 20
140.1572
 40
0.1778
  0
CIRCLE
  5
251
100
AcDbEntity
  8
0
  6
ByLayer
 62
  256
370
   -1
100
AcDbCircle
 10
24.892
 20
140.1572
 40
0.1778
  0
CIRCLE
  5
252
100
AcDbEntity
  8
0
  6
ByLayer
 62
  256
370
   -1
100
AcDbCircle
 10
39.67073600008088
 20
146.4442079999823
 40
0.1778
  0
CIRCLE
  5
253
100
AcDbEntity
  8
0
  6
ByLayer
 62
  256
370
   -1
100
AcDbCircle
 10
11.20140000000001
 20
154.3812
 40
0.1778
  0
CIRCLE
  5
254
100
AcDbEntity
  8
0
  6
ByLayer
 62
  256
370
   -1
100
AcDbCircle
 10
24.892
 20
154.3812
 40
0.1778
  0
CIRCLE
  5
255
100
AcDbEntity
  8
0
  6
ByLayer
 62
  256
370
   -1
100
AcDbCircle
 10
39.67784799999999
 20
160.6582512
 40
0.1778
  0
CIRCLE
  5
256
100
AcDbEntity
  8
0
  6
ByLayer
 62
  256
370
   -1
100
AcDbCircle
 10
11.20140000000001
 20
169.28084
 40
0.1778
  0
CIRCLE
  5
257
100
AcDbEntity
  8
0
  6
ByLayer
 62
  256
370
   -1
100
AcDbCircle
 10
24.892
 20
167.5384
 40
0.1778
  0
CIRCLE
  5
258
100
AcDbEntity
  8
0
  6
ByLayer
 62
  256
370
   -1
100
AcDbCircle
 10
23.46959999999999
 20
185.617104
 40
0.1778
  0
CIRCLE
  5
259
100
AcDbEntity
  8
0
  6
ByLayer
 62
  256
370
   -1
100
AcDbCircle
 10
26.31439999999999
 20
185.617104
 40
0.1778
  0
MTEXT
  5
25A
100
AcDbEntity
  8
0
  6
ByLayer
 62
  256
370
   -1
100
AcDbMText
 10
-32.24999974559744
 20
104.8
 30
0
 40
0.5
 41
7.41666692381039
 71
    1
 72
    1
  1
Pauldrons Early 15thC\PSize: Large - 2XL\PPlate: 1L
  7
iso
210
0
220
0
230
1
 50
0
 73
    2
 44
1
  0
MTEXT
  5
25B
100
AcDbEntity
  8
0
  6
ByLayer
 62
  256
370
   -1
100
AcDbMText
 10
-31.78333307893081
 20
89.19999999999999
 30
0
 40
0.5
 41
7.41666692381039
 71
    1
 72
    1
  1
Pauldrons Early 15thC\PSize: Large - 2XL\PPlate: 2L
  7
iso
210
0
220
0
230
1
 50
0
 73
    2
 44
1
  0
MTEXT
  5
25C
100
AcDbEntity
  8
0
  6
ByLayer
 62
  256
370
   -1
100
AcDbMText
 10
-32.24999974559744
 20
78.40000000000001
 30
0
 40
0.5
 41
7.41666692381039
 71
    1
 72
    1
  1
Pauldrons Early 15thC\PSize: Large - 2XL\PPlate: 3L
  7
iso
210
0
220
0
230
1
 50
0
 73
    2
 44
1
  0
MTEXT
  5
25D
100
AcDbEntity
  8
0
  6
ByLayer
 62
  256
370
   -1
100
AcDbMText
 10
-32.4666666666667
 20
68.16
 30
0
 40
0.5
 41
7.41666692381039
 71
    1
 72
    1
  1
Pauldrons Early 15thC\PSize: Large - 2XL\PPlate: 4L
  7
iso
210
0
220
0
230
1
 50
0
 73
    2
 44
1
  0
MTEXT
  5
25E
100
AcDbEntity
  8
0
  6
ByLayer
 62
  256
370
   -1
100
AcDbMText
 10
17.41666692106919
 20
66.39999999999999
 30
0
 40
0.5
 41
7.41666692381039
 71
    1
 72
    1
  1
Pauldrons Early 15thC\PSize: Large - 2XL\PPlate: 4R
  7
iso
210
0
220
0
230
1
 50
0
 73
    2
 44
1
  0
MTEXT
  5
25F
100
AcDbEntity
  8
0
  6
ByLayer
 62
  256
370
   -1
100
AcDbMText
 10
16.86666666666661
 20
76.2
 30
0
 40
0.5
 41
7.41666692381039
 71
    1
 72
    1
  1
Pauldrons Early 15thC\PSize: Large - 2XL\PPlate: 3R
  7
iso
210
0
220
0
230
1
 50
0
 73
    2
 44
1
  0
MTEXT
  5
260
100
AcDbEntity
  8
0
  6
ByLayer
 62
  256
370
   -1
100
AcDbMText
 10
16.86666666666661
 20
88.2
 30
0
 40
0.5
 41
7.41666692381039
 71
    1
 72
    1
  1
Pauldrons Early 15thC\PSize: Large - 2XL\PPlate: 2R
  7
iso
210
0
220
0
230
1
 50
0
 73
    2
 44
1
  0
MTEXT
  5
261
100
AcDbEntity
  8
0
  6
ByLayer
 62
  256
370
   -1
100
AcDbMText
 10
16.8
 20
105.6
 30
0
 40
0.5
 41
7.41666692381039
 71
    1
 72
    1
  1
Pauldrons Early 15thC\PSize: Large - 2XL\PPlate: 1R
  7
iso
210
0
220
0
230
1
 50
0
 73
    2
 44
1
  0
MTEXT
  5
262
100
AcDbEntity
  8
0
  6
ByLayer
 62
  256
370
   -1
100
AcDbMText
 10
19.6
 20
180.2
 30
0
 40
0.5
 41
7.41666692381039
 71
    1
 72
    1
  1
Pauldrons Early 15thC\PSize: 3XL - 4XL\PPlate: 1R
  7
iso
210
0
220
0
230
1
 50
0
 73
    2
 44
1
  0
MTEXT
  5
263
100
AcDbEntity
  8
0
  6
ByLayer
 62
  256
370
   -1
100
AcDbMText
 10
19.67777777777771
 20
159.9
 30
0
 40
0.5
 41
7.41666692381039
 71
    1
 72
    1
  1
Pauldrons Early 15thC\PSize: 3XL - 4XL\PPlate: 2R
  7
iso
210
0
220
0
230
1
 50
0
 73
    2
 44
1
  0
MTEXT
  5
264
100
AcDbEntity
  8
0
  6
ByLayer
 62
  256
370
   -1
100
AcDbMText
 10
19.67777777777771
 20
145.9
 30
0
 40
0.5
 41
7.41666692381039
 71
    1
 72
    1
  1
Pauldrons Early 15thC\PSize: 3XL - 4XL\PPlate: 3R
  7
iso
210
0
220
0
230
1
 50
0
 73
    2
 44
1
  0
MTEXT
  5
265
100
AcDbEntity
  8
0
  6
ByLayer
 62
  256
370
   -1
100
AcDbMText
 10
20.29166640952302
 20
133.5
 30
0
 40
0.5
 41
7.41666692381039
 71
    1
 72
    1
  1
Pauldrons Early 15thC\PSize: 3XL - 4XL\PPlate: 4R
  7
iso
210
0
220
0
230
1
 50
0
 73
    2
 44
1
  0
MTEXT
  5
266
100
AcDbEntity
  8
0
  6
ByLayer
 62
  256
370
   -1
100
AcDbMText
 10
-37.87777777777782
 20
136.52
 30
0
 40
0.5
 41
7.41666692381039
 71
    1
 72
    1
  1
Pauldrons Early 15thC\PSize: 3XL - 4XL\PPlate: 4L
  7
iso
210
0
220
0
230
1
 50
0
 73
    2
 44
1
  0
MTEXT
  5
267
100
AcDbEntity
  8
0
  6
ByLayer
 62
  256
370
   -1
100
AcDbMText
 10
-37.62499970319702
 20
148.4666666666667
 30
0
 40
0.5
 41
7.41666692381039
 71
    1
 72
    1
  1
Pauldrons Early 15thC\PSize: 3XL - 4XL\PPlate: 3L
  7
iso
210
0
220
0
230
1
 50
0
 73
    2
 44
1
  0
MTEXT
  5
268
100
AcDbEntity
  8
0
  6
ByLayer
 62
  256
370
   -1
100
AcDbMText
 10
-37.08055525875261
 20
161.0666666666667
 30
0
 40
0.5
 41
7.41666692381039
 71
    1
 72
    1
  1
Pauldrons Early 15thC\PSize: 3XL - 4XL\PPlate: 2L
  7
iso
210
0
220
0
230
1
 50
0
 73
    2
 44
1
  0
MTEXT
  5
269
100
AcDbEntity
  8
0
  6
ByLayer
 62
  256
370
   -1
100
AcDbMText
 10
-37.62499970319702
 20
179.2666666666667
 30
0
 40
0.5
 41
7.41666692381039
 71
    1
 72
    1
  1
Pauldrons Early 15thC\PSize: 3XL - 4XL\PPlate: 1L
  7
iso
210
0
220
0
230
1
 50
0
 73
    2
 44
1
  0
MTEXT
  5
26A
100
AcDbEntity
  8
0
  6
ByLayer
 62
  256
370
   -1
100
AcDbMText
 10
1.388888888888352
 20
235
 30
0
 40
10
 41
163.8888888888909
 71
    5
 72
    1
  1
Early 15thC Pauldrons\PMarch 03, 2020 at 10:40\PUnits = cm
  7
standard
210
0
220
0
230
1
 50
0
 73
    2
 44
1
  0
CIRCLE
  5
26B
100
AcDbEntity
  8
0
  6
ByLayer
 62
  256
370
   -1
100
AcDbCircle
 10
-22.86
 20
3.56654
 40
0.1778
  0
CIRCLE
  5
26C
100
AcDbEntity
  8
0
  6
ByLayer
 62
  256
370
   -1
100
AcDbCircle
 10
-6.273799999999994
 20
3.564
 40
0.1778
  0
CIRCLE
  5
26D
100
AcDbEntity
  8
0
  6
ByLayer
 62
  256
370
   -1
100
AcDbCircle
 10
-39.4462
 20
3.564
 40
0.1778
  0
CIRCLE
  5
26E
100
AcDbEntity
  8
0
  6
ByLayer
 62
  256
370
   -1
100
AcDbCircle
 10
-47.33544000000001
 20
64.27679999999998
 40
0.1651
  0
CIRCLE
  5
26F
100
AcDbEntity
  8
0
  6
ByLayer
 62
  256
370
   -1
100
AcDbCircle
 10
-27.432
 20
64.27984800000002
 40
0.1651
  0
CIRCLE
  5
270
100
AcDbEntity
  8
0
  6
ByLayer
 62
  256
370
   -1
100
AcDbCircle
 10
-7.528559999999993
 20
64.27679999999998
 40
0.1651
  0
CIRCLE
  5
271
100
AcDbEntity
  8
0
  6
ByLayer
 62
  256
370
   -1
100
AcDbCircle
 10
-55.22468000000001
 20
131.9896
 40
0.1778
  0
CIRCLE
  5
272
100
AcDbEntity
  8
0
  6
ByLayer
 62
  256
370
   -1
100
AcDbCircle
 10
-32.004
 20
131.993156
 40
0.1778
  0
CIRCLE
  5
273
100
AcDbEntity
  8
0
  6
ByLayer
 62
  256
370
   -1
100
AcDbCircle
 10
-8.783319999999991
 20
131.9896
 40
0.1778
  0
ENDSEC
  0
SECTION
  2
OBJECTS
  0
DICTIONARY
  5
C
330
0
100
AcDbDictionary
281
    1
  3
ACAD_GROUP
350
D
  0
DICTIONARY
  5
D
330
C
100
AcDbDictionary
281
    1
  0
ENDSEC
  0
EOF
