999
dxflib 2.2.0.0
  0
SECTION
  2
HEADER
  9
$ACADVER
  1
AC1015
  9
$HANDSEED
  5
FFFF
  9
$DIMASZ
 40
0.1
  9
$PLIMMIN
 10
0.0
 20
0.0
  9
$DIMEXE
 40
0.05
  9
$DIMGAP
 40
0.025
  9
$PLIMMAX
 10
8.2677165354330722
 20
11.6929133858267722
  9
$INSUNITS
 70
1
  9
$DIMSTYLE
  2
Standard
  9
$MEASUREMENT
 70
1
  9
$DIMEXO
 40
0.025
  9
$DIMTXT
 40
0.1
  0
ENDSEC
  0
SECTION
  2
TABLES
  0
TABLE
  2
VPORT
  5
8
100
AcDbSymbolTable
 70
1
  0
VPORT
  5
30
100
AcDbSymbolTableRecord
100
AcDbViewportTableRecord
  2
*Active
 70
0
 10
0.0
 20
0.0
 11
1.0
 21
1.0
 12
286.3055555555554861
 22
148.5
 13
0.0
 23
0.0
 14
10.0
 24
10.0
 15
10.0
 25
10.0
 16
0.0
 26
0.0
 36
1.0
 17
0.0
 27
0.0
 37
0.0
 40
297.0
 41
1.92798353909465
 42
50.0
 43
0.0
 44
0.0
 50
0.0
 51
0.0
 71
0
 72
100
 73
1
 74
3
 75
1
 76
1
 77
0
 78
0
281
0
 65
1
110
0.0
120
0.0
130
0.0
111
1.0
121
0.0
131
0.0
112
0.0
122
1.0
132
0.0
 79
0
146
0.0
  0
ENDTAB
  0
TABLE
  2
LTYPE
  5
5
100
AcDbSymbolTable
 70
21
  0
LTYPE
  5
14
100
AcDbSymbolTableRecord
100
AcDbLinetypeTableRecord
  2
ByBlock
 70
0
  3

 72
65
 73
0
 40
0.0
  0
LTYPE
  5
15
100
AcDbSymbolTableRecord
100
AcDbLinetypeTableRecord
  2
ByLayer
 70
0
  3

 72
65
 73
0
 40
0.0
  0
LTYPE
  5
16
100
AcDbSymbolTableRecord
100
AcDbLinetypeTableRecord
  2
CONTINUOUS
 70
0
  3
Solid line
 72
65
 73
0
 40
0.0
  0
LTYPE
  5
31
100
AcDbSymbolTableRecord
100
AcDbLinetypeTableRecord
  2
DOT
 70
0
  3
Dot . . . . . . . . . . . . . . . . . . . . . .
 72
65
 73
2
 40
6.3499999999999996
 49
0.0
 74
0
 49
-6.3499999999999996
 74
0
  0
LTYPE
  5
32
100
AcDbSymbolTableRecord
100
AcDbLinetypeTableRecord
  2
DOT2
 70
0
  3
Dot (.5x) .....................................
 72
65
 73
2
 40
3.1749999999999998
 49
0.0
 74
0
 49
-3.1749999999999998
 74
0
  0
LTYPE
  5
33
100
AcDbSymbolTableRecord
100
AcDbLinetypeTableRecord
  2
DOTX2
 70
0
  3
Dot (2x) .  .  .  .  .  .  .  .  .  .  .  .  .
 72
65
 73
2
 40
12.6999999999999993
 49
0.0
 74
0
 49
-12.6999999999999993
 74
0
  0
LTYPE
  5
34
100
AcDbSymbolTableRecord
100
AcDbLinetypeTableRecord
  2
DASHED
 70
0
  3
Dashed __ __ __ __ __ __ __ __ __ __ __ __ __ _
 72
65
 73
2
 40
19.0500000000000007
 49
12.6999999999999993
 74
0
 49
-6.3499999999999996
 74
0
  0
LTYPE
  5
35
100
AcDbSymbolTableRecord
100
AcDbLinetypeTableRecord
  2
DASHED2
 70
0
  3
Dashed (.5x) _ _ _ _ _ _ _ _ _ _ _ _ _ _ _ _ _
 72
65
 73
2
 40
9.5250000000000004
 49
6.3499999999999996
 74
0
 49
-3.1749999999999998
 74
0
  0
LTYPE
  5
36
100
AcDbSymbolTableRecord
100
AcDbLinetypeTableRecord
  2
DASHEDX2
 70
0
  3
Dashed (2x) ____  ____  ____  ____  ____  ___
 72
65
 73
2
 40
38.1000000000000014
 49
25.3999999999999986
 74
0
 49
-12.6999999999999993
 74
0
  0
LTYPE
  5
37
100
AcDbSymbolTableRecord
100
AcDbLinetypeTableRecord
  2
DASHDOT
 70
0
  3
Dash dot __ . __ . __ . __ . __ . __ . __ . __
 72
65
 73
4
 40
25.3999999999999986
 49
12.6999999999999993
 74
0
 49
-6.3499999999999996
 74
0
 49
0.0
 74
0
 49
-6.3499999999999996
 74
0
  0
LTYPE
  5
38
100
AcDbSymbolTableRecord
100
AcDbLinetypeTableRecord
  2
DASHDOT2
 70
0
  3
Dash dot (.5x) _._._._._._._._._._._._._._._.
 72
65
 73
4
 40
12.6999999999999993
 49
6.3499999999999996
 74
0
 49
-3.1749999999999998
 74
0
 49
0.0
 74
0
 49
-3.1749999999999998
 74
0
  0
LTYPE
  5
39
100
AcDbSymbolTableRecord
100
AcDbLinetypeTableRecord
  2
DASHDOTX2
 70
0
  3
Dash dot (2x) ____  .  ____  .  ____  .  ___
 72
65
 73
4
 40
50.7999999999999972
 49
25.3999999999999986
 74
0
 49
-12.6999999999999993
 74
0
 49
0.0
 74
0
 49
-12.6999999999999993
 74
0
  0
LTYPE
  5
3A
100
AcDbSymbolTableRecord
100
AcDbLinetypeTableRecord
  2
DIVIDE
 70
0
  3
Divide ____ . . ____ . . ____ . . ____ . . ____
 72
65
 73
6
 40
31.75
 49
12.6999999999999993
 74
0
 49
-6.3499999999999996
 74
0
 49
0.0
 74
0
 49
-6.3499999999999996
 74
0
 49
0.0
 74
0
 49
-6.3499999999999996
 74
0
  0
LTYPE
  5
3B
100
AcDbSymbolTableRecord
100
AcDbLinetypeTableRecord
  2
DIVIDE2
 70
0
  3
Divide (.5x) __..__..__..__..__..__..__..__.._
 72
65
 73
6
 40
15.875
 49
6.3499999999999996
 74
0
 49
-3.1749999999999998
 74
0
 49
0.0
 74
0
 49
-3.1749999999999998
 74
0
 49
0.0
 74
0
 49
-3.1749999999999998
 74
0
  0
LTYPE
  5
3C
100
AcDbSymbolTableRecord
100
AcDbLinetypeTableRecord
  2
DIVIDEX2
 70
0
  3
Divide (2x) ________  .  .  ________  .  .  _
 72
65
 73
6
 40
63.5
 49
25.3999999999999986
 74
0
 49
-12.6999999999999993
 74
0
 49
0.0
 74
0
 49
-12.6999999999999993
 74
0
 49
0.0
 74
0
 49
-12.6999999999999993
 74
0
  0
LTYPE
  5
3D
100
AcDbSymbolTableRecord
100
AcDbLinetypeTableRecord
  2
CENTER
 70
0
  3
Center ____ _ ____ _ ____ _ ____ _ ____ _ ____
 72
65
 73
4
 40
50.7999999999999972
 49
31.75
 74
0
 49
-6.3499999999999996
 74
0
 49
6.3499999999999996
 74
0
 49
-6.3499999999999996
 74
0
  0
LTYPE
  5
3E
100
AcDbSymbolTableRecord
100
AcDbLinetypeTableRecord
  2
CENTER2
 70
0
  3
Center (.5x) ___ _ ___ _ ___ _ ___ _ ___ _ ___
 72
65
 73
4
 40
28.5749999999999993
 49
19.0500000000000007
 74
0
 49
-3.1749999999999998
 74
0
 49
3.1749999999999998
 74
0
 49
-3.1749999999999998
 74
0
  0
LTYPE
  5
3F
100
AcDbSymbolTableRecord
100
AcDbLinetypeTableRecord
  2
CENTERX2
 70
0
  3
Center (2x) ________  __  ________  __  _____
 72
65
 73
4
 40
101.5999999999999943
 49
63.5
 74
0
 49
-12.6999999999999993
 74
0
 49
12.6999999999999993
 74
0
 49
-12.6999999999999993
 74
0
  0
LTYPE
  5
40
100
AcDbSymbolTableRecord
100
AcDbLinetypeTableRecord
  2
BORDER
 70
0
  3
Border __ __ . __ __ . __ __ . __ __ . __ __ .
 72
65
 73
6
 40
44.4500000000000028
 49
12.6999999999999993
 74
0
 49
-6.3499999999999996
 74
0
 49
12.6999999999999993
 74
0
 49
-6.3499999999999996
 74
0
 49
0.0
 74
0
 49
-6.3499999999999996
 74
0
  0
LTYPE
  5
41
100
AcDbSymbolTableRecord
100
AcDbLinetypeTableRecord
  2
BORDER2
 70
0
  3
Border (.5x) __.__.__.__.__.__.__.__.__.__.__.
 72
65
 73
6
 40
22.2250000000000014
 49
6.3499999999999996
 74
0
 49
-3.1749999999999998
 74
0
 49
6.3499999999999996
 74
0
 49
-3.1749999999999998
 74
0
 49
0.0
 74
0
 49
-3.1749999999999998
 74
0
  0
LTYPE
  5
42
100
AcDbSymbolTableRecord
100
AcDbLinetypeTableRecord
  2
BORDERX2
 70
0
  3
Border (2x) ____  ____  .  ____  ____  .  ___
 72
65
 73
6
 40
88.9000000000000057
 49
25.3999999999999986
 74
0
 49
-12.6999999999999993
 74
0
 49
25.3999999999999986
 74
0
 49
-12.6999999999999993
 74
0
 49
0.0
 74
0
 49
-12.6999999999999993
 74
0
  0
ENDTAB
  0
TABLE
  2
LAYER
  5
2
100
AcDbSymbolTable
 70
2
  0
LAYER
  5
10
100
AcDbSymbolTableRecord
100
AcDbLayerTableRecord
  2
0
 70
0
 62
7
  6
CONTINUOUS
390
F
  0
LAYER
  5
43
100
AcDbSymbolTableRecord
100
AcDbLayerTableRecord
  2
Layer_1
 70
0
 62
7
  6
CONTINUOUS
390
F
  0
ENDTAB
  0
TABLE
  2
STYLE
  5
3
100
AcDbSymbolTable
 70
1
  0
STYLE
  5
11
100
AcDbSymbolTableRecord
100
AcDbTextStyleTableRecord
  2
Standard
 70
0
 40
0.0
 41
0.75
 50
0.0
 71
0
 42
2.5
  3
txt
  4

  0
ENDTAB
  0
TABLE
  2
VIEW
  5
6
100
AcDbSymbolTable
 70
0
  0
ENDTAB
  0
TABLE
  2
UCS
  5
7
100
AcDbSymbolTable
 70
0
  0
ENDTAB
  0
TABLE
  2
APPID
  5
9
100
AcDbSymbolTable
 70
1
  0
APPID
  5
12
100
AcDbSymbolTableRecord
100
AcDbRegAppTableRecord
  2
ACAD
 70
0
  0
ENDTAB
  0
TABLE
  2
DIMSTYLE
  5
A
100
AcDbSymbolTable
 70
1
100
AcDbDimStyleTable
 71
0
  0
DIMSTYLE
105
27
100
AcDbSymbolTableRecord
100
AcDbDimStyleTableRecord
  2
Standard
 41
0.1
 42
0.025
 43
3.75
 44
0.05
 70
0
 73
0
 74
0
 77
1
 78
8
140
0.1
141
2.5
143
0.03937007874016
147
0.025
171
3
172
1
271
2
272
2
274
3
278
44
283
0
284
8
340
11
  0
ENDTAB
  0
TABLE
  2
BLOCK_RECORD
  5
1
100
AcDbSymbolTable
 70
1
  0
BLOCK_RECORD
  5
1F
100
AcDbSymbolTableRecord
100
AcDbBlockTableRecord
  2
*Model_Space
340
22
  0
BLOCK_RECORD
  5
1B
100
AcDbSymbolTableRecord
100
AcDbBlockTableRecord
  2
*Paper_Space
340
1E
  0
BLOCK_RECORD
  5
23
100
AcDbSymbolTableRecord
100
AcDbBlockTableRecord
  2
*Paper_Space0
340
26
  0
ENDTAB
  0
ENDSEC
  0
SECTION
  2
BLOCKS
  0
BLOCK
  5
20
100
AcDbEntity
  8
0
100
AcDbBlockBegin
  2
*Model_Space
 70
0
 10
0.0
 20
0.0
 30
0.0
  3
*Model_Space
  1

  0
ENDBLK
  5
21
100
AcDbEntity
  8
0
100
AcDbBlockEnd
  0
BLOCK
  5
1C
100
AcDbEntity
 67
1
  8
0
100
AcDbBlockBegin
  2
*Paper_Space
 70
0
 10
0.0
 20
0.0
 30
0.0
  3
*Paper_Space
  1

  0
ENDBLK
  5
1D
100
AcDbEntity
 67
1
  8
0
100
AcDbBlockEnd
  0
BLOCK
  5
24
100
AcDbEntity
  8
0
100
AcDbBlockBegin
  2
*Paper_Space0
 70
0
 10
0.0
 20
0.0
 30
0.0
  3
*Paper_Space0
  1

  0
ENDBLK
  5
25
100
AcDbEntity
  8
0
100
AcDbBlockEnd
  0
ENDSEC
  0
SECTION
  2
ENTITIES
  0
LWPOLYLINE
  5
44
  8
Layer_1
 62
256
370
-1
  6
ByLayer
100
AcDbEntity
100
AcDbPolyline
 90
2
 70
0
 10
6.0071869752869587
 20
0.0705094930690568
 10
6.0071869752869587
 20
0.0705094930690568
  0
LWPOLYLINE
  5
45
  8
Layer_1
 62
256
370
-1
  6
ByLayer
100
AcDbEntity
100
AcDbPolyline
 90
2
 70
0
 10
6.2266129752869581
 20
0.1229524930690569
 10
6.2266129752869581
 20
0.1229524930690569
  0
SPLINE
  5
46
  8
Layer_1
 62
256
370
-1
  6
ByLayer
100
AcDbEntity
100
AcDbSpline
 70
8
 71
3
 72
8
 73
4
 74
0
 40
0.0
 40
0.0
 40
0.0
 40
0.0
 40
1.0
 40
1.0
 40
1.0
 40
1.0
 10
6.1950469752869584
 20
0.2071374930690568
 30
0.0
 10
6.2146719752869579
 20
0.2535244930690568
 30
0.0
 10
6.3627289752869585
 20
0.7177704930690569
 30
0.0
 10
6.4120879752869584
 20
0.8876924930690571
 30
0.0
  0
SPLINE
  5
47
  8
Layer_1
 62
256
370
-1
  6
ByLayer
100
AcDbEntity
100
AcDbSpline
 70
8
 71
3
 72
8
 73
4
 74
0
 40
0.0
 40
0.0
 40
0.0
 40
0.0
 40
1.0
 40
1.0
 40
1.0
 40
1.0
 10
6.4120879752869584
 20
0.8876924930690571
 30
0.0
 10
6.424513975286958
 20
0.9304704930690568
 30
0.0
 10
6.4394859752869582
 20
0.9754704930690568
 30
0.0
 10
6.4453599752869586
 20
0.9876924930690567
 30
0.0
  0
SPLINE
  5
48
  8
Layer_1
 62
256
370
-1
  6
ByLayer
100
AcDbEntity
100
AcDbSpline
 70
8
 71
3
 72
8
 73
4
 74
0
 40
0.0
 40
0.0
 40
0.0
 40
0.0
 40
1.0
 40
1.0
 40
1.0
 40
1.0
 10
6.4453599752869586
 20
0.9876924930690567
 30
0.0
 10
6.4512329752869579
 20
0.9999154930690568
 30
0.0
 10
6.4632209752869585
 20
1.0449154930690567
 30
0.0
 10
6.471998975286958
 20
1.0876924930690568
 30
0.0
  0
SPLINE
  5
49
  8
Layer_1
 62
256
370
-1
  6
ByLayer
100
AcDbEntity
100
AcDbSpline
 70
8
 71
3
 72
8
 73
4
 74
0
 40
0.0
 40
0.0
 40
0.0
 40
0.0
 40
1.0
 40
1.0
 40
1.0
 40
1.0
 10
6.471998975286958
 20
1.0876924930690568
 30
0.0
 10
6.4807779752869585
 20
1.130470493069057
 30
0.0
 10
6.5038519752869579
 20
1.2254704930690568
 30
0.0
 10
6.5232749752869585
 20
1.2988044930690568
 30
0.0
  0
SPLINE
  5
4A
  8
Layer_1
 62
256
370
-1
  6
ByLayer
100
AcDbEntity
100
AcDbSpline
 70
8
 71
3
 72
8
 73
4
 74
0
 40
0.0
 40
0.0
 40
0.0
 40
0.0
 40
1.0
 40
1.0
 40
1.0
 40
1.0
 10
6.5232749752869585
 20
1.2988044930690568
 30
0.0
 10
6.5426979752869583
 20
1.3721374930690571
 30
0.0
 10
6.5633389752869586
 20
1.4771374930690571
 30
0.0
 10
6.5691439752869583
 20
1.5321374930690568
 30
0.0
  0
SPLINE
  5
4B
  8
Layer_1
 62
256
370
-1
  6
ByLayer
100
AcDbEntity
100
AcDbSpline
 70
8
 71
3
 72
8
 73
4
 74
0
 40
0.0
 40
0.0
 40
0.0
 40
0.0
 40
1.0
 40
1.0
 40
1.0
 40
1.0
 10
6.5691439752869583
 20
1.5321374930690568
 30
0.0
 10
6.5749489752869579
 20
1.5871374930690569
 30
0.0
 10
6.5869799752869582
 20
1.6771374930690568
 30
0.0
 10
6.5958799752869579
 20
1.732137493069057
 30
0.0
  0
SPLINE
  5
4C
  8
Layer_1
 62
256
370
-1
  6
ByLayer
100
AcDbEntity
100
AcDbSpline
 70
8
 71
3
 72
8
 73
4
 74
0
 40
0.0
 40
0.0
 40
0.0
 40
0.0
 40
1.0
 40
1.0
 40
1.0
 40
1.0
 10
6.5958799752869579
 20
1.732137493069057
 30
0.0
 10
6.6271579752869583
 20
1.9254344930690568
 30
0.0
 10
6.6557229752869587
 20
2.302002493069057
 30
0.0
 10
6.657827975286958
 20
2.5488044930690568
 30
0.0
  0
SPLINE
  5
4D
  8
Layer_1
 62
256
370
-1
  6
ByLayer
100
AcDbEntity
100
AcDbSpline
 70
8
 71
3
 72
8
 73
4
 74
0
 40
0.0
 40
0.0
 40
0.0
 40
0.0
 40
1.0
 40
1.0
 40
1.0
 40
1.0
 10
6.657827975286958
 20
2.5488044930690568
 30
0.0
 10
6.6595789752869585
 20
2.754005493069057
 30
0.0
 10
6.6300439752869584
 20
3.2359984930690571
 30
0.0
 10
6.6071039752869583
 20
3.3765814930690565
 30
0.0
  0
SPLINE
  5
4E
  8
Layer_1
 62
256
370
-1
  6
ByLayer
100
AcDbEntity
100
AcDbSpline
 70
8
 71
3
 72
8
 73
4
 74
0
 40
0.0
 40
0.0
 40
0.0
 40
0.0
 40
1.0
 40
1.0
 40
1.0
 40
1.0
 10
6.6071039752869583
 20
3.3765814930690565
 30
0.0
 10
6.5981289752869587
 20
3.4315814930690571
 30
0.0
 10
6.5831059752869585
 20
3.5465814930690565
 30
0.0
 10
6.5737189752869583
 20
3.6321374930690569
 30
0.0
  0
SPLINE
  5
4F
  8
Layer_1
 62
256
370
-1
  6
ByLayer
100
AcDbEntity
100
AcDbSpline
 70
8
 71
3
 72
8
 73
4
 74
0
 40
0.0
 40
0.0
 40
0.0
 40
0.0
 40
1.0
 40
1.0
 40
1.0
 40
1.0
 10
6.5737189752869583
 20
3.6321374930690569
 30
0.0
 10
6.564331975286958
 20
3.7176924930690571
 30
0.0
 10
6.5486789752869585
 20
3.8226924930690567
 30
0.0
 10
6.5389359752869582
 20
3.8654704930690569
 30
0.0
  0
SPLINE
  5
50
  8
Layer_1
 62
256
370
-1
  6
ByLayer
100
AcDbEntity
100
AcDbSpline
 70
8
 71
3
 72
8
 73
4
 74
0
 40
0.0
 40
0.0
 40
0.0
 40
0.0
 40
1.0
 40
1.0
 40
1.0
 40
1.0
 10
6.5389359752869582
 20
3.8654704930690569
 30
0.0
 10
6.4902079752869586
 20
4.0794074930690565
 30
0.0
 10
6.4538409752869583
 20
4.225195493069057
 30
0.0
 10
6.4286259752869581
 20
4.307673493069057
 30
0.0
  0
SPLINE
  5
51
  8
Layer_1
 62
256
370
-1
  6
ByLayer
100
AcDbEntity
100
AcDbSpline
 70
8
 71
3
 72
8
 73
4
 74
0
 40
0.0
 40
0.0
 40
0.0
 40
0.0
 40
1.0
 40
1.0
 40
1.0
 40
1.0
 10
6.4286259752869581
 20
4.307673493069057
 30
0.0
 10
6.4133039752869587
 20
4.357795493069057
 30
0.0
 10
6.3904019752869585
 20
4.433804493069057
 30
0.0
 10
6.3777319752869586
 20
4.4765814930690571
 30
0.0
  0
SPLINE
  5
52
  8
Layer_1
 62
256
370
-1
  6
ByLayer
100
AcDbEntity
100
AcDbSpline
 70
8
 71
3
 72
8
 73
4
 74
0
 40
0.0
 40
0.0
 40
0.0
 40
0.0
 40
1.0
 40
1.0
 40
1.0
 40
1.0
 10
6.3777319752869586
 20
4.4765814930690571
 30
0.0
 10
6.3650629752869587
 20
4.5193594930690573
 30
0.0
 10
6.3445519752869579
 20
4.5818594930690573
 30
0.0
 10
6.3321529752869585
 20
4.6154704930690569
 30
0.0
  0
SPLINE
  5
53
  8
Layer_1
 62
256
370
-1
  6
ByLayer
100
AcDbEntity
100
AcDbSpline
 70
8
 71
3
 72
8
 73
4
 74
0
 40
0.0
 40
0.0
 40
0.0
 40
0.0
 40
1.0
 40
1.0
 40
1.0
 40
1.0
 10
6.3321529752869585
 20
4.6154704930690569
 30
0.0
 10
6.3197539752869583
 20
4.6490814930690565
 30
0.0
 10
6.2932059752869582
 20
4.7250844930690565
 30
0.0
 10
6.273156975286958
 20
4.784366493069057
 30
0.0
  0
SPLINE
  5
54
  8
Layer_1
 62
256
370
-1
  6
ByLayer
100
AcDbEntity
100
AcDbSpline
 70
8
 71
3
 72
8
 73
4
 74
0
 40
0.0
 40
0.0
 40
0.0
 40
0.0
 40
1.0
 40
1.0
 40
1.0
 40
1.0
 10
6.273156975286958
 20
4.784366493069057
 30
0.0
 10
6.2151699752869582
 20
4.9558314930690566
 30
0.0
 10
6.0351799752869582
 20
5.3363594930690565
 30
0.0
 10
5.905806975286958
 20
5.5610064930690566
 30
0.0
  0
SPLINE
  5
55
  8
Layer_1
 62
256
370
-1
  6
ByLayer
100
AcDbEntity
100
AcDbSpline
 70
8
 71
3
 72
8
 73
4
 74
0
 40
0.0
 40
0.0
 40
0.0
 40
0.0
 40
1.0
 40
1.0
 40
1.0
 40
1.0
 10
5.905806975286958
 20
5.5610064930690566
 30
0.0
 10
5.8790659752869585
 20
5.6074404930690571
 30
0.0
 10
5.8571869752869583
 20
5.6482284930690572
 30
0.0
 10
5.8571869752869583
 20
5.6516454930690569
 30
0.0
  0
SPLINE
  5
56
  8
Layer_1
 62
256
370
-1
  6
ByLayer
100
AcDbEntity
100
AcDbSpline
 70
8
 71
3
 72
8
 73
4
 74
0
 40
0.0
 40
0.0
 40
0.0
 40
0.0
 40
1.0
 40
1.0
 40
1.0
 40
1.0
 10
5.8571869752869583
 20
5.6516454930690569
 30
0.0
 10
5.8571869752869583
 20
5.7020164930690571
 30
0.0
 10
5.4022239752869581
 20
6.3803304930690565
 30
0.0
 10
5.2517129752869582
 20
6.5543594930690565
 30
0.0
  0
SPLINE
  5
57
  8
Layer_1
 62
256
370
-1
  6
ByLayer
100
AcDbEntity
100
AcDbSpline
 70
8
 71
3
 72
8
 73
4
 74
0
 40
0.0
 40
0.0
 40
0.0
 40
0.0
 40
1.0
 40
1.0
 40
1.0
 40
1.0
 10
5.2517129752869582
 20
6.5543594930690565
 30
0.0
 10
5.2147159752869587
 20
6.5971374930690567
 30
0.0
 10
5.1720629752869582
 20
6.6477144930690573
 30
0.0
 10
5.1569279752869583
 20
6.6667534930690566
 30
0.0
  0
SPLINE
  5
58
  8
Layer_1
 62
256
370
-1
  6
ByLayer
100
AcDbEntity
100
AcDbSpline
 70
8
 71
3
 72
8
 73
4
 74
0
 40
0.0
 40
0.0
 40
0.0
 40
0.0
 40
1.0
 40
1.0
 40
1.0
 40
1.0
 10
5.1569279752869583
 20
6.6667534930690566
 30
0.0
 10
4.9626179752869586
 20
6.9111814930690576
 30
0.0
 10
4.6957639752869582
 20
7.1790664930690573
 30
0.0
 10
4.4849649752869585
 20
7.3413144930690573
 30
0.0
  0
SPLINE
  5
59
  8
Layer_1
 62
256
370
-1
  6
ByLayer
100
AcDbEntity
100
AcDbSpline
 70
8
 71
3
 72
8
 73
4
 74
0
 40
0.0
 40
0.0
 40
0.0
 40
0.0
 40
1.0
 40
1.0
 40
1.0
 40
1.0
 10
4.4849649752869585
 20
7.3413144930690573
 30
0.0
 10
4.423852975286958
 20
7.3883504930690576
 30
0.0
 10
4.349114975286958
 20
7.4463944930690564
 30
0.0
 10
4.3188779752869584
 20
7.4703014930690577
 30
0.0
  0
SPLINE
  5
5A
  8
Layer_1
 62
256
370
-1
  6
ByLayer
100
AcDbEntity
100
AcDbSpline
 70
8
 71
3
 72
8
 73
4
 74
0
 40
0.0
 40
0.0
 40
0.0
 40
0.0
 40
1.0
 40
1.0
 40
1.0
 40
1.0
 10
4.3188779752869584
 20
7.4703014930690577
 30
0.0
 10
4.254684975286958
 20
7.5210574930690575
 30
0.0
 10
4.2652319752869587
 20
7.5236934930690564
 30
0.0
 10
4.1057379752869583
 20
7.4170404930690568
 30
0.0
  0
SPLINE
  5
5B
  8
Layer_1
 62
256
370
-1
  6
ByLayer
100
AcDbEntity
100
AcDbSpline
 70
8
 71
3
 72
8
 73
4
 74
0
 40
0.0
 40
0.0
 40
0.0
 40
0.0
 40
1.0
 40
1.0
 40
1.0
 40
1.0
 10
4.1057379752869583
 20
7.4170404930690568
 30
0.0
 10
3.6450189752869582
 20
7.1089624930690567
 30
0.0
 10
3.3594419752869582
 20
7.0995204930690567
 30
0.0
 10
2.6960759752869583
 20
7.3704324930690577
 30
0.0
  0
SPLINE
  5
5C
  8
Layer_1
 62
256
370
-1
  6
ByLayer
100
AcDbEntity
100
AcDbSpline
 70
8
 71
3
 72
8
 73
4
 74
0
 40
0.0
 40
0.0
 40
0.0
 40
0.0
 40
1.0
 40
1.0
 40
1.0
 40
1.0
 10
2.6960759752869583
 20
7.3704324930690577
 30
0.0
 10
2.2558209752869582
 20
7.5502284930690573
 30
0.0
 10
1.8794089752869585
 20
7.9299804930690572
 30
0.0
 10
1.8794089752869585
 20
8.1943464930690553
 30
0.0
  0
SPLINE
  5
5D
  8
Layer_1
 62
256
370
-1
  6
ByLayer
100
AcDbEntity
100
AcDbSpline
 70
8
 71
3
 72
8
 73
4
 74
0
 40
0.0
 40
0.0
 40
0.0
 40
0.0
 40
1.0
 40
1.0
 40
1.0
 40
1.0
 10
1.8794089752869585
 20
8.1943464930690553
 30
0.0
 10
1.8794089752869585
 20
8.4481854930690581
 30
0.0
 10
1.8667329752869581
 20
8.4655144930690582
 30
0.0
 10
1.6738529752869584
 20
8.4753534930690577
 30
0.0
  0
SPLINE
  5
5E
  8
Layer_1
 62
256
370
-1
  6
ByLayer
100
AcDbEntity
100
AcDbSpline
 70
8
 71
3
 72
8
 73
4
 74
0
 40
0.0
 40
0.0
 40
0.0
 40
0.0
 40
1.0
 40
1.0
 40
1.0
 40
1.0
 10
1.6738529752869584
 20
8.4753534930690577
 30
0.0
 10
1.5944089752869584
 20
8.4794064930690567
 30
0.0
 10
1.4669089752869584
 20
8.4875404930690586
 30
0.0
 10
1.3905199752869581
 20
8.4934294930690584
 30
0.0
  0
SPLINE
  5
5F
  8
Layer_1
 62
256
370
-1
  6
ByLayer
100
AcDbEntity
100
AcDbSpline
 70
8
 71
3
 72
8
 73
4
 74
0
 40
0.0
 40
0.0
 40
0.0
 40
0.0
 40
1.0
 40
1.0
 40
1.0
 40
1.0
 10
1.3905199752869581
 20
8.4934294930690584
 30
0.0
 10
1.3141309752869583
 20
8.4993184930690582
 30
0.0
 10
1.1841309752869584
 20
8.506705493069056
 30
0.0
 10
1.1016309752869584
 20
8.5098434930690559
 30
0.0
  0
SPLINE
  5
60
  8
Layer_1
 62
256
370
-1
  6
ByLayer
100
AcDbEntity
100
AcDbSpline
 70
8
 71
3
 72
8
 73
4
 74
0
 40
0.0
 40
0.0
 40
0.0
 40
0.0
 40
1.0
 40
1.0
 40
1.0
 40
1.0
 10
1.1016309752869584
 20
8.5098434930690559
 30
0.0
 10
0.9688649752869583
 20
8.5148944930690575
 30
0.0
 10
0.7965979752869583
 20
8.5242154930690575
 30
0.0
 10
0.4774929752869583
 20
8.5436144930690574
 30
0.0
  0
SPLINE
  5
61
  8
Layer_1
 62
256
370
-1
  6
ByLayer
100
AcDbEntity
100
AcDbSpline
 70
8
 71
3
 72
8
 73
4
 74
0
 40
0.0
 40
0.0
 40
0.0
 40
0.0
 40
1.0
 40
1.0
 40
1.0
 40
1.0
 10
0.4774929752869583
 20
8.5436144930690574
 30
0.0
 10
0.3574049752869584
 20
8.5509144930690582
 30
0.0
 10
0.3684559752869583
 20
8.5771434930690553
 30
0.0
 10
0.3566559752869582
 20
8.2567994930690567
 30
0.0
  0
SPLINE
  5
62
  8
Layer_1
 62
256
370
-1
  6
ByLayer
100
AcDbEntity
100
AcDbSpline
 70
8
 71
3
 72
8
 73
4
 74
0
 40
0.0
 40
0.0
 40
0.0
 40
0.0
 40
1.0
 40
1.0
 40
1.0
 40
1.0
 10
0.3566559752869582
 20
8.2567994930690567
 30
0.0
 10
0.3512039752869582
 20
8.1087904930690584
 30
0.0
 10
0.3413669752869584
 20
7.852692493069056
 30
0.0
 10
0.3347959752869583
 20
7.6876924930690569
 30
0.0
  0
SPLINE
  5
63
  8
Layer_1
 62
256
370
-1
  6
ByLayer
100
AcDbEntity
100
AcDbSpline
 70
8
 71
3
 72
8
 73
4
 74
0
 40
0.0
 40
0.0
 40
0.0
 40
0.0
 40
1.0
 40
1.0
 40
1.0
 40
1.0
 10
0.3347959752869583
 20
7.6876924930690569
 30
0.0
 10
0.3266939752869584
 20
7.484225493069057
 30
0.0
 10
0.3264389752869583
 20
7.3604514930690561
 30
0.0
 10
0.3340059752869584
 20
7.3030314930690574
 30
0.0
  0
SPLINE
  5
64
  8
Layer_1
 62
256
370
-1
  6
ByLayer
100
AcDbEntity
100
AcDbSpline
 70
8
 71
3
 72
8
 73
4
 74
0
 40
0.0
 40
0.0
 40
0.0
 40
0.0
 40
1.0
 40
1.0
 40
1.0
 40
1.0
 10
0.3340059752869584
 20
7.3030314930690574
 30
0.0
 10
0.3401419752869583
 20
7.2564684930690566
 30
0.0
 10
0.3505129752869582
 20
7.116468493069056
 30
0.0
 10
0.3570529752869582
 20
6.9919204930690571
 30
0.0
  0
SPLINE
  5
65
  8
Layer_1
 62
256
370
-1
  6
ByLayer
100
AcDbEntity
100
AcDbSpline
 70
8
 71
3
 72
8
 73
4
 74
0
 40
0.0
 40
0.0
 40
0.0
 40
0.0
 40
1.0
 40
1.0
 40
1.0
 40
1.0
 10
0.3570529752869582
 20
6.9919204930690571
 30
0.0
 10
0.3635919752869583
 20
6.8673734930690573
 30
0.0
 10
0.3760859752869583
 20
6.6954704930690569
 30
0.0
 10
0.3848159752869582
 20
6.6099154930690567
 30
0.0
  0
SPLINE
  5
66
  8
Layer_1
 62
256
370
-1
  6
ByLayer
100
AcDbEntity
100
AcDbSpline
 70
8
 71
3
 72
8
 73
4
 74
0
 40
0.0
 40
0.0
 40
0.0
 40
0.0
 40
1.0
 40
1.0
 40
1.0
 40
1.0
 10
0.3848159752869582
 20
6.6099154930690567
 30
0.0
 10
0.3935459752869583
 20
6.5243594930690572
 30
0.0
 10
0.4037579752869582
 20
6.3943594930690573
 30
0.0
 10
0.4075079752869584
 20
6.3210264930690565
 30
0.0
  0
SPLINE
  5
67
  8
Layer_1
 62
256
370
-1
  6
ByLayer
100
AcDbEntity
100
AcDbSpline
 70
8
 71
3
 72
8
 73
4
 74
0
 40
0.0
 40
0.0
 40
0.0
 40
0.0
 40
1.0
 40
1.0
 40
1.0
 40
1.0
 10
0.4075079752869584
 20
6.3210264930690565
 30
0.0
 10
0.4173459752869584
 20
6.1286854930690566
 30
0.0
 10
0.4430559752869583
 20
5.8738314930690567
 30
0.0
 10
0.4620979752869583
 20
5.779918493069057
 30
0.0
  0
SPLINE
  5
68
  8
Layer_1
 62
256
370
-1
  6
ByLayer
100
AcDbEntity
100
AcDbSpline
 70
8
 71
3
 72
8
 73
4
 74
0
 40
0.0
 40
0.0
 40
0.0
 40
0.0
 40
1.0
 40
1.0
 40
1.0
 40
1.0
 10
0.4620979752869583
 20
5.779918493069057
 30
0.0
 10
0.4711429752869583
 20
5.735305493069057
 30
0.0
 10
0.4893959752869583
 20
5.6363044930690567
 30
0.0
 10
0.5026609752869584
 20
5.5599154930690569
 30
0.0
  0
SPLINE
  5
69
  8
Layer_1
 62
256
370
-1
  6
ByLayer
100
AcDbEntity
100
AcDbSpline
 70
8
 71
3
 72
8
 73
4
 74
0
 40
0.0
 40
0.0
 40
0.0
 40
0.0
 40
1.0
 40
1.0
 40
1.0
 40
1.0
 10
0.5026609752869584
 20
5.5599154930690569
 30
0.0
 10
0.5159249752869584
 20
5.483526493069057
 30
0.0
 10
0.5305229752869582
 20
5.4010264930690566
 30
0.0
 10
0.5351009752869582
 20
5.3765814930690565
 30
0.0
  0
SPLINE
  5
6A
  8
Layer_1
 62
256
370
-1
  6
ByLayer
100
AcDbEntity
100
AcDbSpline
 70
8
 71
3
 72
8
 73
4
 74
0
 40
0.0
 40
0.0
 40
0.0
 40
0.0
 40
1.0
 40
1.0
 40
1.0
 40
1.0
 10
0.5351009752869582
 20
5.3765814930690565
 30
0.0
 10
0.5561879752869583
 20
5.2639764930690571
 30
0.0
 10
0.5788509752869584
 20
5.1145994930690568
 30
0.0
 10
0.5848309752869583
 20
5.0488044930690572
 30
0.0
  0
SPLINE
  5
6B
  8
Layer_1
 62
256
370
-1
  6
ByLayer
100
AcDbEntity
100
AcDbSpline
 70
8
 71
3
 72
8
 73
4
 74
0
 40
0.0
 40
0.0
 40
0.0
 40
0.0
 40
1.0
 40
1.0
 40
1.0
 40
1.0
 10
0.5848309752869583
 20
5.0488044930690572
 30
0.0
 10
0.6185209752869583
 20
4.6780804930690572
 30
0.0
 10
0.7931159752869583
 20
4.1694264930690572
 30
0.0
 10
1.0730089752869583
 20
3.6265814930690565
 30
0.0
  0
SPLINE
  5
6C
  8
Layer_1
 62
256
370
-1
  6
ByLayer
100
AcDbEntity
100
AcDbSpline
 70
8
 71
3
 72
8
 73
4
 74
0
 40
0.0
 40
0.0
 40
0.0
 40
0.0
 40
1.0
 40
1.0
 40
1.0
 40
1.0
 10
1.0730089752869583
 20
3.6265814930690565
 30
0.0
 10
1.1218479752869583
 20
3.5318594930690566
 30
0.0
 10
1.1811199752869581
 20
3.4148134930690572
 30
0.0
 10
1.2047249752869584
 20
3.3664804930690568
 30
0.0
  0
SPLINE
  5
6D
  8
Layer_1
 62
256
370
-1
  6
ByLayer
100
AcDbEntity
100
AcDbSpline
 70
8
 71
3
 72
8
 73
4
 74
0
 40
0.0
 40
0.0
 40
0.0
 40
0.0
 40
1.0
 40
1.0
 40
1.0
 40
1.0
 10
1.2047249752869584
 20
3.3664804930690568
 30
0.0
 10
1.2283289752869582
 20
3.3181464930690572
 30
0.0
 10
1.2588829752869581
 20
3.2631464930690566
 30
0.0
 10
1.2726209752869582
 20
3.2442574930690569
 30
0.0
  0
SPLINE
  5
6E
  8
Layer_1
 62
256
370
-1
  6
ByLayer
100
AcDbEntity
100
AcDbSpline
 70
8
 71
3
 72
8
 73
4
 74
0
 40
0.0
 40
0.0
 40
0.0
 40
0.0
 40
1.0
 40
1.0
 40
1.0
 40
1.0
 10
1.2726209752869582
 20
3.2442574930690569
 30
0.0
 10
1.2863599752869583
 20
3.2253694930690573
 30
0.0
 10
1.3069459752869581
 20
3.1874154930690572
 30
0.0
 10
1.3183669752869585
 20
3.1599154930690565
 30
0.0
  0
SPLINE
  5
6F
  8
Layer_1
 62
256
370
-1
  6
ByLayer
100
AcDbEntity
100
AcDbSpline
 70
8
 71
3
 72
8
 73
4
 74
0
 40
0.0
 40
0.0
 40
0.0
 40
0.0
 40
1.0
 40
1.0
 40
1.0
 40
1.0
 10
1.3183669752869585
 20
3.1599154930690565
 30
0.0
 10
1.3297889752869585
 20
3.1324154930690566
 30
0.0
 10
1.3451399752869584
 20
3.1024154930690573
 30
0.0
 10
1.3524799752869585
 20
3.0932484930690567
 30
0.0
  0
SPLINE
  5
70
  8
Layer_1
 62
256
370
-1
  6
ByLayer
100
AcDbEntity
100
AcDbSpline
 70
8
 71
3
 72
8
 73
4
 74
0
 40
0.0
 40
0.0
 40
0.0
 40
0.0
 40
1.0
 40
1.0
 40
1.0
 40
1.0
 10
1.3524799752869585
 20
3.0932484930690567
 30
0.0
 10
1.3598199752869582
 20
3.084081493069057
 30
0.0
 10
1.3985179752869583
 20
3.0212554930690567
 30
0.0
 10
1.4384749752869581
 20
2.9536354930690569
 30
0.0
  0
SPLINE
  5
71
  8
Layer_1
 62
256
370
-1
  6
ByLayer
100
AcDbEntity
100
AcDbSpline
 70
8
 71
3
 72
8
 73
4
 74
0
 40
0.0
 40
0.0
 40
0.0
 40
0.0
 40
1.0
 40
1.0
 40
1.0
 40
1.0
 10
1.4384749752869581
 20
2.9536354930690569
 30
0.0
 10
1.5684349752869582
 20
2.7336994930690568
 30
0.0
 10
1.7769639752869582
 20
2.4729044930690569
 30
0.0
 10
2.0469389752869582
 20
2.1926664930690567
 30
0.0
  0
SPLINE
  5
72
  8
Layer_1
 62
256
370
-1
  6
ByLayer
100
AcDbEntity
100
AcDbSpline
 70
8
 71
3
 72
8
 73
4
 74
0
 40
0.0
 40
0.0
 40
0.0
 40
0.0
 40
1.0
 40
1.0
 40
1.0
 40
1.0
 10
2.0469389752869582
 20
2.1926664930690567
 30
0.0
 10
2.0678529752869581
 20
2.170956493069057
 30
0.0
 10
2.1199649752869583
 20
2.1165604930690569
 30
0.0
 10
2.1627419752869583
 20
2.0717854930690569
 30
0.0
  0
SPLINE
  5
73
  8
Layer_1
 62
256
370
-1
  6
ByLayer
100
AcDbEntity
100
AcDbSpline
 70
8
 71
3
 72
8
 73
4
 74
0
 40
0.0
 40
0.0
 40
0.0
 40
0.0
 40
1.0
 40
1.0
 40
1.0
 40
1.0
 10
2.1627419752869583
 20
2.0717854930690569
 30
0.0
 10
2.2555359752869584
 20
1.9746594930690571
 30
0.0
 10
2.5952969752869581
 20
1.6690264930690568
 30
0.0
 10
2.6738539752869581
 20
1.612014493069057
 30
0.0
  0
SPLINE
  5
74
  8
Layer_1
 62
256
370
-1
  6
ByLayer
100
AcDbEntity
100
AcDbSpline
 70
8
 71
3
 72
8
 73
4
 74
0
 40
0.0
 40
0.0
 40
0.0
 40
0.0
 40
1.0
 40
1.0
 40
1.0
 40
1.0
 10
2.6738539752869581
 20
1.612014493069057
 30
0.0
 10
2.7765209752869584
 20
1.5375034930690568
 30
0.0
 10
3.0399929752869581
 20
1.3621694930690569
 30
0.0
 10
3.0971219752869583
 20
1.3303394930690571
 30
0.0
  0
SPLINE
  5
75
  8
Layer_1
 62
256
370
-1
  6
ByLayer
100
AcDbEntity
100
AcDbSpline
 70
8
 71
3
 72
8
 73
4
 74
0
 40
0.0
 40
0.0
 40
0.0
 40
0.0
 40
1.0
 40
1.0
 40
1.0
 40
1.0
 10
3.0971219752869583
 20
1.3303394930690571
 30
0.0
 10
3.1632749752869582
 20
1.2934824930690567
 30
0.0
 10
3.357908975286958
 20
1.1789804930690568
 30
0.0
 10
3.4238539752869581
 20
1.1381254930690567
 30
0.0
  0
SPLINE
  5
76
  8
Layer_1
 62
256
370
-1
  6
ByLayer
100
AcDbEntity
100
AcDbSpline
 70
8
 71
3
 72
8
 73
4
 74
0
 40
0.0
 40
0.0
 40
0.0
 40
0.0
 40
1.0
 40
1.0
 40
1.0
 40
1.0
 10
3.4238539752869581
 20
1.1381254930690567
 30
0.0
 10
3.4778689752869587
 20
1.1046614930690568
 30
0.0
 10
3.7754549752869586
 20
0.9447354930690568
 30
0.0
 10
3.8101679752869586
 20
0.9305154930690569
 30
0.0
  0
SPLINE
  5
77
  8
Layer_1
 62
256
370
-1
  6
ByLayer
100
AcDbEntity
100
AcDbSpline
 70
8
 71
3
 72
8
 73
4
 74
0
 40
0.0
 40
0.0
 40
0.0
 40
0.0
 40
1.0
 40
1.0
 40
1.0
 40
1.0
 10
3.8101679752869586
 20
0.9305154930690569
 30
0.0
 10
3.8329729752869586
 20
0.9211744930690569
 30
0.0
 10
3.891630975286958
 20
0.894430493069057
 30
0.0
 10
3.940519975286958
 20
0.8710834930690567
 30
0.0
  0
SPLINE
  5
78
  8
Layer_1
 62
256
370
-1
  6
ByLayer
100
AcDbEntity
100
AcDbSpline
 70
8
 71
3
 72
8
 73
4
 74
0
 40
0.0
 40
0.0
 40
0.0
 40
0.0
 40
1.0
 40
1.0
 40
1.0
 40
1.0
 10
3.940519975286958
 20
0.8710834930690567
 30
0.0
 10
4.0677389752869582
 20
0.8103304930690567
 30
0.0
 10
4.2424589752869579
 20
0.7375644930690568
 30
0.0
 10
4.3071869752869585
 20
0.7183764930690568
 30
0.0
  0
SPLINE
  5
79
  8
Layer_1
 62
256
370
-1
  6
ByLayer
100
AcDbEntity
100
AcDbSpline
 70
8
 71
3
 72
8
 73
4
 74
0
 40
0.0
 40
0.0
 40
0.0
 40
0.0
 40
1.0
 40
1.0
 40
1.0
 40
1.0
 10
4.3071869752869585
 20
0.7183764930690568
 30
0.0
 10
4.3377419752869582
 20
0.7093194930690569
 30
0.0
 10
4.3804379752869584
 20
0.6928964930690569
 30
0.0
 10
4.4020659752869582
 20
0.6818814930690569
 30
0.0
  0
SPLINE
  5
7A
  8
Layer_1
 62
256
370
-1
  6
ByLayer
100
AcDbEntity
100
AcDbSpline
 70
8
 71
3
 72
8
 73
4
 74
0
 40
0.0
 40
0.0
 40
0.0
 40
0.0
 40
1.0
 40
1.0
 40
1.0
 40
1.0
 10
4.4020659752869582
 20
0.6818814930690569
 30
0.0
 10
4.4416219752869583
 20
0.6617354930690569
 30
0.0
 10
4.9352169752869584
 20
0.4951024930690568
 30
0.0
 10
5.0905199752869583
 20
0.4494654930690569
 30
0.0
  0
SPLINE
  5
7B
  8
Layer_1
 62
256
370
-1
  6
ByLayer
100
AcDbEntity
100
AcDbSpline
 70
8
 71
3
 72
8
 73
4
 74
0
 40
0.0
 40
0.0
 40
0.0
 40
0.0
 40
1.0
 40
1.0
 40
1.0
 40
1.0
 10
5.0905199752869583
 20
0.4494654930690569
 30
0.0
 10
5.1363539752869585
 20
0.435996493069057
 30
0.0
 10
5.2463539752869579
 20
0.402981493069057
 30
0.0
 10
5.3349649752869581
 20
0.3760964930690569
 30
0.0
  0
SPLINE
  5
7C
  8
Layer_1
 62
256
370
-1
  6
ByLayer
100
AcDbEntity
100
AcDbSpline
 70
8
 71
3
 72
8
 73
4
 74
0
 40
0.0
 40
0.0
 40
0.0
 40
0.0
 40
1.0
 40
1.0
 40
1.0
 40
1.0
 10
5.3349649752869581
 20
0.3760964930690569
 30
0.0
 10
5.9317729752869583
 20
0.1950284930690569
 30
0.0
 10
6.1701139752869585
 20
0.1482074930690569
 30
0.0
 10
6.1950469752869584
 20
0.2071374930690568
 30
0.0
  0
LWPOLYLINE
  5
7D
  8
Layer_1
 62
256
370
-1
  6
ByLayer
100
AcDbEntity
100
AcDbPolyline
 90
2
 70
0
 10
6.0349649752869583
 20
0.149680493069057
 10
6.0349649752869583
 20
0.149680493069057
  0
LWPOLYLINE
  5
7E
  8
Layer_1
 62
256
370
-1
  6
ByLayer
100
AcDbEntity
100
AcDbPolyline
 90
2
 70
0
 10
6.1950469752869584
 20
0.2071374930690568
 10
6.1950469752869584
 20
0.2071374930690568
  0
LWPOLYLINE
  5
7F
  8
Layer_1
 62
256
370
-1
  6
ByLayer
100
AcDbEntity
100
AcDbPolyline
 90
2
 70
0
 10
8.2227478552557969
 20
0.1007216689300821
 10
8.2227478552557969
 20
0.1007216689300821
  0
LWPOLYLINE
  5
80
  8
Layer_1
 62
256
370
-1
  6
ByLayer
100
AcDbEntity
100
AcDbPolyline
 90
2
 70
0
 10
8.0033218552557965
 20
0.1531646689300823
 10
8.0033218552557965
 20
0.1531646689300823
  0
SPLINE
  5
81
  8
Layer_1
 62
256
370
-1
  6
ByLayer
100
AcDbEntity
100
AcDbSpline
 70
8
 71
3
 72
8
 73
4
 74
0
 40
0.0
 40
0.0
 40
0.0
 40
0.0
 40
1.0
 40
1.0
 40
1.0
 40
1.0
 10
8.0348878552557998
 20
0.2373496689300811
 30
0.0
 10
8.0152628552557985
 20
0.2837366689300813
 30
0.0
 10
7.8672058552557971
 20
0.7479826689300819
 30
0.0
 10
7.817846855255798
 20
0.9179046689300829
 30
0.0
  0
SPLINE
  5
82
  8
Layer_1
 62
256
370
-1
  6
ByLayer
100
AcDbEntity
100
AcDbSpline
 70
8
 71
3
 72
8
 73
4
 74
0
 40
0.0
 40
0.0
 40
0.0
 40
0.0
 40
1.0
 40
1.0
 40
1.0
 40
1.0
 10
7.817846855255798
 20
0.9179046689300829
 30
0.0
 10
7.8054208552557984
 20
0.9606826689300823
 30
0.0
 10
7.7904488552557982
 20
1.0056826689300813
 30
0.0
 10
7.7845748552557978
 20
1.0179046689300812
 30
0.0
  0
SPLINE
  5
83
  8
Layer_1
 62
256
370
-1
  6
ByLayer
100
AcDbEntity
100
AcDbSpline
 70
8
 71
3
 72
8
 73
4
 74
0
 40
0.0
 40
0.0
 40
0.0
 40
0.0
 40
1.0
 40
1.0
 40
1.0
 40
1.0
 10
7.7845748552557978
 20
1.0179046689300812
 30
0.0
 10
7.7787018552557985
 20
1.0301276689300818
 30
0.0
 10
7.7667138552557979
 20
1.0751276689300813
 30
0.0
 10
7.7579358552557967
 20
1.1179046689300831
 30
0.0
  0
SPLINE
  5
84
  8
Layer_1
 62
256
370
-1
  6
ByLayer
100
AcDbEntity
100
AcDbSpline
 70
8
 71
3
 72
8
 73
4
 74
0
 40
0.0
 40
0.0
 40
0.0
 40
0.0
 40
1.0
 40
1.0
 40
1.0
 40
1.0
 10
7.7579358552557967
 20
1.1179046689300831
 30
0.0
 10
7.7491568552557979
 20
1.1606826689300811
 30
0.0
 10
7.7260828552557976
 20
1.2556826689300831
 30
0.0
 10
7.7066598552557952
 20
1.3290166689300826
 30
0.0
  0
SPLINE
  5
85
  8
Layer_1
 62
256
370
-1
  6
ByLayer
100
AcDbEntity
100
AcDbSpline
 70
8
 71
3
 72
8
 73
4
 74
0
 40
0.0
 40
0.0
 40
0.0
 40
0.0
 40
1.0
 40
1.0
 40
1.0
 40
1.0
 10
7.7066598552557952
 20
1.3290166689300826
 30
0.0
 10
7.6872368552557973
 20
1.4023496689300812
 30
0.0
 10
7.6665958552557978
 20
1.5073496689300807
 30
0.0
 10
7.6607908552557964
 20
1.5623496689300831
 30
0.0
  0
SPLINE
  5
86
  8
Layer_1
 62
256
370
-1
  6
ByLayer
100
AcDbEntity
100
AcDbSpline
 70
8
 71
3
 72
8
 73
4
 74
0
 40
0.0
 40
0.0
 40
0.0
 40
0.0
 40
1.0
 40
1.0
 40
1.0
 40
1.0
 10
7.6607908552557964
 20
1.5623496689300831
 30
0.0
 10
7.6549858552557977
 20
1.6173496689300837
 30
0.0
 10
7.6429548552557964
 20
1.7073496689300831
 30
0.0
 10
7.6340548552557985
 20
1.7623496689300815
 30
0.0
  0
SPLINE
  5
87
  8
Layer_1
 62
256
370
-1
  6
ByLayer
100
AcDbEntity
100
AcDbSpline
 70
8
 71
3
 72
8
 73
4
 74
0
 40
0.0
 40
0.0
 40
0.0
 40
0.0
 40
1.0
 40
1.0
 40
1.0
 40
1.0
 10
7.6340548552557985
 20
1.7623496689300815
 30
0.0
 10
7.6027768552557964
 20
1.9556466689300831
 30
0.0
 10
7.5742118552557969
 20
2.3322146689300824
 30
0.0
 10
7.5721068552557984
 20
2.5790166689300809
 30
0.0
  0
SPLINE
  5
88
  8
Layer_1
 62
256
370
-1
  6
ByLayer
100
AcDbEntity
100
AcDbSpline
 70
8
 71
3
 72
8
 73
4
 74
0
 40
0.0
 40
0.0
 40
0.0
 40
0.0
 40
1.0
 40
1.0
 40
1.0
 40
1.0
 10
7.5721068552557984
 20
2.5790166689300809
 30
0.0
 10
7.5703558552557979
 20
2.784217668930081
 30
0.0
 10
7.5998908552557962
 20
3.2662106689300829
 30
0.0
 10
7.6228308552557991
 20
3.4067936689300824
 30
0.0
  0
SPLINE
  5
89
  8
Layer_1
 62
256
370
-1
  6
ByLayer
100
AcDbEntity
100
AcDbSpline
 70
8
 71
3
 72
8
 73
4
 74
0
 40
0.0
 40
0.0
 40
0.0
 40
0.0
 40
1.0
 40
1.0
 40
1.0
 40
1.0
 10
7.6228308552557991
 20
3.4067936689300824
 30
0.0
 10
7.6318058552557986
 20
3.461793668930083
 30
0.0
 10
7.6468288552557979
 20
3.5767936689300805
 30
0.0
 10
7.6562158552557982
 20
3.6623496689300814
 30
0.0
  0
SPLINE
  5
8A
  8
Layer_1
 62
256
370
-1
  6
ByLayer
100
AcDbEntity
100
AcDbSpline
 70
8
 71
3
 72
8
 73
4
 74
0
 40
0.0
 40
0.0
 40
0.0
 40
0.0
 40
1.0
 40
1.0
 40
1.0
 40
1.0
 10
7.6562158552557982
 20
3.6623496689300814
 30
0.0
 10
7.6656028552557984
 20
3.7479046689300821
 30
0.0
 10
7.6812558552557988
 20
3.8529046689300825
 30
0.0
 10
7.6909988552557991
 20
3.8956826689300819
 30
0.0
  0
SPLINE
  5
8B
  8
Layer_1
 62
256
370
-1
  6
ByLayer
100
AcDbEntity
100
AcDbSpline
 70
8
 71
3
 72
8
 73
4
 74
0
 40
0.0
 40
0.0
 40
0.0
 40
0.0
 40
1.0
 40
1.0
 40
1.0
 40
1.0
 10
7.6909988552557991
 20
3.8956826689300819
 30
0.0
 10
7.7397268552557978
 20
4.1096196689300815
 30
0.0
 10
7.7760938552557981
 20
4.2554076689300828
 30
0.0
 10
7.8013088552557974
 20
4.337885668930082
 30
0.0
  0
SPLINE
  5
8C
  8
Layer_1
 62
256
370
-1
  6
ByLayer
100
AcDbEntity
100
AcDbSpline
 70
8
 71
3
 72
8
 73
4
 74
0
 40
0.0
 40
0.0
 40
0.0
 40
0.0
 40
1.0
 40
1.0
 40
1.0
 40
1.0
 10
7.8013088552557974
 20
4.337885668930082
 30
0.0
 10
7.8166308552557986
 20
4.388007668930082
 30
0.0
 10
7.839532855255797
 20
4.4640166689300829
 30
0.0
 10
7.852202855255797
 20
4.506793668930082
 30
0.0
  0
SPLINE
  5
8D
  8
Layer_1
 62
256
370
-1
  6
ByLayer
100
AcDbEntity
100
AcDbSpline
 70
8
 71
3
 72
8
 73
4
 74
0
 40
0.0
 40
0.0
 40
0.0
 40
0.0
 40
1.0
 40
1.0
 40
1.0
 40
1.0
 10
7.852202855255797
 20
4.506793668930082
 30
0.0
 10
7.8648718552557977
 20
4.5495716689300831
 30
0.0
 10
7.8853828552557985
 20
4.612071668930084
 30
0.0
 10
7.897781855255797
 20
4.6456826689300819
 30
0.0
  0
SPLINE
  5
8E
  8
Layer_1
 62
256
370
-1
  6
ByLayer
100
AcDbEntity
100
AcDbSpline
 70
8
 71
3
 72
8
 73
4
 74
0
 40
0.0
 40
0.0
 40
0.0
 40
0.0
 40
1.0
 40
1.0
 40
1.0
 40
1.0
 10
7.897781855255797
 20
4.6456826689300819
 30
0.0
 10
7.9101808552557991
 20
4.6792936689300859
 30
0.0
 10
7.9367288552557973
 20
4.7552966689300824
 30
0.0
 10
7.9567778552557975
 20
4.8145786689300856
 30
0.0
  0
SPLINE
  5
8F
  8
Layer_1
 62
256
370
-1
  6
ByLayer
100
AcDbEntity
100
AcDbSpline
 70
8
 71
3
 72
8
 73
4
 74
0
 40
0.0
 40
0.0
 40
0.0
 40
0.0
 40
1.0
 40
1.0
 40
1.0
 40
1.0
 10
7.9567778552557975
 20
4.8145786689300856
 30
0.0
 10
8.0147648552557982
 20
4.9860436689300833
 30
0.0
 10
8.1947548552558001
 20
5.3665716689300851
 30
0.0
 10
8.3241278552557993
 20
5.5912186689300833
 30
0.0
  0
SPLINE
  5
90
  8
Layer_1
 62
256
370
-1
  6
ByLayer
100
AcDbEntity
100
AcDbSpline
 70
8
 71
3
 72
8
 73
4
 74
0
 40
0.0
 40
0.0
 40
0.0
 40
0.0
 40
1.0
 40
1.0
 40
1.0
 40
1.0
 10
8.3241278552557993
 20
5.5912186689300833
 30
0.0
 10
8.3508688552557988
 20
5.6376526689300857
 30
0.0
 10
8.372747855255799
 20
5.6784406689300821
 30
0.0
 10
8.372747855255799
 20
5.6818576689300828
 30
0.0
  0
SPLINE
  5
91
  8
Layer_1
 62
256
370
-1
  6
ByLayer
100
AcDbEntity
100
AcDbSpline
 70
8
 71
3
 72
8
 73
4
 74
0
 40
0.0
 40
0.0
 40
0.0
 40
0.0
 40
1.0
 40
1.0
 40
1.0
 40
1.0
 10
8.372747855255799
 20
5.6818576689300828
 30
0.0
 10
8.372747855255799
 20
5.7322286689300803
 30
0.0
 10
8.8277108552558001
 20
6.4105426689300833
 30
0.0
 10
8.9782218552557982
 20
6.5845716689300815
 30
0.0
  0
SPLINE
  5
92
  8
Layer_1
 62
256
370
-1
  6
ByLayer
100
AcDbEntity
100
AcDbSpline
 70
8
 71
3
 72
8
 73
4
 74
0
 40
0.0
 40
0.0
 40
0.0
 40
0.0
 40
1.0
 40
1.0
 40
1.0
 40
1.0
 10
8.9782218552557982
 20
6.5845716689300815
 30
0.0
 10
9.0152188552558012
 20
6.6273496689300844
 30
0.0
 10
9.0578718552557991
 20
6.6779266689300831
 30
0.0
 10
9.0730068552558016
 20
6.6969656689300834
 30
0.0
  0
SPLINE
  5
93
  8
Layer_1
 62
256
370
-1
  6
ByLayer
100
AcDbEntity
100
AcDbSpline
 70
8
 71
3
 72
8
 73
4
 74
0
 40
0.0
 40
0.0
 40
0.0
 40
0.0
 40
1.0
 40
1.0
 40
1.0
 40
1.0
 10
9.0730068552558016
 20
6.6969656689300834
 30
0.0
 10
9.2673168552557978
 20
6.9413936689300826
 30
0.0
 10
9.5341708552557964
 20
7.2092786689300823
 30
0.0
 10
9.7449698552557997
 20
7.3715266689300822
 30
0.0
  0
SPLINE
  5
94
  8
Layer_1
 62
256
370
-1
  6
ByLayer
100
AcDbEntity
100
AcDbSpline
 70
8
 71
3
 72
8
 73
4
 74
0
 40
0.0
 40
0.0
 40
0.0
 40
0.0
 40
1.0
 40
1.0
 40
1.0
 40
1.0
 10
9.7449698552557997
 20
7.3715266689300822
 30
0.0
 10
9.8060818552557993
 20
7.4185626689300825
 30
0.0
 10
9.8808198552558011
 20
7.4766066689300823
 30
0.0
 10
9.9110568552557989
 20
7.5005136689300826
 30
0.0
  0
SPLINE
  5
95
  8
Layer_1
 62
256
370
-1
  6
ByLayer
100
AcDbEntity
100
AcDbSpline
 70
8
 71
3
 72
8
 73
4
 74
0
 40
0.0
 40
0.0
 40
0.0
 40
0.0
 40
1.0
 40
1.0
 40
1.0
 40
1.0
 10
9.9110568552557989
 20
7.5005136689300826
 30
0.0
 10
9.9752498552557967
 20
7.5512696689300824
 30
0.0
 10
9.9647028552557995
 20
7.5539056689300814
 30
0.0
 10
10.1241968552558017
 20
7.4472526689300826
 30
0.0
  0
SPLINE
  5
96
  8
Layer_1
 62
256
370
-1
  6
ByLayer
100
AcDbEntity
100
AcDbSpline
 70
8
 71
3
 72
8
 73
4
 74
0
 40
0.0
 40
0.0
 40
0.0
 40
0.0
 40
1.0
 40
1.0
 40
1.0
 40
1.0
 10
10.1241968552558017
 20
7.4472526689300826
 30
0.0
 10
10.5849158552557991
 20
7.1391746689300817
 30
0.0
 10
10.8704928552557991
 20
7.1297326689300817
 30
0.0
 10
11.533858855255799
 20
7.4006446689300827
 30
0.0
  0
SPLINE
  5
97
  8
Layer_1
 62
256
370
-1
  6
ByLayer
100
AcDbEntity
100
AcDbSpline
 70
8
 71
3
 72
8
 73
4
 74
0
 40
0.0
 40
0.0
 40
0.0
 40
0.0
 40
1.0
 40
1.0
 40
1.0
 40
1.0
 10
11.533858855255799
 20
7.4006446689300827
 30
0.0
 10
11.9741138552557977
 20
7.5804406689300823
 30
0.0
 10
12.3505258552557979
 20
7.9601926689300821
 30
0.0
 10
12.3505258552558015
 20
8.2245586689300758
 30
0.0
  0
SPLINE
  5
98
  8
Layer_1
 62
256
370
-1
  6
ByLayer
100
AcDbEntity
100
AcDbSpline
 70
8
 71
3
 72
8
 73
4
 74
0
 40
0.0
 40
0.0
 40
0.0
 40
0.0
 40
1.0
 40
1.0
 40
1.0
 40
1.0
 10
12.3505258552558015
 20
8.2245586689300758
 30
0.0
 10
12.3505258552557979
 20
8.4783976689300822
 30
0.0
 10
12.3632018552557987
 20
8.4957266689300823
 30
0.0
 10
12.5560818552558011
 20
8.50556566893008
 30
0.0
  0
SPLINE
  5
99
  8
Layer_1
 62
256
370
-1
  6
ByLayer
100
AcDbEntity
100
AcDbSpline
 70
8
 71
3
 72
8
 73
4
 74
0
 40
0.0
 40
0.0
 40
0.0
 40
0.0
 40
1.0
 40
1.0
 40
1.0
 40
1.0
 10
12.5560818552558011
 20
8.50556566893008
 30
0.0
 10
12.6355258552557999
 20
8.509618668930079
 30
0.0
 10
12.7630258552558011
 20
8.5177526689300809
 30
0.0
 10
12.8394148552557965
 20
8.5236416689300825
 30
0.0
  0
SPLINE
  5
9A
  8
Layer_1
 62
256
370
-1
  6
ByLayer
100
AcDbEntity
100
AcDbSpline
 70
8
 71
3
 72
8
 73
4
 74
0
 40
0.0
 40
0.0
 40
0.0
 40
0.0
 40
1.0
 40
1.0
 40
1.0
 40
1.0
 10
12.8394148552557965
 20
8.5236416689300825
 30
0.0
 10
12.915803855255799
 20
8.5295306689300823
 30
0.0
 10
13.0458038552557962
 20
8.5369176689300819
 30
0.0
 10
13.1283038552557976
 20
8.5400556689300799
 30
0.0
  0
SPLINE
  5
9B
  8
Layer_1
 62
256
370
-1
  6
ByLayer
100
AcDbEntity
100
AcDbSpline
 70
8
 71
3
 72
8
 73
4
 74
0
 40
0.0
 40
0.0
 40
0.0
 40
0.0
 40
1.0
 40
1.0
 40
1.0
 40
1.0
 10
13.1283038552557976
 20
8.5400556689300799
 30
0.0
 10
13.2610698552558013
 20
8.5451066689300799
 30
0.0
 10
13.4333368552558028
 20
8.554427668930078
 30
0.0
 10
13.7524418552557979
 20
8.5738266689300815
 30
0.0
  0
SPLINE
  5
9C
  8
Layer_1
 62
256
370
-1
  6
ByLayer
100
AcDbEntity
100
AcDbSpline
 70
8
 71
3
 72
8
 73
4
 74
0
 40
0.0
 40
0.0
 40
0.0
 40
0.0
 40
1.0
 40
1.0
 40
1.0
 40
1.0
 10
13.7524418552557979
 20
8.5738266689300815
 30
0.0
 10
13.8725298552558023
 20
8.5811266689300787
 30
0.0
 10
13.8614788552558039
 20
8.6073556689300759
 30
0.0
 10
13.8732788552558013
 20
8.2870116689300772
 30
0.0
  0
SPLINE
  5
9D
  8
Layer_1
 62
256
370
-1
  6
ByLayer
100
AcDbEntity
100
AcDbSpline
 70
8
 71
3
 72
8
 73
4
 74
0
 40
0.0
 40
0.0
 40
0.0
 40
0.0
 40
1.0
 40
1.0
 40
1.0
 40
1.0
 10
13.8732788552558013
 20
8.2870116689300772
 30
0.0
 10
13.8787308552557977
 20
8.1390026689300825
 30
0.0
 10
13.8885678552558005
 20
7.8829046689300792
 30
0.0
 10
13.8951388552558015
 20
7.7179046689300774
 30
0.0
  0
SPLINE
  5
9E
  8
Layer_1
 62
256
370
-1
  6
ByLayer
100
AcDbEntity
100
AcDbSpline
 70
8
 71
3
 72
8
 73
4
 74
0
 40
0.0
 40
0.0
 40
0.0
 40
0.0
 40
1.0
 40
1.0
 40
1.0
 40
1.0
 10
13.8951388552558015
 20
7.7179046689300774
 30
0.0
 10
13.9032408552557953
 20
7.5144376689300838
 30
0.0
 10
13.9034958552557981
 20
7.3906636689300811
 30
0.0
 10
13.8959288552557982
 20
7.3332436689300824
 30
0.0
  0
SPLINE
  5
9F
  8
Layer_1
 62
256
370
-1
  6
ByLayer
100
AcDbEntity
100
AcDbSpline
 70
8
 71
3
 72
8
 73
4
 74
0
 40
0.0
 40
0.0
 40
0.0
 40
0.0
 40
1.0
 40
1.0
 40
1.0
 40
1.0
 10
13.8959288552557982
 20
7.3332436689300824
 30
0.0
 10
13.8897928552558003
 20
7.2866806689300789
 30
0.0
 10
13.8794218552557993
 20
7.1466806689300819
 30
0.0
 10
13.8728818552557982
 20
7.0221326689300838
 30
0.0
  0
SPLINE
  5
A0
  8
Layer_1
 62
256
370
-1
  6
ByLayer
100
AcDbEntity
100
AcDbSpline
 70
8
 71
3
 72
8
 73
4
 74
0
 40
0.0
 40
0.0
 40
0.0
 40
0.0
 40
1.0
 40
1.0
 40
1.0
 40
1.0
 10
13.8728818552557982
 20
7.0221326689300838
 30
0.0
 10
13.8663428552557981
 20
6.8975856689300823
 30
0.0
 10
13.8538488552557979
 20
6.725682668930081
 30
0.0
 10
13.845118855255798
 20
6.6401276689300808
 30
0.0
  0
SPLINE
  5
A1
  8
Layer_1
 62
256
370
-1
  6
ByLayer
100
AcDbEntity
100
AcDbSpline
 70
8
 71
3
 72
8
 73
4
 74
0
 40
0.0
 40
0.0
 40
0.0
 40
0.0
 40
1.0
 40
1.0
 40
1.0
 40
1.0
 10
13.845118855255798
 20
6.6401276689300808
 30
0.0
 10
13.8363888552557963
 20
6.5545716689300839
 30
0.0
 10
13.8261768552557989
 20
6.4245716689300805
 30
0.0
 10
13.8224268552557987
 20
6.3512386689300806
 30
0.0
  0
SPLINE
  5
A2
  8
Layer_1
 62
256
370
-1
  6
ByLayer
100
AcDbEntity
100
AcDbSpline
 70
8
 71
3
 72
8
 73
4
 74
0
 40
0.0
 40
0.0
 40
0.0
 40
0.0
 40
1.0
 40
1.0
 40
1.0
 40
1.0
 10
13.8224268552557987
 20
6.3512386689300806
 30
0.0
 10
13.8125888552558003
 20
6.1588976689300772
 30
0.0
 10
13.7868788552558001
 20
5.904043668930079
 30
0.0
 10
13.7678368552557977
 20
5.810130668930082
 30
0.0
  0
SPLINE
  5
A3
  8
Layer_1
 62
256
370
-1
  6
ByLayer
100
AcDbEntity
100
AcDbSpline
 70
8
 71
3
 72
8
 73
4
 74
0
 40
0.0
 40
0.0
 40
0.0
 40
0.0
 40
1.0
 40
1.0
 40
1.0
 40
1.0
 10
13.7678368552557977
 20
5.810130668930082
 30
0.0
 10
13.7587918552557973
 20
5.7655176689300829
 30
0.0
 10
13.7405388552557994
 20
5.6665166689300817
 30
0.0
 10
13.7272738552557971
 20
5.5901276689300827
 30
0.0
  0
SPLINE
  5
A4
  8
Layer_1
 62
256
370
-1
  6
ByLayer
100
AcDbEntity
100
AcDbSpline
 70
8
 71
3
 72
8
 73
4
 74
0
 40
0.0
 40
0.0
 40
0.0
 40
0.0
 40
1.0
 40
1.0
 40
1.0
 40
1.0
 10
13.7272738552557971
 20
5.5901276689300827
 30
0.0
 10
13.7140098552557976
 20
5.5137386689300811
 30
0.0
 10
13.6994118552557964
 20
5.4312386689300833
 30
0.0
 10
13.6948338552557978
 20
5.406793668930078
 30
0.0
  0
SPLINE
  5
A5
  8
Layer_1
 62
256
370
-1
  6
ByLayer
100
AcDbEntity
100
AcDbSpline
 70
8
 71
3
 72
8
 73
4
 74
0
 40
0.0
 40
0.0
 40
0.0
 40
0.0
 40
1.0
 40
1.0
 40
1.0
 40
1.0
 10
13.6948338552557978
 20
5.406793668930078
 30
0.0
 10
13.6737468552557999
 20
5.2941886689300794
 30
0.0
 10
13.6510838552557985
 20
5.1448116689300782
 30
0.0
 10
13.6451038552557975
 20
5.0790166689300822
 30
0.0
  0
SPLINE
  5
A6
  8
Layer_1
 62
256
370
-1
  6
ByLayer
100
AcDbEntity
100
AcDbSpline
 70
8
 71
3
 72
8
 73
4
 74
0
 40
0.0
 40
0.0
 40
0.0
 40
0.0
 40
1.0
 40
1.0
 40
1.0
 40
1.0
 10
13.6451038552557975
 20
5.0790166689300822
 30
0.0
 10
13.6114138552557975
 20
4.7082926689300786
 30
0.0
 10
13.4368188552557974
 20
4.1996386689300822
 30
0.0
 10
13.1569258552557979
 20
3.6567936689300815
 30
0.0
  0
SPLINE
  5
A7
  8
Layer_1
 62
256
370
-1
  6
ByLayer
100
AcDbEntity
100
AcDbSpline
 70
8
 71
3
 72
8
 73
4
 74
0
 40
0.0
 40
0.0
 40
0.0
 40
0.0
 40
1.0
 40
1.0
 40
1.0
 40
1.0
 10
13.1569258552557979
 20
3.6567936689300815
 30
0.0
 10
13.1080868552557988
 20
3.5620716689300824
 30
0.0
 10
13.0488148552557988
 20
3.4450256689300836
 30
0.0
 10
13.0252098552557989
 20
3.3966926689300809
 30
0.0
  0
SPLINE
  5
A8
  8
Layer_1
 62
256
370
-1
  6
ByLayer
100
AcDbEntity
100
AcDbSpline
 70
8
 71
3
 72
8
 73
4
 74
0
 40
0.0
 40
0.0
 40
0.0
 40
0.0
 40
1.0
 40
1.0
 40
1.0
 40
1.0
 10
13.0252098552557989
 20
3.3966926689300809
 30
0.0
 10
13.0016058552557983
 20
3.3483586689300813
 30
0.0
 10
12.9710518552557961
 20
3.2933586689300798
 30
0.0
 10
12.9573138552557978
 20
3.2744696689300818
 30
0.0
  0
SPLINE
  5
A9
  8
Layer_1
 62
256
370
-1
  6
ByLayer
100
AcDbEntity
100
AcDbSpline
 70
8
 71
3
 72
8
 73
4
 74
0
 40
0.0
 40
0.0
 40
0.0
 40
0.0
 40
1.0
 40
1.0
 40
1.0
 40
1.0
 10
12.9573138552557978
 20
3.2744696689300818
 30
0.0
 10
12.9435748552557985
 20
3.2555816689300805
 30
0.0
 10
12.9229888552557988
 20
3.2176276689300813
 30
0.0
 10
12.9115678552557966
 20
3.1901276689300806
 30
0.0
  0
SPLINE
  5
AA
  8
Layer_1
 62
256
370
-1
  6
ByLayer
100
AcDbEntity
100
AcDbSpline
 70
8
 71
3
 72
8
 73
4
 74
0
 40
0.0
 40
0.0
 40
0.0
 40
0.0
 40
1.0
 40
1.0
 40
1.0
 40
1.0
 10
12.9115678552557966
 20
3.1901276689300806
 30
0.0
 10
12.900145855255797
 20
3.1626276689300816
 30
0.0
 10
12.884794855255798
 20
3.1326276689300823
 30
0.0
 10
12.8774548552557988
 20
3.1234606689300826
 30
0.0
  0
SPLINE
  5
AB
  8
Layer_1
 62
256
370
-1
  6
ByLayer
100
AcDbEntity
100
AcDbSpline
 70
8
 71
3
 72
8
 73
4
 74
0
 40
0.0
 40
0.0
 40
0.0
 40
0.0
 40
1.0
 40
1.0
 40
1.0
 40
1.0
 10
12.8774548552557988
 20
3.1234606689300826
 30
0.0
 10
12.8701148552557978
 20
3.114293668930082
 30
0.0
 10
12.8314168552557994
 20
3.0514676689300826
 30
0.0
 10
12.7914598552557983
 20
2.9838476689300828
 30
0.0
  0
SPLINE
  5
AC
  8
Layer_1
 62
256
370
-1
  6
ByLayer
100
AcDbEntity
100
AcDbSpline
 70
8
 71
3
 72
8
 73
4
 74
0
 40
0.0
 40
0.0
 40
0.0
 40
0.0
 40
1.0
 40
1.0
 40
1.0
 40
1.0
 10
12.7914598552557983
 20
2.9838476689300828
 30
0.0
 10
12.6614998552557978
 20
2.7639116689300813
 30
0.0
 10
12.4529708552557992
 20
2.5031166689300819
 30
0.0
 10
12.1829958552557969
 20
2.2228786689300808
 30
0.0
  0
SPLINE
  5
AD
  8
Layer_1
 62
256
370
-1
  6
ByLayer
100
AcDbEntity
100
AcDbSpline
 70
8
 71
3
 72
8
 73
4
 74
0
 40
0.0
 40
0.0
 40
0.0
 40
0.0
 40
1.0
 40
1.0
 40
1.0
 40
1.0
 10
12.1829958552557969
 20
2.2228786689300808
 30
0.0
 10
12.1620818552557992
 20
2.201168668930082
 30
0.0
 10
12.1099698552557999
 20
2.1467726689300828
 30
0.0
 10
12.067192855255799
 20
2.1019976689300828
 30
0.0
  0
SPLINE
  5
AE
  8
Layer_1
 62
256
370
-1
  6
ByLayer
100
AcDbEntity
100
AcDbSpline
 70
8
 71
3
 72
8
 73
4
 74
0
 40
0.0
 40
0.0
 40
0.0
 40
0.0
 40
1.0
 40
1.0
 40
1.0
 40
1.0
 10
12.067192855255799
 20
2.1019976689300828
 30
0.0
 10
11.9743988552557994
 20
2.0048716689300821
 30
0.0
 10
11.6346378552557965
 20
1.6992386689300814
 30
0.0
 10
11.5560808552557965
 20
1.6422266689300811
 30
0.0
  0
SPLINE
  5
AF
  8
Layer_1
 62
256
370
-1
  6
ByLayer
100
AcDbEntity
100
AcDbSpline
 70
8
 71
3
 72
8
 73
4
 74
0
 40
0.0
 40
0.0
 40
0.0
 40
0.0
 40
1.0
 40
1.0
 40
1.0
 40
1.0
 10
11.5560808552557965
 20
1.6422266689300811
 30
0.0
 10
11.453413855255798
 20
1.5677156689300817
 30
0.0
 10
11.1899418552557961
 20
1.3923816689300814
 30
0.0
 10
11.1328128552557981
 20
1.3605516689300821
 30
0.0
  0
SPLINE
  5
B0
  8
Layer_1
 62
256
370
-1
  6
ByLayer
100
AcDbEntity
100
AcDbSpline
 70
8
 71
3
 72
8
 73
4
 74
0
 40
0.0
 40
0.0
 40
0.0
 40
0.0
 40
1.0
 40
1.0
 40
1.0
 40
1.0
 10
11.1328128552557981
 20
1.3605516689300821
 30
0.0
 10
11.0666598552557964
 20
1.3236946689300817
 30
0.0
 10
10.8720258552557993
 20
1.2091926689300823
 30
0.0
 10
10.8060808552557983
 20
1.1683376689300817
 30
0.0
  0
SPLINE
  5
B1
  8
Layer_1
 62
256
370
-1
  6
ByLayer
100
AcDbEntity
100
AcDbSpline
 70
8
 71
3
 72
8
 73
4
 74
0
 40
0.0
 40
0.0
 40
0.0
 40
0.0
 40
1.0
 40
1.0
 40
1.0
 40
1.0
 10
10.8060808552557983
 20
1.1683376689300817
 30
0.0
 10
10.7520658552557968
 20
1.1348736689300818
 30
0.0
 10
10.4544798552557978
 20
0.9749476689300818
 30
0.0
 10
10.419766855255796
 20
0.9607276689300823
 30
0.0
  0
SPLINE
  5
B2
  8
Layer_1
 62
256
370
-1
  6
ByLayer
100
AcDbEntity
100
AcDbSpline
 70
8
 71
3
 72
8
 73
4
 74
0
 40
0.0
 40
0.0
 40
0.0
 40
0.0
 40
1.0
 40
1.0
 40
1.0
 40
1.0
 10
10.419766855255796
 20
0.9607276689300823
 30
0.0
 10
10.3969618552557979
 20
0.9513866689300814
 30
0.0
 10
10.3383038552558002
 20
0.924642668930082
 30
0.0
 10
10.2894148552557994
 20
0.9012956689300817
 30
0.0
  0
SPLINE
  5
B3
  8
Layer_1
 62
256
370
-1
  6
ByLayer
100
AcDbEntity
100
AcDbSpline
 70
8
 71
3
 72
8
 73
4
 74
0
 40
0.0
 40
0.0
 40
0.0
 40
0.0
 40
1.0
 40
1.0
 40
1.0
 40
1.0
 10
10.2894148552557994
 20
0.9012956689300817
 30
0.0
 10
10.1621958552558009
 20
0.8405426689300812
 30
0.0
 10
9.9874758552557985
 20
0.7677766689300816
 30
0.0
 10
9.9227478552557979
 20
0.7485886689300818
 30
0.0
  0
SPLINE
  5
B4
  8
Layer_1
 62
256
370
-1
  6
ByLayer
100
AcDbEntity
100
AcDbSpline
 70
8
 71
3
 72
8
 73
4
 74
0
 40
0.0
 40
0.0
 40
0.0
 40
0.0
 40
1.0
 40
1.0
 40
1.0
 40
1.0
 10
9.9227478552557979
 20
0.7485886689300818
 30
0.0
 10
9.8921928552557983
 20
0.7395316689300819
 30
0.0
 10
9.8494968552557971
 20
0.7231086689300814
 30
0.0
 10
9.8278688552557973
 20
0.7120936689300814
 30
0.0
  0
SPLINE
  5
B5
  8
Layer_1
 62
256
370
-1
  6
ByLayer
100
AcDbEntity
100
AcDbSpline
 70
8
 71
3
 72
8
 73
4
 74
0
 40
0.0
 40
0.0
 40
0.0
 40
0.0
 40
1.0
 40
1.0
 40
1.0
 40
1.0
 10
9.8278688552557973
 20
0.7120936689300814
 30
0.0
 10
9.7883128552557999
 20
0.6919476689300819
 30
0.0
 10
9.2947178552557954
 20
0.5253146689300827
 30
0.0
 10
9.1394148552557972
 20
0.4796776689300817
 30
0.0
  0
SPLINE
  5
B6
  8
Layer_1
 62
256
370
-1
  6
ByLayer
100
AcDbEntity
100
AcDbSpline
 70
8
 71
3
 72
8
 73
4
 74
0
 40
0.0
 40
0.0
 40
0.0
 40
0.0
 40
1.0
 40
1.0
 40
1.0
 40
1.0
 10
9.1394148552557972
 20
0.4796776689300817
 30
0.0
 10
9.093580855255798
 20
0.4662086689300819
 30
0.0
 10
8.9835808552557985
 20
0.4331936689300822
 30
0.0
 10
8.8949698552557948
 20
0.406308668930083
 30
0.0
  0
SPLINE
  5
B7
  8
Layer_1
 62
256
370
-1
  6
ByLayer
100
AcDbEntity
100
AcDbSpline
 70
8
 71
3
 72
8
 73
4
 74
0
 40
0.0
 40
0.0
 40
0.0
 40
0.0
 40
1.0
 40
1.0
 40
1.0
 40
1.0
 10
8.8949698552557948
 20
0.406308668930083
 30
0.0
 10
8.298161855255799
 20
0.2252406689300814
 30
0.0
 10
8.0598208552557988
 20
0.178419668930081
 30
0.0
 10
8.0348878552557998
 20
0.2373496689300811
 30
0.0
  0
LWPOLYLINE
  5
B8
  8
Layer_1
 62
256
370
-1
  6
ByLayer
100
AcDbEntity
100
AcDbPolyline
 90
2
 70
0
 10
8.1949698552557972
 20
0.1798926689300835
 10
8.1949698552557972
 20
0.1798926689300835
  0
LWPOLYLINE
  5
B9
  8
Layer_1
 62
256
370
-1
  6
ByLayer
100
AcDbEntity
100
AcDbPolyline
 90
2
 70
0
 10
8.0348878552557998
 20
0.2373496689300811
 10
8.0348878552557998
 20
0.2373496689300811
  0
ENDSEC
  0
SECTION
  2
OBJECTS
  0
DICTIONARY
  5
C
100
AcDbDictionary
280
0
281
1
  3
ACAD_GROUP
350
D
  3
ACAD_LAYOUT
350
1A
  3
ACAD_MLINESTYLE
350
17
  3
ACAD_PLOTSETTINGS
350
19
  3
ACAD_PLOTSTYLENAME
350
E
  3
AcDbVariableDictionary
350
BA
  0
DICTIONARY
  5
D
100
AcDbDictionary
280
0
281
1
  0
ACDBDICTIONARYWDFLT
  5
E
100
AcDbDictionary
281
1
  3
Normal
350
F
100
AcDbDictionaryWithDefault
340
F
  0
ACDBPLACEHOLDER
  5
F
  0
DICTIONARY
  5
17
100
AcDbDictionary
280
0
281
1
  3
Standard
350
18
  0
MLINESTYLE
  5
18
100
AcDbMlineStyle
  2
STANDARD
 70
0
  3

 62
256
 51
90.0
 52
90.0
 71
2
 49
0.5
 62
256
  6
BYLAYER
 49
-0.5
 62
256
  6
BYLAYER
  0
DICTIONARY
  5
19
100
AcDbDictionary
280
0
281
1
  0
DICTIONARY
  5
1A
100
AcDbDictionary
281
1
  3
Layout1
350
1E
  3
Layout2
350
26
  3
Model
350
22
  0
LAYOUT
  5
1E
100
AcDbPlotSettings
  1

  2
C:\Program Files\AutoCAD 2002\plotters\DWF ePlot (optimized for plotting).pc3
  4

  6

 40
0.0
 41
0.0
 42
0.0
 43
0.0
 44
0.0
 45
0.0
 46
0.0
 47
0.0
 48
0.0
 49
0.0
140
0.0
141
0.0
142
1.0
143
1.0
 70
688
 72
0
 73
0
 74
5
  7

 75
16
147
1.0
148
0.0
149
0.0
100
AcDbLayout
  1
Layout1
 70
1
 71
1
 10
0.0
 20
0.0
 11
420.0
 21
297.0
 12
0.0
 22
0.0
 32
0.0
 14
100000000000000000000.0
 24
100000000000000000000.0
 34
100000000000000000000.0
 15
-100000000000000000000.0
 25
-100000000000000000000.0
 35
-100000000000000000000.0
146
0.0
 13
0.0
 23
0.0
 33
0.0
 16
1.0
 26
0.0
 36
0.0
 17
0.0
 27
1.0
 37
0.0
 76
0
330
1B
  0
LAYOUT
  5
22
100
AcDbPlotSettings
  1

  2
C:\Program Files\AutoCAD 2002\plotters\DWF ePlot (optimized for plotting).pc3
  4

  6

 40
0.0
 41
0.0
 42
0.0
 43
0.0
 44
0.0
 45
0.0
 46
0.0
 47
0.0
 48
0.0
 49
0.0
140
0.0
141
0.0
142
1.0
143
1.0
 70
1712
 72
0
 73
0
 74
0
  7

 75
0
147
1.0
148
0.0
149
0.0
100
AcDbLayout
  1
Model
 70
1
 71
0
 10
0.0
 20
0.0
 11
12.0
 21
9.0
 12
0.0
 22
0.0
 32
0.0
 14
0.0
 24
0.0
 34
0.0
 15
0.0
 25
0.0
 35
0.0
146
0.0
 13
0.0
 23
0.0
 33
0.0
 16
1.0
 26
0.0
 36
0.0
 17
0.0
 27
1.0
 37
0.0
 76
0
330
1F
  0
LAYOUT
  5
26
100
AcDbPlotSettings
  1

  2
C:\Program Files\AutoCAD 2002\plotters\DWF ePlot (optimized for plotting).pc3
  4

  6

 40
0.0
 41
0.0
 42
0.0
 43
0.0
 44
0.0
 45
0.0
 46
0.0
 47
0.0
 48
0.0
 49
0.0
140
0.0
141
0.0
142
1.0
143
1.0
 70
688
 72
0
 73
0
 74
5
  7

 75
16
147
1.0
148
0.0
149
0.0
100
AcDbLayout
  1
Layout2
 70
1
 71
2
 10
0.0
 20
0.0
 11
12.0
 21
9.0
 12
0.0
 22
0.0
 32
0.0
 14
0.0
 24
0.0
 34
0.0
 15
0.0
 25
0.0
 35
0.0
146
0.0
 13
0.0
 23
0.0
 33
0.0
 16
1.0
 26
0.0
 36
0.0
 17
0.0
 27
1.0
 37
0.0
 76
0
330
23
  0
DICTIONARY
  5
BA
100
AcDbDictionary
281
1
  3
DIMASSOC
350
BC
  3
HIDETEXT
350
BB
  0
DICTIONARYVAR
  5
BB
100
DictionaryVariables
280
0
  1
2
  0
DICTIONARYVAR
  5
BC
100
DictionaryVariables
280
0
  1
1
  0
ENDSEC
  0
EOF
