999
dxflib 2.2.0.0
  0
SECTION
  2
HEADER
  9
$ACADVER
  1
AC1015
  9
$HANDSEED
  5
FFFF
  9
$DIMASZ
 40
0.1
  9
$PLIMMIN
 10
0.0
 20
0.0
  9
$DIMEXE
 40
0.05
  9
$DIMGAP
 40
0.025
  9
$PLIMMAX
 10
8.2677165354330722
 20
11.6929133858267722
  9
$INSUNITS
 70
1
  9
$DIMSTYLE
  2
Standard
  9
$MEASUREMENT
 70
1
  9
$DIMEXO
 40
0.025
  9
$DIMTXT
 40
0.1
  0
ENDSEC
  0
SECTION
  2
TABLES
  0
TABLE
  2
VPORT
  5
8
100
AcDbSymbolTable
 70
1
  0
VPORT
  5
30
100
AcDbSymbolTableRecord
100
AcDbViewportTableRecord
  2
*Active
 70
0
 10
0.0
 20
0.0
 11
1.0
 21
1.0
 12
286.3055555555554861
 22
148.5
 13
0.0
 23
0.0
 14
10.0
 24
10.0
 15
10.0
 25
10.0
 16
0.0
 26
0.0
 36
1.0
 17
0.0
 27
0.0
 37
0.0
 40
297.0
 41
1.92798353909465
 42
50.0
 43
0.0
 44
0.0
 50
0.0
 51
0.0
 71
0
 72
100
 73
1
 74
3
 75
1
 76
1
 77
0
 78
0
281
0
 65
1
110
0.0
120
0.0
130
0.0
111
1.0
121
0.0
131
0.0
112
0.0
122
1.0
132
0.0
 79
0
146
0.0
  0
ENDTAB
  0
TABLE
  2
LTYPE
  5
5
100
AcDbSymbolTable
 70
21
  0
LTYPE
  5
14
100
AcDbSymbolTableRecord
100
AcDbLinetypeTableRecord
  2
ByBlock
 70
0
  3

 72
65
 73
0
 40
0.0
  0
LTYPE
  5
15
100
AcDbSymbolTableRecord
100
AcDbLinetypeTableRecord
  2
ByLayer
 70
0
  3

 72
65
 73
0
 40
0.0
  0
LTYPE
  5
16
100
AcDbSymbolTableRecord
100
AcDbLinetypeTableRecord
  2
CONTINUOUS
 70
0
  3
Solid line
 72
65
 73
0
 40
0.0
  0
LTYPE
  5
31
100
AcDbSymbolTableRecord
100
AcDbLinetypeTableRecord
  2
DOT
 70
0
  3
Dot . . . . . . . . . . . . . . . . . . . . . .
 72
65
 73
2
 40
6.3499999999999996
 49
0.0
 74
0
 49
-6.3499999999999996
 74
0
  0
LTYPE
  5
32
100
AcDbSymbolTableRecord
100
AcDbLinetypeTableRecord
  2
DOT2
 70
0
  3
Dot (.5x) .....................................
 72
65
 73
2
 40
3.1749999999999998
 49
0.0
 74
0
 49
-3.1749999999999998
 74
0
  0
LTYPE
  5
33
100
AcDbSymbolTableRecord
100
AcDbLinetypeTableRecord
  2
DOTX2
 70
0
  3
Dot (2x) .  .  .  .  .  .  .  .  .  .  .  .  .
 72
65
 73
2
 40
12.6999999999999993
 49
0.0
 74
0
 49
-12.6999999999999993
 74
0
  0
LTYPE
  5
34
100
AcDbSymbolTableRecord
100
AcDbLinetypeTableRecord
  2
DASHED
 70
0
  3
Dashed __ __ __ __ __ __ __ __ __ __ __ __ __ _
 72
65
 73
2
 40
19.0500000000000007
 49
12.6999999999999993
 74
0
 49
-6.3499999999999996
 74
0
  0
LTYPE
  5
35
100
AcDbSymbolTableRecord
100
AcDbLinetypeTableRecord
  2
DASHED2
 70
0
  3
Dashed (.5x) _ _ _ _ _ _ _ _ _ _ _ _ _ _ _ _ _
 72
65
 73
2
 40
9.5250000000000004
 49
6.3499999999999996
 74
0
 49
-3.1749999999999998
 74
0
  0
LTYPE
  5
36
100
AcDbSymbolTableRecord
100
AcDbLinetypeTableRecord
  2
DASHEDX2
 70
0
  3
Dashed (2x) ____  ____  ____  ____  ____  ___
 72
65
 73
2
 40
38.1000000000000014
 49
25.3999999999999986
 74
0
 49
-12.6999999999999993
 74
0
  0
LTYPE
  5
37
100
AcDbSymbolTableRecord
100
AcDbLinetypeTableRecord
  2
DASHDOT
 70
0
  3
Dash dot __ . __ . __ . __ . __ . __ . __ . __
 72
65
 73
4
 40
25.3999999999999986
 49
12.6999999999999993
 74
0
 49
-6.3499999999999996
 74
0
 49
0.0
 74
0
 49
-6.3499999999999996
 74
0
  0
LTYPE
  5
38
100
AcDbSymbolTableRecord
100
AcDbLinetypeTableRecord
  2
DASHDOT2
 70
0
  3
Dash dot (.5x) _._._._._._._._._._._._._._._.
 72
65
 73
4
 40
12.6999999999999993
 49
6.3499999999999996
 74
0
 49
-3.1749999999999998
 74
0
 49
0.0
 74
0
 49
-3.1749999999999998
 74
0
  0
LTYPE
  5
39
100
AcDbSymbolTableRecord
100
AcDbLinetypeTableRecord
  2
DASHDOTX2
 70
0
  3
Dash dot (2x) ____  .  ____  .  ____  .  ___
 72
65
 73
4
 40
50.7999999999999972
 49
25.3999999999999986
 74
0
 49
-12.6999999999999993
 74
0
 49
0.0
 74
0
 49
-12.6999999999999993
 74
0
  0
LTYPE
  5
3A
100
AcDbSymbolTableRecord
100
AcDbLinetypeTableRecord
  2
DIVIDE
 70
0
  3
Divide ____ . . ____ . . ____ . . ____ . . ____
 72
65
 73
6
 40
31.75
 49
12.6999999999999993
 74
0
 49
-6.3499999999999996
 74
0
 49
0.0
 74
0
 49
-6.3499999999999996
 74
0
 49
0.0
 74
0
 49
-6.3499999999999996
 74
0
  0
LTYPE
  5
3B
100
AcDbSymbolTableRecord
100
AcDbLinetypeTableRecord
  2
DIVIDE2
 70
0
  3
Divide (.5x) __..__..__..__..__..__..__..__.._
 72
65
 73
6
 40
15.875
 49
6.3499999999999996
 74
0
 49
-3.1749999999999998
 74
0
 49
0.0
 74
0
 49
-3.1749999999999998
 74
0
 49
0.0
 74
0
 49
-3.1749999999999998
 74
0
  0
LTYPE
  5
3C
100
AcDbSymbolTableRecord
100
AcDbLinetypeTableRecord
  2
DIVIDEX2
 70
0
  3
Divide (2x) ________  .  .  ________  .  .  _
 72
65
 73
6
 40
63.5
 49
25.3999999999999986
 74
0
 49
-12.6999999999999993
 74
0
 49
0.0
 74
0
 49
-12.6999999999999993
 74
0
 49
0.0
 74
0
 49
-12.6999999999999993
 74
0
  0
LTYPE
  5
3D
100
AcDbSymbolTableRecord
100
AcDbLinetypeTableRecord
  2
CENTER
 70
0
  3
Center ____ _ ____ _ ____ _ ____ _ ____ _ ____
 72
65
 73
4
 40
50.7999999999999972
 49
31.75
 74
0
 49
-6.3499999999999996
 74
0
 49
6.3499999999999996
 74
0
 49
-6.3499999999999996
 74
0
  0
LTYPE
  5
3E
100
AcDbSymbolTableRecord
100
AcDbLinetypeTableRecord
  2
CENTER2
 70
0
  3
Center (.5x) ___ _ ___ _ ___ _ ___ _ ___ _ ___
 72
65
 73
4
 40
28.5749999999999993
 49
19.0500000000000007
 74
0
 49
-3.1749999999999998
 74
0
 49
3.1749999999999998
 74
0
 49
-3.1749999999999998
 74
0
  0
LTYPE
  5
3F
100
AcDbSymbolTableRecord
100
AcDbLinetypeTableRecord
  2
CENTERX2
 70
0
  3
Center (2x) ________  __  ________  __  _____
 72
65
 73
4
 40
101.5999999999999943
 49
63.5
 74
0
 49
-12.6999999999999993
 74
0
 49
12.6999999999999993
 74
0
 49
-12.6999999999999993
 74
0
  0
LTYPE
  5
40
100
AcDbSymbolTableRecord
100
AcDbLinetypeTableRecord
  2
BORDER
 70
0
  3
Border __ __ . __ __ . __ __ . __ __ . __ __ .
 72
65
 73
6
 40
44.4500000000000028
 49
12.6999999999999993
 74
0
 49
-6.3499999999999996
 74
0
 49
12.6999999999999993
 74
0
 49
-6.3499999999999996
 74
0
 49
0.0
 74
0
 49
-6.3499999999999996
 74
0
  0
LTYPE
  5
41
100
AcDbSymbolTableRecord
100
AcDbLinetypeTableRecord
  2
BORDER2
 70
0
  3
Border (.5x) __.__.__.__.__.__.__.__.__.__.__.
 72
65
 73
6
 40
22.2250000000000014
 49
6.3499999999999996
 74
0
 49
-3.1749999999999998
 74
0
 49
6.3499999999999996
 74
0
 49
-3.1749999999999998
 74
0
 49
0.0
 74
0
 49
-3.1749999999999998
 74
0
  0
LTYPE
  5
42
100
AcDbSymbolTableRecord
100
AcDbLinetypeTableRecord
  2
BORDERX2
 70
0
  3
Border (2x) ____  ____  .  ____  ____  .  ___
 72
65
 73
6
 40
88.9000000000000057
 49
25.3999999999999986
 74
0
 49
-12.6999999999999993
 74
0
 49
25.3999999999999986
 74
0
 49
-12.6999999999999993
 74
0
 49
0.0
 74
0
 49
-12.6999999999999993
 74
0
  0
ENDTAB
  0
TABLE
  2
LAYER
  5
2
100
AcDbSymbolTable
 70
2
  0
LAYER
  5
10
100
AcDbSymbolTableRecord
100
AcDbLayerTableRecord
  2
0
 70
0
 62
7
  6
CONTINUOUS
390
F
  0
LAYER
  5
43
100
AcDbSymbolTableRecord
100
AcDbLayerTableRecord
  2
Layer_1
 70
0
 62
7
  6
CONTINUOUS
390
F
  0
ENDTAB
  0
TABLE
  2
STYLE
  5
3
100
AcDbSymbolTable
 70
1
  0
STYLE
  5
11
100
AcDbSymbolTableRecord
100
AcDbTextStyleTableRecord
  2
Standard
 70
0
 40
0.0
 41
0.75
 50
0.0
 71
0
 42
2.5
  3
txt
  4

  0
ENDTAB
  0
TABLE
  2
VIEW
  5
6
100
AcDbSymbolTable
 70
0
  0
ENDTAB
  0
TABLE
  2
UCS
  5
7
100
AcDbSymbolTable
 70
0
  0
ENDTAB
  0
TABLE
  2
APPID
  5
9
100
AcDbSymbolTable
 70
1
  0
APPID
  5
12
100
AcDbSymbolTableRecord
100
AcDbRegAppTableRecord
  2
ACAD
 70
0
  0
ENDTAB
  0
TABLE
  2
DIMSTYLE
  5
A
100
AcDbSymbolTable
 70
1
100
AcDbDimStyleTable
 71
0
  0
DIMSTYLE
105
27
100
AcDbSymbolTableRecord
100
AcDbDimStyleTableRecord
  2
Standard
 41
0.1
 42
0.025
 43
3.75
 44
0.05
 70
0
 73
0
 74
0
 77
1
 78
8
140
0.1
141
2.5
143
0.03937007874016
147
0.025
171
3
172
1
271
2
272
2
274
3
278
44
283
0
284
8
340
11
  0
ENDTAB
  0
TABLE
  2
BLOCK_RECORD
  5
1
100
AcDbSymbolTable
 70
1
  0
BLOCK_RECORD
  5
1F
100
AcDbSymbolTableRecord
100
AcDbBlockTableRecord
  2
*Model_Space
340
22
  0
BLOCK_RECORD
  5
1B
100
AcDbSymbolTableRecord
100
AcDbBlockTableRecord
  2
*Paper_Space
340
1E
  0
BLOCK_RECORD
  5
23
100
AcDbSymbolTableRecord
100
AcDbBlockTableRecord
  2
*Paper_Space0
340
26
  0
ENDTAB
  0
ENDSEC
  0
SECTION
  2
BLOCKS
  0
BLOCK
  5
20
100
AcDbEntity
  8
0
100
AcDbBlockBegin
  2
*Model_Space
 70
0
 10
0.0
 20
0.0
 30
0.0
  3
*Model_Space
  1

  0
ENDBLK
  5
21
100
AcDbEntity
  8
0
100
AcDbBlockEnd
  0
BLOCK
  5
1C
100
AcDbEntity
 67
1
  8
0
100
AcDbBlockBegin
  2
*Paper_Space
 70
0
 10
0.0
 20
0.0
 30
0.0
  3
*Paper_Space
  1

  0
ENDBLK
  5
1D
100
AcDbEntity
 67
1
  8
0
100
AcDbBlockEnd
  0
BLOCK
  5
24
100
AcDbEntity
  8
0
100
AcDbBlockBegin
  2
*Paper_Space0
 70
0
 10
0.0
 20
0.0
 30
0.0
  3
*Paper_Space0
  1

  0
ENDBLK
  5
25
100
AcDbEntity
  8
0
100
AcDbBlockEnd
  0
ENDSEC
  0
SECTION
  2
ENTITIES
  0
SPLINE
  5
44
  8
Layer_1
 62
7
370
-1
  6
ByLayer
100
AcDbEntity
100
AcDbSpline
 70
8
 71
3
 72
8
 73
4
 74
0
 40
0.0
 40
0.0
 40
0.0
 40
0.0
 40
1.0
 40
1.0
 40
1.0
 40
1.0
 10
5.9788750000000004
 20
1.067842
 30
0.0
 10
5.9966049999999997
 20
1.086821
 30
0.0
 10
6.0111109999999996
 20
1.1067070000000001
 30
0.0
 10
6.0111109999999996
 20
1.112033
 30
0.0
  0
SPLINE
  5
45
  8
Layer_1
 62
7
370
-1
  6
ByLayer
100
AcDbEntity
100
AcDbSpline
 70
8
 71
3
 72
8
 73
4
 74
0
 40
0.0
 40
0.0
 40
0.0
 40
0.0
 40
1.0
 40
1.0
 40
1.0
 40
1.0
 10
6.0111109999999996
 20
1.112033
 30
0.0
 10
6.0111109999999996
 20
1.121068
 30
0.0
 10
6.0371069999999998
 20
1.175721
 30
0.0
 10
6.1190160000000002
 20
1.338889
 30
0.0
  0
SPLINE
  5
46
  8
Layer_1
 62
7
370
-1
  6
ByLayer
100
AcDbEntity
100
AcDbSpline
 70
8
 71
3
 72
8
 73
4
 74
0
 40
0.0
 40
0.0
 40
0.0
 40
0.0
 40
1.0
 40
1.0
 40
1.0
 40
1.0
 10
6.1190160000000002
 20
1.338889
 30
0.0
 10
6.1374230000000001
 20
1.375556
 30
0.0
 10
6.156326
 20
1.418056
 30
0.0
 10
6.1610240000000003
 20
1.433333
 30
0.0
  0
SPLINE
  5
47
  8
Layer_1
 62
7
370
-1
  6
ByLayer
100
AcDbEntity
100
AcDbSpline
 70
8
 71
3
 72
8
 73
4
 74
0
 40
0.0
 40
0.0
 40
0.0
 40
0.0
 40
1.0
 40
1.0
 40
1.0
 40
1.0
 10
6.1610240000000003
 20
1.433333
 30
0.0
 10
6.1705350000000001
 20
1.4642649999999999
 30
0.0
 10
6.1976760000000004
 20
1.5276510000000001
 30
0.0
 10
6.244332
 20
1.627899
 30
0.0
  0
SPLINE
  5
48
  8
Layer_1
 62
7
370
-1
  6
ByLayer
100
AcDbEntity
100
AcDbSpline
 70
8
 71
3
 72
8
 73
4
 74
0
 40
0.0
 40
0.0
 40
0.0
 40
0.0
 40
1.0
 40
1.0
 40
1.0
 40
1.0
 10
6.244332
 20
1.627899
 30
0.0
 10
6.2820549999999997
 20
1.7089540000000001
 30
0.0
 10
6.3683459999999998
 20
1.953862
 30
0.0
 10
6.4126300000000001
 20
2.105556
 30
0.0
  0
SPLINE
  5
49
  8
Layer_1
 62
7
370
-1
  6
ByLayer
100
AcDbEntity
100
AcDbSpline
 70
8
 71
3
 72
8
 73
4
 74
0
 40
0.0
 40
0.0
 40
0.0
 40
0.0
 40
1.0
 40
1.0
 40
1.0
 40
1.0
 10
6.4126300000000001
 20
2.105556
 30
0.0
 10
6.4304699999999997
 20
2.1666669999999999
 30
0.0
 10
6.4499259999999996
 20
2.2320220000000002
 30
0.0
 10
6.4558660000000003
 20
2.2507890000000002
 30
0.0
  0
SPLINE
  5
4A
  8
Layer_1
 62
7
370
-1
  6
ByLayer
100
AcDbEntity
100
AcDbSpline
 70
8
 71
3
 72
8
 73
4
 74
0
 40
0.0
 40
0.0
 40
0.0
 40
0.0
 40
1.0
 40
1.0
 40
1.0
 40
1.0
 10
6.4558660000000003
 20
2.2507890000000002
 30
0.0
 10
6.4618070000000003
 20
2.2695560000000001
 30
0.0
 10
6.4666670000000002
 20
2.2936169999999998
 30
0.0
 10
6.4666670000000002
 20
2.3042570000000002
 30
0.0
  0
SPLINE
  5
4B
  8
Layer_1
 62
7
370
-1
  6
ByLayer
100
AcDbEntity
100
AcDbSpline
 70
8
 71
3
 72
8
 73
4
 74
0
 40
0.0
 40
0.0
 40
0.0
 40
0.0
 40
1.0
 40
1.0
 40
1.0
 40
1.0
 10
6.4666670000000002
 20
2.3042570000000002
 30
0.0
 10
6.4666670000000002
 20
2.3148970000000002
 30
0.0
 10
6.4737080000000002
 20
2.3470420000000001
 30
0.0
 10
6.4823130000000004
 20
2.3756900000000001
 30
0.0
  0
SPLINE
  5
4C
  8
Layer_1
 62
7
370
-1
  6
ByLayer
100
AcDbEntity
100
AcDbSpline
 70
8
 71
3
 72
8
 73
4
 74
0
 40
0.0
 40
0.0
 40
0.0
 40
0.0
 40
1.0
 40
1.0
 40
1.0
 40
1.0
 10
6.4823130000000004
 20
2.3756900000000001
 30
0.0
 10
6.4909189999999999
 20
2.4043380000000001
 30
0.0
 10
6.5136399999999997
 20
2.4952779999999999
 30
0.0
 10
6.5328039999999996
 20
2.5777779999999999
 30
0.0
  0
SPLINE
  5
4D
  8
Layer_1
 62
7
370
-1
  6
ByLayer
100
AcDbEntity
100
AcDbSpline
 70
8
 71
3
 72
8
 73
4
 74
0
 40
0.0
 40
0.0
 40
0.0
 40
0.0
 40
1.0
 40
1.0
 40
1.0
 40
1.0
 10
6.5328039999999996
 20
2.5777779999999999
 30
0.0
 10
6.5519689999999997
 20
2.6602779999999999
 30
0.0
 10
6.5799620000000001
 20
2.7763330000000002
 30
0.0
 10
6.5950110000000004
 20
2.8356789999999998
 30
0.0
  0
SPLINE
  5
4E
  8
Layer_1
 62
7
370
-1
  6
ByLayer
100
AcDbEntity
100
AcDbSpline
 70
8
 71
3
 72
8
 73
4
 74
0
 40
0.0
 40
0.0
 40
0.0
 40
0.0
 40
1.0
 40
1.0
 40
1.0
 40
1.0
 10
6.5950110000000004
 20
2.8356789999999998
 30
0.0
 10
6.7292180000000004
 20
3.3649100000000001
 30
0.0
 10
6.7735320000000003
 20
4.1090479999999996
 30
0.0
 10
6.7007409999999998
 20
4.6111110000000002
 30
0.0
  0
SPLINE
  5
4F
  8
Layer_1
 62
7
370
-1
  6
ByLayer
100
AcDbEntity
100
AcDbSpline
 70
8
 71
3
 72
8
 73
4
 74
0
 40
0.0
 40
0.0
 40
0.0
 40
0.0
 40
1.0
 40
1.0
 40
1.0
 40
1.0
 10
6.7007409999999998
 20
4.6111110000000002
 30
0.0
 10
6.6949810000000003
 20
4.6508330000000004
 30
0.0
 10
6.6847890000000003
 20
4.7283330000000001
 30
0.0
 10
6.6780920000000004
 20
4.7833329999999998
 30
0.0
  0
SPLINE
  5
50
  8
Layer_1
 62
7
370
-1
  6
ByLayer
100
AcDbEntity
100
AcDbSpline
 70
8
 71
3
 72
8
 73
4
 74
0
 40
0.0
 40
0.0
 40
0.0
 40
0.0
 40
1.0
 40
1.0
 40
1.0
 40
1.0
 10
6.6780920000000004
 20
4.7833329999999998
 30
0.0
 10
6.6713940000000003
 20
4.8383330000000004
 30
0.0
 10
6.6582330000000001
 20
4.9458330000000004
 30
0.0
 10
6.6488449999999997
 20
5.0222220000000002
 30
0.0
  0
SPLINE
  5
51
  8
Layer_1
 62
7
370
-1
  6
ByLayer
100
AcDbEntity
100
AcDbSpline
 70
8
 71
3
 72
8
 73
4
 74
0
 40
0.0
 40
0.0
 40
0.0
 40
0.0
 40
1.0
 40
1.0
 40
1.0
 40
1.0
 10
6.6488449999999997
 20
5.0222220000000002
 30
0.0
 10
6.6394580000000003
 20
5.098611
 30
0.0
 10
6.6246099999999997
 20
5.1861110000000004
 30
0.0
 10
6.6158510000000001
 20
5.2166670000000002
 30
0.0
  0
SPLINE
  5
52
  8
Layer_1
 62
7
370
-1
  6
ByLayer
100
AcDbEntity
100
AcDbSpline
 70
8
 71
3
 72
8
 73
4
 74
0
 40
0.0
 40
0.0
 40
0.0
 40
0.0
 40
1.0
 40
1.0
 40
1.0
 40
1.0
 10
6.6158510000000001
 20
5.2166670000000002
 30
0.0
 10
6.6070919999999997
 20
5.2472219999999998
 30
0.0
 10
6.5897800000000002
 20
5.3172220000000001
 30
0.0
 10
6.5773809999999999
 20
5.3722219999999998
 30
0.0
  0
SPLINE
  5
53
  8
Layer_1
 62
7
370
-1
  6
ByLayer
100
AcDbEntity
100
AcDbSpline
 70
8
 71
3
 72
8
 73
4
 74
0
 40
0.0
 40
0.0
 40
0.0
 40
0.0
 40
1.0
 40
1.0
 40
1.0
 40
1.0
 10
6.5773809999999999
 20
5.3722219999999998
 30
0.0
 10
6.5649819999999997
 20
5.4272220000000004
 30
0.0
 10
6.5405300000000004
 20
5.5197219999999998
 30
0.0
 10
6.5230420000000002
 20
5.5777780000000003
 30
0.0
  0
SPLINE
  5
54
  8
Layer_1
 62
7
370
-1
  6
ByLayer
100
AcDbEntity
100
AcDbSpline
 70
8
 71
3
 72
8
 73
4
 74
0
 40
0.0
 40
0.0
 40
0.0
 40
0.0
 40
1.0
 40
1.0
 40
1.0
 40
1.0
 10
6.5230420000000002
 20
5.5777780000000003
 30
0.0
 10
6.5055540000000001
 20
5.6358329999999999
 30
0.0
 10
6.4730610000000004
 20
5.7508330000000001
 30
0.0
 10
6.4508349999999997
 20
5.8333329999999997
 30
0.0
  0
SPLINE
  5
55
  8
Layer_1
 62
7
370
-1
  6
ByLayer
100
AcDbEntity
100
AcDbSpline
 70
8
 71
3
 72
8
 73
4
 74
0
 40
0.0
 40
0.0
 40
0.0
 40
0.0
 40
1.0
 40
1.0
 40
1.0
 40
1.0
 10
6.4508349999999997
 20
5.8333329999999997
 30
0.0
 10
6.4286089999999998
 20
5.9158330000000001
 30
0.0
 10
6.3931699999999996
 20
6.0308330000000003
 30
0.0
 10
6.3720829999999999
 20
6.088889
 30
0.0
  0
SPLINE
  5
56
  8
Layer_1
 62
7
370
-1
  6
ByLayer
100
AcDbEntity
100
AcDbSpline
 70
8
 71
3
 72
8
 73
4
 74
0
 40
0.0
 40
0.0
 40
0.0
 40
0.0
 40
1.0
 40
1.0
 40
1.0
 40
1.0
 10
6.3720829999999999
 20
6.088889
 30
0.0
 10
6.3509950000000002
 20
6.1469440000000004
 30
0.0
 10
6.3156420000000004
 20
6.2444439999999997
 30
0.0
 10
6.2935189999999999
 20
6.3055560000000002
 30
0.0
  0
SPLINE
  5
57
  8
Layer_1
 62
7
370
-1
  6
ByLayer
100
AcDbEntity
100
AcDbSpline
 70
8
 71
3
 72
8
 73
4
 74
0
 40
0.0
 40
0.0
 40
0.0
 40
0.0
 40
1.0
 40
1.0
 40
1.0
 40
1.0
 10
6.2935189999999999
 20
6.3055560000000002
 30
0.0
 10
6.2569569999999999
 20
6.4065539999999999
 30
0.0
 10
6.0701799999999997
 20
6.7955209999999999
 30
0.0
 10
6.0408520000000001
 20
6.8317410000000001
 30
0.0
  0
SPLINE
  5
58
  8
Layer_1
 62
7
370
-1
  6
ByLayer
100
AcDbEntity
100
AcDbSpline
 70
8
 71
3
 72
8
 73
4
 74
0
 40
0.0
 40
0.0
 40
0.0
 40
0.0
 40
1.0
 40
1.0
 40
1.0
 40
1.0
 10
6.0408520000000001
 20
6.8317410000000001
 30
0.0
 10
6.0223040000000001
 20
6.8546459999999998
 30
0.0
 10
6.0034320000000001
 20
6.8883150000000004
 30
0.0
 10
5.9714520000000002
 20
6.9555559999999996
 30
0.0
  0
SPLINE
  5
59
  8
Layer_1
 62
7
370
-1
  6
ByLayer
100
AcDbEntity
100
AcDbSpline
 70
8
 71
3
 72
8
 73
4
 74
0
 40
0.0
 40
0.0
 40
0.0
 40
0.0
 40
1.0
 40
1.0
 40
1.0
 40
1.0
 10
5.9714520000000002
 20
6.9555559999999996
 30
0.0
 10
5.9554660000000004
 20
6.9891670000000001
 30
0.0
 10
5.9256799999999998
 20
7.0399690000000001
 30
0.0
 10
5.9052600000000002
 20
7.0684490000000002
 30
0.0
  0
SPLINE
  5
5A
  8
Layer_1
 62
7
370
-1
  6
ByLayer
100
AcDbEntity
100
AcDbSpline
 70
8
 71
3
 72
8
 73
4
 74
0
 40
0.0
 40
0.0
 40
0.0
 40
0.0
 40
1.0
 40
1.0
 40
1.0
 40
1.0
 10
5.9052600000000002
 20
7.0684490000000002
 30
0.0
 10
5.8848409999999998
 20
7.0969290000000003
 30
0.0
 10
5.8571429999999998
 20
7.1417760000000001
 30
0.0
 10
5.8437089999999996
 20
7.1681080000000001
 30
0.0
  0
SPLINE
  5
5B
  8
Layer_1
 62
7
370
-1
  6
ByLayer
100
AcDbEntity
100
AcDbSpline
 70
8
 71
3
 72
8
 73
4
 74
0
 40
0.0
 40
0.0
 40
0.0
 40
0.0
 40
1.0
 40
1.0
 40
1.0
 40
1.0
 10
5.8437089999999996
 20
7.1681080000000001
 30
0.0
 10
5.8302750000000003
 20
7.1944400000000002
 30
0.0
 10
5.8106309999999999
 20
7.2286380000000001
 30
0.0
 10
5.8000550000000004
 20
7.2441040000000001
 30
0.0
  0
SPLINE
  5
5C
  8
Layer_1
 62
7
370
-1
  6
ByLayer
100
AcDbEntity
100
AcDbSpline
 70
8
 71
3
 72
8
 73
4
 74
0
 40
0.0
 40
0.0
 40
0.0
 40
0.0
 40
1.0
 40
1.0
 40
1.0
 40
1.0
 10
5.8000550000000004
 20
7.2441040000000001
 30
0.0
 10
5.7378159999999996
 20
7.3351139999999999
 30
0.0
 10
5.5993199999999996
 20
7.5443530000000001
 30
0.0
 10
5.5627399999999998
 20
7.6026360000000004
 30
0.0
  0
SPLINE
  5
5D
  8
Layer_1
 62
7
370
-1
  6
ByLayer
100
AcDbEntity
100
AcDbSpline
 70
8
 71
3
 72
8
 73
4
 74
0
 40
0.0
 40
0.0
 40
0.0
 40
0.0
 40
1.0
 40
1.0
 40
1.0
 40
1.0
 10
5.5627399999999998
 20
7.6026360000000004
 30
0.0
 10
5.5391909999999998
 20
7.6401560000000002
 30
0.0
 10
5.4916910000000003
 20
7.7087240000000001
 30
0.0
 10
5.4571839999999998
 20
7.7550109999999997
 30
0.0
  0
SPLINE
  5
5E
  8
Layer_1
 62
7
370
-1
  6
ByLayer
100
AcDbEntity
100
AcDbSpline
 70
8
 71
3
 72
8
 73
4
 74
0
 40
0.0
 40
0.0
 40
0.0
 40
0.0
 40
1.0
 40
1.0
 40
1.0
 40
1.0
 10
5.4571839999999998
 20
7.7550109999999997
 30
0.0
 10
5.4226770000000002
 20
7.8012969999999999
 30
0.0
 10
5.3798700000000004
 20
7.861605
 30
0.0
 10
5.3620559999999999
 20
7.8890279999999997
 30
0.0
  0
SPLINE
  5
5F
  8
Layer_1
 62
7
370
-1
  6
ByLayer
100
AcDbEntity
100
AcDbSpline
 70
8
 71
3
 72
8
 73
4
 74
0
 40
0.0
 40
0.0
 40
0.0
 40
0.0
 40
1.0
 40
1.0
 40
1.0
 40
1.0
 10
5.3620559999999999
 20
7.8890279999999997
 30
0.0
 10
5.2940160000000001
 20
7.993773
 30
0.0
 10
5.2815510000000003
 20
8.0103810000000006
 30
0.0
 10
5.2193269999999998
 20
8.079205
 30
0.0
  0
SPLINE
  5
60
  8
Layer_1
 62
7
370
-1
  6
ByLayer
100
AcDbEntity
100
AcDbSpline
 70
8
 71
3
 72
8
 73
4
 74
0
 40
0.0
 40
0.0
 40
0.0
 40
0.0
 40
1.0
 40
1.0
 40
1.0
 40
1.0
 10
5.2193269999999998
 20
8.079205
 30
0.0
 10
5.1841229999999996
 20
8.1181420000000006
 30
0.0
 10
5.1291229999999999
 20
8.1820160000000008
 30
0.0
 10
5.097105
 20
8.2211459999999992
 30
0.0
  0
SPLINE
  5
61
  8
Layer_1
 62
7
370
-1
  6
ByLayer
100
AcDbEntity
100
AcDbSpline
 70
8
 71
3
 72
8
 73
4
 74
0
 40
0.0
 40
0.0
 40
0.0
 40
0.0
 40
1.0
 40
1.0
 40
1.0
 40
1.0
 10
5.097105
 20
8.2211459999999992
 30
0.0
 10
4.9929829999999997
 20
8.3483959999999993
 30
0.0
 10
4.9520549999999997
 20
8.3529979999999995
 30
0.0
 10
4.7611980000000003
 20
8.2589170000000003
 30
0.0
  0
SPLINE
  5
62
  8
Layer_1
 62
7
370
-1
  6
ByLayer
100
AcDbEntity
100
AcDbSpline
 70
8
 71
3
 72
8
 73
4
 74
0
 40
0.0
 40
0.0
 40
0.0
 40
0.0
 40
1.0
 40
1.0
 40
1.0
 40
1.0
 10
4.7611980000000003
 20
8.2589170000000003
 30
0.0
 10
4.5954790000000001
 20
8.1772270000000002
 30
0.0
 10
4.3190619999999997
 20
8.1088550000000001
 30
0.0
 10
4.1925179999999997
 20
8.1182529999999993
 30
0.0
  0
SPLINE
  5
63
  8
Layer_1
 62
7
370
-1
  6
ByLayer
100
AcDbEntity
100
AcDbSpline
 70
8
 71
3
 72
8
 73
4
 74
0
 40
0.0
 40
0.0
 40
0.0
 40
0.0
 40
1.0
 40
1.0
 40
1.0
 40
1.0
 10
4.1925179999999997
 20
8.1182529999999993
 30
0.0
 10
4.0120139999999997
 20
8.1316590000000009
 30
0.0
 10
3.6805189999999999
 20
8.2567299999999992
 30
0.0
 10
3.483333
 20
8.3858239999999995
 30
0.0
  0
SPLINE
  5
64
  8
Layer_1
 62
7
370
-1
  6
ByLayer
100
AcDbEntity
100
AcDbSpline
 70
8
 71
3
 72
8
 73
4
 74
0
 40
0.0
 40
0.0
 40
0.0
 40
0.0
 40
1.0
 40
1.0
 40
1.0
 40
1.0
 10
3.483333
 20
8.3858239999999995
 30
0.0
 10
3.4466670000000001
 20
8.4098290000000002
 30
0.0
 10
3.3883200000000002
 20
8.4478380000000008
 30
0.0
 10
3.353675
 20
8.4702889999999993
 30
0.0
  0
SPLINE
  5
65
  8
Layer_1
 62
7
370
-1
  6
ByLayer
100
AcDbEntity
100
AcDbSpline
 70
8
 71
3
 72
8
 73
4
 74
0
 40
0.0
 40
0.0
 40
0.0
 40
0.0
 40
1.0
 40
1.0
 40
1.0
 40
1.0
 10
3.353675
 20
8.4702889999999993
 30
0.0
 10
3.319029
 20
8.4927399999999995
 30
0.0
 10
3.2640289999999998
 20
8.5349810000000002
 30
0.0
 10
3.2314530000000001
 20
8.5641599999999993
 30
0.0
  0
SPLINE
  5
66
  8
Layer_1
 62
7
370
-1
  6
ByLayer
100
AcDbEntity
100
AcDbSpline
 70
8
 71
3
 72
8
 73
4
 74
0
 40
0.0
 40
0.0
 40
0.0
 40
0.0
 40
1.0
 40
1.0
 40
1.0
 40
1.0
 10
3.2314530000000001
 20
8.5641599999999993
 30
0.0
 10
3.1988759999999998
 20
8.5933379999999993
 30
0.0
 10
3.1522220000000001
 20
8.6316480000000002
 30
0.0
 10
3.1277780000000002
 20
8.6492930000000001
 30
0.0
  0
SPLINE
  5
67
  8
Layer_1
 62
7
370
-1
  6
ByLayer
100
AcDbEntity
100
AcDbSpline
 70
8
 71
3
 72
8
 73
4
 74
0
 40
0.0
 40
0.0
 40
0.0
 40
0.0
 40
1.0
 40
1.0
 40
1.0
 40
1.0
 10
3.1277780000000002
 20
8.6492930000000001
 30
0.0
 10
2.9292220000000002
 20
8.7926169999999999
 30
0.0
 10
2.7532109999999999
 20
9.1589379999999991
 30
0.0
 10
2.7901250000000002
 20
9.3520269999999996
 30
0.0
  0
SPLINE
  5
68
  8
Layer_1
 62
7
370
-1
  6
ByLayer
100
AcDbEntity
100
AcDbSpline
 70
8
 71
3
 72
8
 73
4
 74
0
 40
0.0
 40
0.0
 40
0.0
 40
0.0
 40
1.0
 40
1.0
 40
1.0
 40
1.0
 10
2.7901250000000002
 20
9.3520269999999996
 30
0.0
 10
2.8022269999999998
 20
9.4153319999999994
 30
0.0
 10
2.7592629999999998
 20
9.4526590000000006
 30
0.0
 10
2.644444
 20
9.4785950000000003
 30
0.0
  0
SPLINE
  5
69
  8
Layer_1
 62
7
370
-1
  6
ByLayer
100
AcDbEntity
100
AcDbSpline
 70
8
 71
3
 72
8
 73
4
 74
0
 40
0.0
 40
0.0
 40
0.0
 40
0.0
 40
1.0
 40
1.0
 40
1.0
 40
1.0
 10
2.644444
 20
9.4785950000000003
 30
0.0
 10
2.598611
 20
9.4889480000000006
 30
0.0
 10
2.5186109999999999
 20
9.5133179999999999
 30
0.0
 10
2.4666670000000002
 20
9.5327500000000001
 30
0.0
  0
SPLINE
  5
6A
  8
Layer_1
 62
7
370
-1
  6
ByLayer
100
AcDbEntity
100
AcDbSpline
 70
8
 71
3
 72
8
 73
4
 74
0
 40
0.0
 40
0.0
 40
0.0
 40
0.0
 40
1.0
 40
1.0
 40
1.0
 40
1.0
 10
2.4666670000000002
 20
9.5327500000000001
 30
0.0
 10
2.4147219999999998
 20
9.5521829999999994
 30
0.0
 10
2.3543949999999998
 20
9.5725809999999996
 30
0.0
 10
2.3326060000000002
 20
9.5780809999999992
 30
0.0
  0
SPLINE
  5
6B
  8
Layer_1
 62
7
370
-1
  6
ByLayer
100
AcDbEntity
100
AcDbSpline
 70
8
 71
3
 72
8
 73
4
 74
0
 40
0.0
 40
0.0
 40
0.0
 40
0.0
 40
1.0
 40
1.0
 40
1.0
 40
1.0
 10
2.3326060000000002
 20
9.5780809999999992
 30
0.0
 10
2.310816
 20
9.5835799999999995
 30
0.0
 10
2.2783159999999998
 20
9.5957310000000007
 30
0.0
 10
2.260383
 20
9.6050819999999995
 30
0.0
  0
SPLINE
  5
6C
  8
Layer_1
 62
7
370
-1
  6
ByLayer
100
AcDbEntity
100
AcDbSpline
 70
8
 71
3
 72
8
 73
4
 74
0
 40
0.0
 40
0.0
 40
0.0
 40
0.0
 40
1.0
 40
1.0
 40
1.0
 40
1.0
 10
2.260383
 20
9.6050819999999995
 30
0.0
 10
2.2424499999999998
 20
9.6144339999999993
 30
0.0
 10
2.2186110000000001
 20
9.6221160000000001
 30
0.0
 10
2.2074069999999999
 20
9.6221540000000001
 30
0.0
  0
SPLINE
  5
6D
  8
Layer_1
 62
7
370
-1
  6
ByLayer
100
AcDbEntity
100
AcDbSpline
 70
8
 71
3
 72
8
 73
4
 74
0
 40
0.0
 40
0.0
 40
0.0
 40
0.0
 40
1.0
 40
1.0
 40
1.0
 40
1.0
 10
2.2074069999999999
 20
9.6221540000000001
 30
0.0
 10
2.196202
 20
9.6221870000000003
 30
0.0
 10
2.1512020000000001
 20
9.6364710000000002
 30
0.0
 10
2.1074069999999998
 20
9.653886
 30
0.0
  0
SPLINE
  5
6E
  8
Layer_1
 62
7
370
-1
  6
ByLayer
100
AcDbEntity
100
AcDbSpline
 70
8
 71
3
 72
8
 73
4
 74
0
 40
0.0
 40
0.0
 40
0.0
 40
0.0
 40
1.0
 40
1.0
 40
1.0
 40
1.0
 10
2.1074069999999998
 20
9.653886
 30
0.0
 10
2.0636109999999999
 20
9.6713020000000007
 30
0.0
 10
2.0052780000000001
 20
9.6890450000000001
 30
0.0
 10
1.977778
 20
9.6933159999999994
 30
0.0
  0
SPLINE
  5
6F
  8
Layer_1
 62
7
370
-1
  6
ByLayer
100
AcDbEntity
100
AcDbSpline
 70
8
 71
3
 72
8
 73
4
 74
0
 40
0.0
 40
0.0
 40
0.0
 40
0.0
 40
1.0
 40
1.0
 40
1.0
 40
1.0
 10
1.977778
 20
9.6933159999999994
 30
0.0
 10
1.9263189999999999
 20
9.7013079999999992
 30
0.0
 10
1.8454029999999999
 20
9.7260919999999995
 30
0.0
 10
1.811455
 20
9.7442600000000006
 30
0.0
  0
SPLINE
  5
70
  8
Layer_1
 62
7
370
-1
  6
ByLayer
100
AcDbEntity
100
AcDbSpline
 70
8
 71
3
 72
8
 73
4
 74
0
 40
0.0
 40
0.0
 40
0.0
 40
0.0
 40
1.0
 40
1.0
 40
1.0
 40
1.0
 10
1.811455
 20
9.7442600000000006
 30
0.0
 10
1.7914620000000001
 20
9.7549609999999998
 30
0.0
 10
1.6304689999999999
 20
9.8000000000000007
 30
0.0
 10
1.612215
 20
9.8000000000000007
 30
0.0
  0
SPLINE
  5
71
  8
Layer_1
 62
7
370
-1
  6
ByLayer
100
AcDbEntity
100
AcDbSpline
 70
8
 71
3
 72
8
 73
4
 74
0
 40
0.0
 40
0.0
 40
0.0
 40
0.0
 40
1.0
 40
1.0
 40
1.0
 40
1.0
 10
1.612215
 20
9.8000000000000007
 30
0.0
 10
1.5956060000000001
 20
9.8000000000000007
 30
0.0
 10
1.562713
 20
9.652571
 30
0.0
 10
1.546521
 20
9.5055560000000003
 30
0.0
  0
SPLINE
  5
72
  8
Layer_1
 62
7
370
-1
  6
ByLayer
100
AcDbEntity
100
AcDbSpline
 70
8
 71
3
 72
8
 73
4
 74
0
 40
0.0
 40
0.0
 40
0.0
 40
0.0
 40
1.0
 40
1.0
 40
1.0
 40
1.0
 10
1.546521
 20
9.5055560000000003
 30
0.0
 10
1.5411360000000001
 20
9.4566669999999995
 30
0.0
 10
1.528648
 20
9.3841669999999997
 30
0.0
 10
1.518769
 20
9.3444439999999993
 30
0.0
  0
SPLINE
  5
73
  8
Layer_1
 62
7
370
-1
  6
ByLayer
100
AcDbEntity
100
AcDbSpline
 70
8
 71
3
 72
8
 73
4
 74
0
 40
0.0
 40
0.0
 40
0.0
 40
0.0
 40
1.0
 40
1.0
 40
1.0
 40
1.0
 10
1.518769
 20
9.3444439999999993
 30
0.0
 10
1.5088900000000001
 20
9.3047219999999999
 30
0.0
 10
1.4900070000000001
 20
9.2222220000000004
 30
0.0
 10
1.476807
 20
9.161111
 30
0.0
  0
SPLINE
  5
74
  8
Layer_1
 62
7
370
-1
  6
ByLayer
100
AcDbEntity
100
AcDbSpline
 70
8
 71
3
 72
8
 73
4
 74
0
 40
0.0
 40
0.0
 40
0.0
 40
0.0
 40
1.0
 40
1.0
 40
1.0
 40
1.0
 10
1.476807
 20
9.161111
 30
0.0
 10
1.4636070000000001
 20
9.0999999999999996
 30
0.0
 10
1.443873
 20
9.0150000000000006
 30
0.0
 10
1.4329540000000001
 20
8.9722220000000004
 30
0.0
  0
SPLINE
  5
75
  8
Layer_1
 62
7
370
-1
  6
ByLayer
100
AcDbEntity
100
AcDbSpline
 70
8
 71
3
 72
8
 73
4
 74
0
 40
0.0
 40
0.0
 40
0.0
 40
0.0
 40
1.0
 40
1.0
 40
1.0
 40
1.0
 10
1.4329540000000001
 20
8.9722220000000004
 30
0.0
 10
1.4220349999999999
 20
8.9294440000000002
 30
0.0
 10
1.409616
 20
8.8594439999999999
 30
0.0
 10
1.4053580000000001
 20
8.8166670000000007
 30
0.0
  0
SPLINE
  5
76
  8
Layer_1
 62
7
370
-1
  6
ByLayer
100
AcDbEntity
100
AcDbSpline
 70
8
 71
3
 72
8
 73
4
 74
0
 40
0.0
 40
0.0
 40
0.0
 40
0.0
 40
1.0
 40
1.0
 40
1.0
 40
1.0
 10
1.4053580000000001
 20
8.8166670000000007
 30
0.0
 10
1.4010990000000001
 20
8.7738890000000005
 30
0.0
 10
1.3902870000000001
 20
8.7088889999999992
 30
0.0
 10
1.3813310000000001
 20
8.6722219999999997
 30
0.0
  0
SPLINE
  5
77
  8
Layer_1
 62
7
370
-1
  6
ByLayer
100
AcDbEntity
100
AcDbSpline
 70
8
 71
3
 72
8
 73
4
 74
0
 40
0.0
 40
0.0
 40
0.0
 40
0.0
 40
1.0
 40
1.0
 40
1.0
 40
1.0
 10
1.3813310000000001
 20
8.6722219999999997
 30
0.0
 10
1.312881
 20
8.3919750000000004
 30
0.0
 10
1.292119
 20
8.0201740000000008
 30
0.0
 10
1.315561
 20
7.4944439999999997
 30
0.0
  0
SPLINE
  5
78
  8
Layer_1
 62
7
370
-1
  6
ByLayer
100
AcDbEntity
100
AcDbSpline
 70
8
 71
3
 72
8
 73
4
 74
0
 40
0.0
 40
0.0
 40
0.0
 40
0.0
 40
1.0
 40
1.0
 40
1.0
 40
1.0
 10
1.315561
 20
7.4944439999999997
 30
0.0
 10
1.3285880000000001
 20
7.2022930000000001
 30
0.0
 10
1.430882
 20
6.6699479999999998
 30
0.0
 10
1.5119880000000001
 20
6.4722220000000004
 30
0.0
  0
SPLINE
  5
79
  8
Layer_1
 62
7
370
-1
  6
ByLayer
100
AcDbEntity
100
AcDbSpline
 70
8
 71
3
 72
8
 73
4
 74
0
 40
0.0
 40
0.0
 40
0.0
 40
0.0
 40
1.0
 40
1.0
 40
1.0
 40
1.0
 10
1.5119880000000001
 20
6.4722220000000004
 30
0.0
 10
1.517001
 20
6.46
 30
0.0
 10
1.5284169999999999
 20
6.4275000000000002
 30
0.0
 10
1.537355
 20
6.4000000000000004
 30
0.0
  0
SPLINE
  5
7A
  8
Layer_1
 62
7
370
-1
  6
ByLayer
100
AcDbEntity
100
AcDbSpline
 70
8
 71
3
 72
8
 73
4
 74
0
 40
0.0
 40
0.0
 40
0.0
 40
0.0
 40
1.0
 40
1.0
 40
1.0
 40
1.0
 10
1.537355
 20
6.4000000000000004
 30
0.0
 10
1.5462940000000001
 20
6.3724999999999996
 30
0.0
 10
1.570972
 20
6.3070449999999996
 30
0.0
 10
1.592195
 20
6.2545440000000001
 30
0.0
  0
SPLINE
  5
7B
  8
Layer_1
 62
7
370
-1
  6
ByLayer
100
AcDbEntity
100
AcDbSpline
 70
8
 71
3
 72
8
 73
4
 74
0
 40
0.0
 40
0.0
 40
0.0
 40
0.0
 40
1.0
 40
1.0
 40
1.0
 40
1.0
 10
1.592195
 20
6.2545440000000001
 30
0.0
 10
1.6134189999999999
 20
6.2020439999999999
 30
0.0
 10
1.6343829999999999
 20
6.1377819999999996
 30
0.0
 10
1.6387830000000001
 20
6.1117400000000002
 30
0.0
  0
SPLINE
  5
7C
  8
Layer_1
 62
7
370
-1
  6
ByLayer
100
AcDbEntity
100
AcDbSpline
 70
8
 71
3
 72
8
 73
4
 74
0
 40
0.0
 40
0.0
 40
0.0
 40
0.0
 40
1.0
 40
1.0
 40
1.0
 40
1.0
 10
1.6387830000000001
 20
6.1117400000000002
 30
0.0
 10
1.6431819999999999
 20
6.0856979999999998
 30
0.0
 10
1.666256
 20
6.0249550000000003
 30
0.0
 10
1.6900580000000001
 20
5.9767549999999998
 30
0.0
  0
SPLINE
  5
7D
  8
Layer_1
 62
7
370
-1
  6
ByLayer
100
AcDbEntity
100
AcDbSpline
 70
8
 71
3
 72
8
 73
4
 74
0
 40
0.0
 40
0.0
 40
0.0
 40
0.0
 40
1.0
 40
1.0
 40
1.0
 40
1.0
 10
1.6900580000000001
 20
5.9767549999999998
 30
0.0
 10
1.713859
 20
5.9285550000000002
 30
0.0
 10
1.733333
 20
5.8866199999999997
 30
0.0
 10
1.733333
 20
5.8835660000000001
 30
0.0
  0
SPLINE
  5
7E
  8
Layer_1
 62
7
370
-1
  6
ByLayer
100
AcDbEntity
100
AcDbSpline
 70
8
 71
3
 72
8
 73
4
 74
0
 40
0.0
 40
0.0
 40
0.0
 40
0.0
 40
1.0
 40
1.0
 40
1.0
 40
1.0
 10
1.733333
 20
5.8835660000000001
 30
0.0
 10
1.733333
 20
5.8805120000000004
 30
0.0
 10
1.7620830000000001
 20
5.8276289999999999
 30
0.0
 10
1.7972220000000001
 20
5.7660499999999999
 30
0.0
  0
SPLINE
  5
7F
  8
Layer_1
 62
7
370
-1
  6
ByLayer
100
AcDbEntity
100
AcDbSpline
 70
8
 71
3
 72
8
 73
4
 74
0
 40
0.0
 40
0.0
 40
0.0
 40
0.0
 40
1.0
 40
1.0
 40
1.0
 40
1.0
 10
1.7972220000000001
 20
5.7660499999999999
 30
0.0
 10
1.8323609999999999
 20
5.7044699999999997
 30
0.0
 10
1.8836109999999999
 20
5.612698
 30
0.0
 10
1.911111
 20
5.5621130000000001
 30
0.0
  0
SPLINE
  5
80
  8
Layer_1
 62
7
370
-1
  6
ByLayer
100
AcDbEntity
100
AcDbSpline
 70
8
 71
3
 72
8
 73
4
 74
0
 40
0.0
 40
0.0
 40
0.0
 40
0.0
 40
1.0
 40
1.0
 40
1.0
 40
1.0
 10
1.911111
 20
5.5621130000000001
 30
0.0
 10
1.9386110000000001
 20
5.5115270000000001
 30
0.0
 10
1.972361
 20
5.4561830000000002
 30
0.0
 10
1.986111
 20
5.4391259999999999
 30
0.0
  0
SPLINE
  5
81
  8
Layer_1
 62
7
370
-1
  6
ByLayer
100
AcDbEntity
100
AcDbSpline
 70
8
 71
3
 72
8
 73
4
 74
0
 40
0.0
 40
0.0
 40
0.0
 40
0.0
 40
1.0
 40
1.0
 40
1.0
 40
1.0
 10
1.986111
 20
5.4391259999999999
 30
0.0
 10
1.9998610000000001
 20
5.4220699999999997
 30
0.0
 10
2.0111110000000001
 20
5.4030139999999998
 30
0.0
 10
2.0111110000000001
 20
5.3967799999999997
 30
0.0
  0
SPLINE
  5
82
  8
Layer_1
 62
7
370
-1
  6
ByLayer
100
AcDbEntity
100
AcDbSpline
 70
8
 71
3
 72
8
 73
4
 74
0
 40
0.0
 40
0.0
 40
0.0
 40
0.0
 40
1.0
 40
1.0
 40
1.0
 40
1.0
 10
2.0111110000000001
 20
5.3967799999999997
 30
0.0
 10
2.0111110000000001
 20
5.3905469999999998
 30
0.0
 10
2.0443519999999999
 20
5.3349710000000004
 30
0.0
 10
2.0849799999999998
 20
5.2732789999999996
 30
0.0
  0
SPLINE
  5
83
  8
Layer_1
 62
7
370
-1
  6
ByLayer
100
AcDbEntity
100
AcDbSpline
 70
8
 71
3
 72
8
 73
4
 74
0
 40
0.0
 40
0.0
 40
0.0
 40
0.0
 40
1.0
 40
1.0
 40
1.0
 40
1.0
 10
2.0849799999999998
 20
5.2732789999999996
 30
0.0
 10
2.2924150000000001
 20
4.9582930000000003
 30
0.0
 10
2.3383929999999999
 20
4.8952710000000002
 30
0.0
 10
2.5499999999999998
 20
4.6358670000000002
 30
0.0
  0
SPLINE
  5
84
  8
Layer_1
 62
7
370
-1
  6
ByLayer
100
AcDbEntity
100
AcDbSpline
 70
8
 71
3
 72
8
 73
4
 74
0
 40
0.0
 40
0.0
 40
0.0
 40
0.0
 40
1.0
 40
1.0
 40
1.0
 40
1.0
 10
2.5499999999999998
 20
4.6358670000000002
 30
0.0
 10
2.6456
 20
4.5186729999999997
 30
0.0
 10
2.7213189999999998
 20
4.4202810000000001
 30
0.0
 10
2.846949
 20
4.25
 30
0.0
  0
SPLINE
  5
85
  8
Layer_1
 62
7
370
-1
  6
ByLayer
100
AcDbEntity
100
AcDbSpline
 70
8
 71
3
 72
8
 73
4
 74
0
 40
0.0
 40
0.0
 40
0.0
 40
0.0
 40
1.0
 40
1.0
 40
1.0
 40
1.0
 10
2.846949
 20
4.25
 30
0.0
 10
2.8785099999999999
 20
4.2072219999999998
 30
0.0
 10
2.9171070000000001
 20
4.1592630000000002
 30
0.0
 10
2.9327220000000001
 20
4.1434240000000004
 30
0.0
  0
SPLINE
  5
86
  8
Layer_1
 62
7
370
-1
  6
ByLayer
100
AcDbEntity
100
AcDbSpline
 70
8
 71
3
 72
8
 73
4
 74
0
 40
0.0
 40
0.0
 40
0.0
 40
0.0
 40
1.0
 40
1.0
 40
1.0
 40
1.0
 10
2.9327220000000001
 20
4.1434240000000004
 30
0.0
 10
2.9483359999999998
 20
4.1275839999999997
 30
0.0
 10
2.9861110000000002
 20
4.0832189999999997
 30
0.0
 10
3.016667
 20
4.0448339999999998
 30
0.0
  0
SPLINE
  5
87
  8
Layer_1
 62
7
370
-1
  6
ByLayer
100
AcDbEntity
100
AcDbSpline
 70
8
 71
3
 72
8
 73
4
 74
0
 40
0.0
 40
0.0
 40
0.0
 40
0.0
 40
1.0
 40
1.0
 40
1.0
 40
1.0
 10
3.016667
 20
4.0448339999999998
 30
0.0
 10
3.0472220000000001
 20
4.0064489999999999
 30
0.0
 10
3.0900889999999999
 20
3.9544079999999999
 30
0.0
 10
3.111926
 20
3.9291879999999999
 30
0.0
  0
SPLINE
  5
88
  8
Layer_1
 62
7
370
-1
  6
ByLayer
100
AcDbEntity
100
AcDbSpline
 70
8
 71
3
 72
8
 73
4
 74
0
 40
0.0
 40
0.0
 40
0.0
 40
0.0
 40
1.0
 40
1.0
 40
1.0
 40
1.0
 10
3.111926
 20
3.9291879999999999
 30
0.0
 10
3.1478250000000001
 20
3.8877280000000001
 30
0.0
 10
3.2042459999999999
 20
3.8106599999999999
 30
0.0
 10
3.4039779999999999
 20
3.530265
 30
0.0
  0
SPLINE
  5
89
  8
Layer_1
 62
7
370
-1
  6
ByLayer
100
AcDbEntity
100
AcDbSpline
 70
8
 71
3
 72
8
 73
4
 74
0
 40
0.0
 40
0.0
 40
0.0
 40
0.0
 40
1.0
 40
1.0
 40
1.0
 40
1.0
 10
3.4039779999999999
 20
3.530265
 30
0.0
 10
3.6281870000000001
 20
3.2155079999999998
 30
0.0
 10
3.7103169999999999
 20
3.0350670000000002
 30
0.0
 10
3.8400430000000001
 20
2.572222
 30
0.0
  0
SPLINE
  5
8A
  8
Layer_1
 62
7
370
-1
  6
ByLayer
100
AcDbEntity
100
AcDbSpline
 70
8
 71
3
 72
8
 73
4
 74
0
 40
0.0
 40
0.0
 40
0.0
 40
0.0
 40
1.0
 40
1.0
 40
1.0
 40
1.0
 10
3.8400430000000001
 20
2.572222
 30
0.0
 10
3.8554580000000001
 20
2.5172219999999998
 30
0.0
 10
3.8731429999999998
 20
2.447222
 30
0.0
 10
3.879343
 20
2.4166669999999999
 30
0.0
  0
SPLINE
  5
8B
  8
Layer_1
 62
7
370
-1
  6
ByLayer
100
AcDbEntity
100
AcDbSpline
 70
8
 71
3
 72
8
 73
4
 74
0
 40
0.0
 40
0.0
 40
0.0
 40
0.0
 40
1.0
 40
1.0
 40
1.0
 40
1.0
 10
3.879343
 20
2.4166669999999999
 30
0.0
 10
3.9065989999999999
 20
2.2823349999999998
 30
0.0
 10
3.9751379999999998
 20
2.127964
 30
0.0
 10
4.062754
 20
2.003565
 30
0.0
  0
SPLINE
  5
8C
  8
Layer_1
 62
7
370
-1
  6
ByLayer
100
AcDbEntity
100
AcDbSpline
 70
8
 71
3
 72
8
 73
4
 74
0
 40
0.0
 40
0.0
 40
0.0
 40
0.0
 40
1.0
 40
1.0
 40
1.0
 40
1.0
 10
4.062754
 20
2.003565
 30
0.0
 10
4.0893509999999997
 20
1.965803
 30
0.0
 10
4.1111110000000002
 20
1.9320029999999999
 30
0.0
 10
4.1111110000000002
 20
1.928455
 30
0.0
  0
SPLINE
  5
8D
  8
Layer_1
 62
7
370
-1
  6
ByLayer
100
AcDbEntity
100
AcDbSpline
 70
8
 71
3
 72
8
 73
4
 74
0
 40
0.0
 40
0.0
 40
0.0
 40
0.0
 40
1.0
 40
1.0
 40
1.0
 40
1.0
 10
4.1111110000000002
 20
1.928455
 30
0.0
 10
4.1111110000000002
 20
1.9147289999999999
 30
0.0
 10
4.2481059999999999
 20
1.7538940000000001
 30
0.0
 10
4.2814779999999999
 20
1.72844
 30
0.0
  0
SPLINE
  5
8E
  8
Layer_1
 62
7
370
-1
  6
ByLayer
100
AcDbEntity
100
AcDbSpline
 70
8
 71
3
 72
8
 73
4
 74
0
 40
0.0
 40
0.0
 40
0.0
 40
0.0
 40
1.0
 40
1.0
 40
1.0
 40
1.0
 10
4.2814779999999999
 20
1.72844
 30
0.0
 10
4.3148980000000003
 20
1.702949
 30
0.0
 10
4.3655879999999998
 20
1.680876
 30
0.0
 10
4.592803
 20
1.5928739999999999
 30
0.0
  0
SPLINE
  5
8F
  8
Layer_1
 62
7
370
-1
  6
ByLayer
100
AcDbEntity
100
AcDbSpline
 70
8
 71
3
 72
8
 73
4
 74
0
 40
0.0
 40
0.0
 40
0.0
 40
0.0
 40
1.0
 40
1.0
 40
1.0
 40
1.0
 10
4.592803
 20
1.5928739999999999
 30
0.0
 10
4.6468999999999996
 20
1.5719209999999999
 30
0.0
 10
4.7144000000000004
 20
1.5431010000000001
 30
0.0
 10
4.7428030000000003
 20
1.5288280000000001
 30
0.0
  0
SPLINE
  5
90
  8
Layer_1
 62
7
370
-1
  6
ByLayer
100
AcDbEntity
100
AcDbSpline
 70
8
 71
3
 72
8
 73
4
 74
0
 40
0.0
 40
0.0
 40
0.0
 40
0.0
 40
1.0
 40
1.0
 40
1.0
 40
1.0
 10
4.7428030000000003
 20
1.5288280000000001
 30
0.0
 10
4.7712060000000003
 20
1.514556
 30
0.0
 10
4.8069439999999997
 20
1.499042
 30
0.0
 10
4.822222
 20
1.494353
 30
0.0
  0
SPLINE
  5
91
  8
Layer_1
 62
7
370
-1
  6
ByLayer
100
AcDbEntity
100
AcDbSpline
 70
8
 71
3
 72
8
 73
4
 74
0
 40
0.0
 40
0.0
 40
0.0
 40
0.0
 40
1.0
 40
1.0
 40
1.0
 40
1.0
 10
4.822222
 20
1.494353
 30
0.0
 10
4.8487369999999999
 20
1.4862150000000001
 30
0.0
 10
4.8899660000000003
 20
1.468364
 30
0.0
 10
5.0388890000000002
 20
1.4005430000000001
 30
0.0
  0
SPLINE
  5
92
  8
Layer_1
 62
7
370
-1
  6
ByLayer
100
AcDbEntity
100
AcDbSpline
 70
8
 71
3
 72
8
 73
4
 74
0
 40
0.0
 40
0.0
 40
0.0
 40
0.0
 40
1.0
 40
1.0
 40
1.0
 40
1.0
 10
5.0388890000000002
 20
1.4005430000000001
 30
0.0
 10
5.0755559999999997
 20
1.3838440000000001
 30
0.0
 10
5.1380559999999997
 20
1.356392
 30
0.0
 10
5.177778
 20
1.3395379999999999
 30
0.0
  0
SPLINE
  5
93
  8
Layer_1
 62
7
370
-1
  6
ByLayer
100
AcDbEntity
100
AcDbSpline
 70
8
 71
3
 72
8
 73
4
 74
0
 40
0.0
 40
0.0
 40
0.0
 40
0.0
 40
1.0
 40
1.0
 40
1.0
 40
1.0
 10
5.177778
 20
1.3395379999999999
 30
0.0
 10
5.2175000000000002
 20
1.3226830000000001
 30
0.0
 10
5.2879459999999998
 20
1.289471
 30
0.0
 10
5.3343239999999996
 20
1.265733
 30
0.0
  0
SPLINE
  5
94
  8
Layer_1
 62
7
370
-1
  6
ByLayer
100
AcDbEntity
100
AcDbSpline
 70
8
 71
3
 72
8
 73
4
 74
0
 40
0.0
 40
0.0
 40
0.0
 40
0.0
 40
1.0
 40
1.0
 40
1.0
 40
1.0
 10
5.3343239999999996
 20
1.265733
 30
0.0
 10
5.3807020000000003
 20
1.241994
 30
0.0
 10
5.4522019999999998
 20
1.2099420000000001
 30
0.0
 10
5.4932129999999999
 20
1.1945060000000001
 30
0.0
  0
SPLINE
  5
95
  8
Layer_1
 62
7
370
-1
  6
ByLayer
100
AcDbEntity
100
AcDbSpline
 70
8
 71
3
 72
8
 73
4
 74
0
 40
0.0
 40
0.0
 40
0.0
 40
0.0
 40
1.0
 40
1.0
 40
1.0
 40
1.0
 10
5.4932129999999999
 20
1.1945060000000001
 30
0.0
 10
5.534224
 20
1.1790689999999999
 30
0.0
 10
5.6062779999999997
 20
1.14811
 30
0.0
 10
5.6533329999999999
 20
1.1257079999999999
 30
0.0
  0
SPLINE
  5
96
  8
Layer_1
 62
7
370
-1
  6
ByLayer
100
AcDbEntity
100
AcDbSpline
 70
8
 71
3
 72
8
 73
4
 74
0
 40
0.0
 40
0.0
 40
0.0
 40
0.0
 40
1.0
 40
1.0
 40
1.0
 40
1.0
 10
5.6533329999999999
 20
1.1257079999999999
 30
0.0
 10
5.8491249999999999
 20
1.0324960000000001
 30
0.0
 10
5.9320830000000004
 20
1.0177499999999999
 30
0.0
 10
5.9788750000000004
 20
1.067842
 30
0.0
  0
LWPOLYLINE
  5
97
  8
Layer_1
 62
7
370
-1
  6
ByLayer
100
AcDbEntity
100
AcDbPolyline
 90
2
 70
0
 10
5.8499999999999996
 20
0.945049
 10
5.8499999999999996
 20
0.945049
  0
LWPOLYLINE
  5
98
  8
Layer_1
 62
7
370
-1
  6
ByLayer
100
AcDbEntity
100
AcDbPolyline
 90
2
 70
0
 10
5.9788750000000004
 20
1.067842
 10
5.9788750000000004
 20
1.067842
  0
LWPOLYLINE
  5
99
  8
Layer_1
 62
256
370
-1
  6
ByLayer
100
AcDbEntity
100
AcDbPolyline
 90
2
 70
0
 10
10.9677301260834277
 20
1.3792806470700336
 10
10.9677301260834277
 20
1.3792806470700336
  0
SPLINE
  5
9A
  8
Layer_1
 62
256
370
-1
  6
ByLayer
100
AcDbEntity
100
AcDbSpline
 70
8
 71
3
 72
8
 73
4
 74
0
 40
0.0
 40
0.0
 40
0.0
 40
0.0
 40
1.0
 40
1.0
 40
1.0
 40
1.0
 10
7.8719883695417927
 20
1.0833445821311276
 30
0.0
 10
7.8544549662949859
 20
1.102505352250958
 30
0.0
 10
7.840154741994434
 20
1.1225398379432274
 30
0.0
 10
7.8402096477520633
 20
1.1278655549238596
 30
0.0
  0
SPLINE
  5
9B
  8
Layer_1
 62
256
370
-1
  6
ByLayer
100
AcDbEntity
100
AcDbSpline
 70
8
 71
3
 72
8
 73
4
 74
0
 40
0.0
 40
0.0
 40
0.0
 40
0.0
 40
1.0
 40
1.0
 40
1.0
 40
1.0
 10
7.8402096477520633
 20
1.1278655549238596
 30
0.0
 10
7.8403027896071542
 20
1.1369000748112033
 30
0.0
 10
7.8148715890332507
 20
1.1918181634739557
 30
0.0
 10
7.7346490412478222
 20
1.3558218931017167
 30
0.0
  0
SPLINE
  5
9C
  8
Layer_1
 62
256
370
-1
  6
ByLayer
100
AcDbEntity
100
AcDbSpline
 70
8
 71
3
 72
8
 73
4
 74
0
 40
0.0
 40
0.0
 40
0.0
 40
0.0
 40
1.0
 40
1.0
 40
1.0
 40
1.0
 10
7.7346490412478222
 20
1.3558218931017167
 30
0.0
 10
7.7166210196467393
 20
1.3926767024914133
 30
0.0
 10
7.6981571568255802
 20
1.4353693151863673
 30
0.0
 10
7.6936168971343193
 20
1.4506939350816834
 30
0.0
  0
SPLINE
  5
9D
  8
Layer_1
 62
256
370
-1
  6
ByLayer
100
AcDbEntity
100
AcDbSpline
 70
8
 71
3
 72
8
 73
4
 74
0
 40
0.0
 40
0.0
 40
0.0
 40
0.0
 40
1.0
 40
1.0
 40
1.0
 40
1.0
 10
7.6936168971343193
 20
1.4506939350816834
 30
0.0
 10
7.6844252806664812
 20
1.4817223403212085
 30
0.0
 10
7.6579391694727121
 20
1.5453847687294231
 30
0.0
 10
7.6123191058119541
 20
1.6461084185421062
 30
0.0
  0
SPLINE
  5
9E
  8
Layer_1
 62
256
370
-1
  6
ByLayer
100
AcDbEntity
100
AcDbSpline
 70
8
 71
3
 72
8
 73
4
 74
0
 40
0.0
 40
0.0
 40
0.0
 40
0.0
 40
1.0
 40
1.0
 40
1.0
 40
1.0
 10
7.6123191058119541
 20
1.6461084185421062
 30
0.0
 10
7.5754337067365753
 20
1.7275479979187849
 30
0.0
 10
7.4916720498298055
 20
1.9733325580059327
 30
0.0
 10
7.4489542171651415
 20
2.1254750210609052
 30
0.0
  0
SPLINE
  5
9F
  8
Layer_1
 62
256
370
-1
  6
ByLayer
100
AcDbEntity
100
AcDbSpline
 70
8
 71
3
 72
8
 73
4
 74
0
 40
0.0
 40
0.0
 40
0.0
 40
0.0
 40
1.0
 40
1.0
 40
1.0
 40
1.0
 10
7.4489542171651415
 20
2.1254750210609052
 30
0.0
 10
7.4317451587385932
 20
2.1867666863105271
 30
0.0
 10
7.4129639375998195
 20
2.2523187853885611
 30
0.0
 10
7.4072177223329287
 20
2.2711460236115868
 30
0.0
  0
SPLINE
  5
A0
  8
Layer_1
 62
256
370
-1
  6
ByLayer
100
AcDbEntity
100
AcDbSpline
 70
8
 71
3
 72
8
 73
4
 74
0
 40
0.0
 40
0.0
 40
0.0
 40
0.0
 40
1.0
 40
1.0
 40
1.0
 40
1.0
 10
7.4072177223329287
 20
2.2711460236115868
 30
0.0
 10
7.4014705071191749
 20
2.2899732721436177
 30
0.0
 10
7.3968588103314392
 20
2.3140830953229354
 30
0.0
 10
7.3969684981386514
 20
2.3247225299218668
 30
0.0
  0
SPLINE
  5
A1
  8
Layer_1
 62
256
370
-1
  6
ByLayer
100
AcDbEntity
100
AcDbSpline
 70
8
 71
3
 72
8
 73
4
 74
0
 40
0.0
 40
0.0
 40
0.0
 40
0.0
 40
1.0
 40
1.0
 40
1.0
 40
1.0
 10
7.3969684981386514
 20
2.3247225299218668
 30
0.0
 10
7.3970781859458619
 20
2.3353619645207981
 30
0.0
 10
7.3903689430465853
 20
2.3675778420615163
 30
0.0
 10
7.3820597326685018
 20
2.3963130287129499
 30
0.0
  0
SPLINE
  5
A2
  8
Layer_1
 62
256
370
-1
  6
ByLayer
100
AcDbEntity
100
AcDbSpline
 70
8
 71
3
 72
8
 73
4
 74
0
 40
0.0
 40
0.0
 40
0.0
 40
0.0
 40
1.0
 40
1.0
 40
1.0
 40
1.0
 10
7.3820597326685018
 20
2.3963130287129499
 30
0.0
 10
7.373749522343557
 20
2.4250482256733865
 30
0.0
 10
7.3519672305827886
 20
2.5162176240845255
 30
0.0
 10
7.333654741808445
 20
2.5989108018617126
 30
0.0
  0
SPLINE
  5
A3
  8
Layer_1
 62
256
370
-1
  6
ByLayer
100
AcDbEntity
100
AcDbSpline
 70
8
 71
3
 72
8
 73
4
 74
0
 40
0.0
 40
0.0
 40
0.0
 40
0.0
 40
1.0
 40
1.0
 40
1.0
 40
1.0
 10
7.333654741808445
 20
2.5989108018617126
 30
0.0
 10
7.3153412530872401
 20
2.6816039899479049
 30
0.0
 10
7.2885461521227626
 20
2.797941402839474
 30
0.0
 10
7.2741097499918812
 20
2.8574393894483952
 30
0.0
  0
SPLINE
  5
A4
  8
Layer_1
 62
256
370
-1
  6
ByLayer
100
AcDbEntity
100
AcDbSpline
 70
8
 71
3
 72
8
 73
4
 74
0
 40
0.0
 40
0.0
 40
0.0
 40
0.0
 40
1.0
 40
1.0
 40
1.0
 40
1.0
 10
7.2741097499918812
 20
2.8574393894483952
 30
0.0
 10
7.1453657263715069
 20
3.3880258070959233
 30
0.0
 10
7.1087254031257654
 20
4.1325810974219319
 30
0.0
 10
7.1866883047651093
 20
4.6338670154547197
 30
0.0
  0
SPLINE
  5
A5
  8
Layer_1
 62
256
370
-1
  6
ByLayer
100
AcDbEntity
100
AcDbSpline
 70
8
 71
3
 72
8
 73
4
 74
0
 40
0.0
 40
0.0
 40
0.0
 40
0.0
 40
1.0
 40
1.0
 40
1.0
 40
1.0
 10
7.1866883047651093
 20
4.6338670154547197
 30
0.0
 10
7.1928574929575788
 20
4.6735275247939336
 30
0.0
 10
7.2038478992067478
 20
4.7509183371328572
 30
0.0
 10
7.2111115385775815
 20
4.8058463750742426
 30
0.0
  0
SPLINE
  5
A6
  8
Layer_1
 62
256
370
-1
  6
ByLayer
100
AcDbEntity
100
AcDbSpline
 70
8
 71
3
 72
8
 73
4
 74
0
 40
0.0
 40
0.0
 40
0.0
 40
0.0
 40
1.0
 40
1.0
 40
1.0
 40
1.0
 10
7.2111115385775815
 20
4.8058463750742426
 30
0.0
 10
7.2183761778952729
 20
4.8607744027066273
 30
0.0
 10
7.232644696507279
 20
4.9681330134354305
 30
0.0
 10
7.2428196921764325
 20
5.0444211732515685
 30
0.0
  0
SPLINE
  5
A7
  8
Layer_1
 62
256
370
-1
  6
ByLayer
100
AcDbEntity
100
AcDbSpline
 70
8
 71
3
 72
8
 73
4
 74
0
 40
0.0
 40
0.0
 40
0.0
 40
0.0
 40
1.0
 40
1.0
 40
1.0
 40
1.0
 10
7.2428196921764325
 20
5.0444211732515685
 30
0.0
 10
7.2529936878987282
 20
5.1207093433767117
 30
0.0
 10
7.2687429367761638
 20
5.2080516255989933
 30
0.0
 10
7.2778164732695068
 20
5.2385157053077913
 30
0.0
  0
SPLINE
  5
A8
  8
Layer_1
 62
256
370
-1
  6
ByLayer
100
AcDbEntity
100
AcDbSpline
 70
8
 71
3
 72
8
 73
4
 74
0
 40
0.0
 40
0.0
 40
0.0
 40
0.0
 40
1.0
 40
1.0
 40
1.0
 40
1.0
 10
7.2778164732695068
 20
5.2385157053077913
 30
0.0
 10
7.2868899994538463
 20
5.2689787850697254
 30
0.0
 10
7.3049227098186478
 20
5.3387965958410417
 30
0.0
 10
7.317888046189772
 20
5.3936658518391285
 30
0.0
  0
SPLINE
  5
A9
  8
Layer_1
 62
256
370
-1
  6
ByLayer
100
AcDbEntity
100
AcDbSpline
 70
8
 71
3
 72
8
 73
4
 74
0
 40
0.0
 40
0.0
 40
0.0
 40
0.0
 40
1.0
 40
1.0
 40
1.0
 40
1.0
 10
7.317888046189772
 20
5.3936658518391285
 30
0.0
 10
7.3308533825608961
 20
5.448535107837218
 30
0.0
 10
7.3562576661116577
 20
5.5407781166848933
 30
0.0
 10
7.3743432363749619
 20
5.5986507477660092
 30
0.0
  0
SPLINE
  5
AA
  8
Layer_1
 62
256
370
-1
  6
ByLayer
100
AcDbEntity
100
AcDbSpline
 70
8
 71
3
 72
8
 73
4
 74
0
 40
0.0
 40
0.0
 40
0.0
 40
0.0
 40
1.0
 40
1.0
 40
1.0
 40
1.0
 10
7.3743432363749619
 20
5.5986507477660092
 30
0.0
 10
7.3924287963292628
 20
5.656522378900263
 30
0.0
 10
7.4261056051875656
 20
5.7711812974113066
 30
0.0
 10
7.4491809169818115
 20
5.853447785494839
 30
0.0
  0
SPLINE
  5
AB
  8
Layer_1
 62
256
370
-1
  6
ByLayer
100
AcDbEntity
100
AcDbSpline
 70
8
 71
3
 72
8
 73
4
 74
0
 40
0.0
 40
0.0
 40
0.0
 40
0.0
 40
1.0
 40
1.0
 40
1.0
 40
1.0
 10
7.4491809169818115
 20
5.853447785494839
 30
0.0
 10
7.4722562287760574
 20
5.9357142735783768
 30
0.0
 10
7.5088788810862823
 20
6.0503428217623423
 30
0.0
 10
7.5305632601016157
 20
6.1081783507364902
 30
0.0
  0
SPLINE
  5
AC
  8
Layer_1
 62
256
370
-1
  6
ByLayer
100
AcDbEntity
100
AcDbSpline
 70
8
 71
3
 72
8
 73
4
 74
0
 40
0.0
 40
0.0
 40
0.0
 40
0.0
 40
1.0
 40
1.0
 40
1.0
 40
1.0
 10
7.5305632601016157
 20
6.1081783507364902
 30
0.0
 10
7.5522486287548016
 20
6.1660128694547742
 30
0.0
 10
7.5886048780573496
 20
6.2631432341490898
 30
0.0
 10
7.6113567063380323
 20
6.3240239206012516
 30
0.0
  0
SPLINE
  5
AD
  8
Layer_1
 62
256
370
-1
  6
ByLayer
100
AcDbEntity
100
AcDbSpline
 70
8
 71
3
 72
8
 73
4
 74
0
 40
0.0
 40
0.0
 40
0.0
 40
0.0
 40
1.0
 40
1.0
 40
1.0
 40
1.0
 10
7.6113567063380323
 20
6.3240239206012516
 30
0.0
 10
7.6489579522928093
 20
6.4246396358282869
 30
0.0
 10
7.8397348896416954
 20
6.8116604815120576
 30
0.0
 10
7.8694347233160045
 20
6.8475762143281695
 30
0.0
  0
SPLINE
  5
AE
  8
Layer_1
 62
256
370
-1
  6
ByLayer
100
AcDbEntity
100
AcDbSpline
 70
8
 71
3
 72
8
 73
4
 74
0
 40
0.0
 40
0.0
 40
0.0
 40
0.0
 40
1.0
 40
1.0
 40
1.0
 40
1.0
 10
7.8694347233160045
 20
6.8475762143281695
 30
0.0
 10
7.888217865436788
 20
6.8702887857605353
 30
0.0
 10
7.9074359564642371
 20
6.9037614450851361
 30
0.0
 10
7.9401074448400379
 20
6.9706691899904172
 30
0.0
  0
SPLINE
  5
AF
  8
Layer_1
 62
256
370
-1
  6
ByLayer
100
AcDbEntity
100
AcDbSpline
 70
8
 71
3
 72
8
 73
4
 74
0
 40
0.0
 40
0.0
 40
0.0
 40
0.0
 40
1.0
 40
1.0
 40
1.0
 40
1.0
 10
7.9401074448400379
 20
6.9706691899904172
 30
0.0
 10
7.9564390913049508
 20
7.0041136041838961
 30
0.0
 10
7.9867472265442139
 20
7.0546058406001908
 30
0.0
 10
8.0074597418881535
 20
7.0828738173252193
 30
0.0
  0
SPLINE
  5
B0
  8
Layer_1
 62
256
370
-1
  6
ByLayer
100
AcDbEntity
100
AcDbSpline
 70
8
 71
3
 72
8
 73
4
 74
0
 40
0.0
 40
0.0
 40
0.0
 40
0.0
 40
1.0
 40
1.0
 40
1.0
 40
1.0
 10
8.0074597418881535
 20
7.0828738173252193
 30
0.0
 10
8.0281712572852371
 20
7.1111418043592556
 30
0.0
 10
8.0563301133577188
 20
7.1557008824207378
 30
0.0
 10
8.0700348561905706
 20
7.181892991993764
 30
0.0
  0
SPLINE
  5
B1
  8
Layer_1
 62
256
370
-1
  6
ByLayer
100
AcDbEntity
100
AcDbSpline
 70
8
 71
3
 72
8
 73
4
 74
0
 40
0.0
 40
0.0
 40
0.0
 40
0.0
 40
1.0
 40
1.0
 40
1.0
 40
1.0
 10
8.0700348561905706
 20
7.181892991993764
 30
0.0
 10
8.0837395990234224
 20
7.2080851015667928
 30
0.0
 10
8.103735102490754
 20
7.2420787742293307
 30
0.0
 10
8.1144699795532169
 20
7.2574349243475638
 30
0.0
  0
SPLINE
  5
B2
  8
Layer_1
 62
256
370
-1
  6
ByLayer
100
AcDbEntity
100
AcDbSpline
 70
8
 71
3
 72
8
 73
4
 74
0
 40
0.0
 40
0.0
 40
0.0
 40
0.0
 40
1.0
 40
1.0
 40
1.0
 40
1.0
 10
8.1144699795532169
 20
7.2574349243475638
 30
0.0
 10
8.1776438947164909
 20
7.3477984660219819
 30
0.0
 10
8.318289580929525
 20
7.5555985913507797
 30
0.0
 10
8.3554684768032637
 20
7.6135013908565838
 30
0.0
  0
SPLINE
  5
B3
  8
Layer_1
 62
256
370
-1
  6
ByLayer
100
AcDbEntity
100
AcDbSpline
 70
8
 71
3
 72
8
 73
4
 74
0
 40
0.0
 40
0.0
 40
0.0
 40
0.0
 40
1.0
 40
1.0
 40
1.0
 40
1.0
 10
8.3554684768032637
 20
7.6135013908565838
 30
0.0
 10
8.3794030192747666
 20
7.6507766303283802
 30
0.0
 10
8.4276073629791028
 20
7.7188513089690813
 30
0.0
 10
8.4625897021931706
 20
7.7647801164989039
 30
0.0
  0
SPLINE
  5
B4
  8
Layer_1
 62
256
370
-1
  6
ByLayer
100
AcDbEntity
100
AcDbSpline
 70
8
 71
3
 72
8
 73
4
 74
0
 40
0.0
 40
0.0
 40
0.0
 40
0.0
 40
1.0
 40
1.0
 40
1.0
 40
1.0
 10
8.4625897021931706
 20
7.7647801164989039
 30
0.0
 10
8.4975720310982403
 20
7.8107079240818678
 30
0.0
 10
8.5409984718081802
 20
7.8705714218101672
 30
0.0
 10
8.5590942290151872
 20
7.8978093199688955
 30
0.0
  0
SPLINE
  5
B5
  8
Layer_1
 62
256
370
-1
  6
ByLayer
100
AcDbEntity
100
AcDbSpline
 70
8
 71
3
 72
8
 73
4
 74
0
 40
0.0
 40
0.0
 40
0.0
 40
0.0
 40
1.0
 40
1.0
 40
1.0
 40
1.0
 10
8.5590942290151872
 20
7.8978093199688955
 30
0.0
 10
8.6282104300939082
 20
8.0018473292416843
 30
0.0
 10
8.6408459796594954
 20
8.0183259449655733
 30
0.0
 10
8.7037761800474165
 20
8.0865048202213057
 30
0.0
  0
SPLINE
  5
B6
  8
Layer_1
 62
256
370
-1
  6
ByLayer
100
AcDbEntity
100
AcDbSpline
 70
8
 71
3
 72
8
 73
4
 74
0
 40
0.0
 40
0.0
 40
0.0
 40
0.0
 40
1.0
 40
1.0
 40
1.0
 40
1.0
 10
8.7037761800474165
 20
8.0865048202213057
 30
0.0
 10
8.7393797110408489
 20
8.1250768329481442
 30
0.0
 10
8.7950352657343718
 20
8.1883804434909617
 30
0.0
 10
8.8274549556671467
 20
8.2271782904500697
 30
0.0
  0
SPLINE
  5
B7
  8
Layer_1
 62
256
370
-1
  6
ByLayer
100
AcDbEntity
100
AcDbSpline
 70
8
 71
3
 72
8
 73
4
 74
0
 40
0.0
 40
0.0
 40
0.0
 40
0.0
 40
1.0
 40
1.0
 40
1.0
 40
1.0
 10
8.8274549556671467
 20
8.2271782904500697
 30
0.0
 10
8.9328832435221859
 20
8.3533481343271045
 30
0.0
 10
8.9738565106795036
 20
8.3575279628469126
 30
0.0
 10
9.1637334872451177
 20
8.2614844165759571
 30
0.0
  0
SPLINE
  5
B8
  8
Layer_1
 62
256
370
-1
  6
ByLayer
100
AcDbEntity
100
AcDbSpline
 70
8
 71
3
 72
8
 73
4
 74
0
 40
0.0
 40
0.0
 40
0.0
 40
0.0
 40
1.0
 40
1.0
 40
1.0
 40
1.0
 10
9.1637334872451177
 20
8.2614844165759571
 30
0.0
 10
9.3286015384978747
 20
8.1780903596107368
 30
0.0
 10
9.6042990026687711
 20
8.1068724087644952
 30
0.0
 10
9.7309331622457833
 20
8.1149653667048192
 30
0.0
  0
SPLINE
  5
B9
  8
Layer_1
 62
256
370
-1
  6
ByLayer
100
AcDbEntity
100
AcDbSpline
 70
8
 71
3
 72
8
 73
4
 74
0
 40
0.0
 40
0.0
 40
0.0
 40
0.0
 40
1.0
 40
1.0
 40
1.0
 40
1.0
 10
9.7309331622457833
 20
8.1149653667048192
 30
0.0
 10
9.9115657729214455
 20
8.1265098377838108
 30
0.0
 10
10.2443325150369162
 20
8.2481568081852767
 30
0.0
 10
10.4428388673498027
 20
8.3752111568846939
 30
0.0
  0
SPLINE
  5
BA
  8
Layer_1
 62
256
370
-1
  6
ByLayer
100
AcDbEntity
100
AcDbSpline
 70
8
 71
3
 72
8
 73
4
 74
0
 40
0.0
 40
0.0
 40
0.0
 40
0.0
 40
1.0
 40
1.0
 40
1.0
 40
1.0
 10
10.4428388673498027
 20
8.3752111568846939
 30
0.0
 10
10.4797503865994752
 20
8.3988368913215528
 30
0.0
 10
10.5384861210363336
 20
8.4362423720718773
 30
0.0
 10
10.5733607274874348
 20
8.4583350235850148
 30
0.0
  0
SPLINE
  5
BB
  8
Layer_1
 62
256
370
-1
  6
ByLayer
100
AcDbEntity
100
AcDbSpline
 70
8
 71
3
 72
8
 73
4
 74
0
 40
0.0
 40
0.0
 40
0.0
 40
0.0
 40
1.0
 40
1.0
 40
1.0
 40
1.0
 10
10.5733607274874348
 20
8.4583350235850148
 30
0.0
 10
10.6082363338853938
 20
8.4804276647891488
 30
0.0
 10
10.6636688738859213
 20
8.5220994248922413
 30
0.0
 10
10.6965439492638765
 20
8.5509410482150336
 30
0.0
  0
SPLINE
  5
BC
  8
Layer_1
 62
256
370
-1
  6
ByLayer
100
AcDbEntity
100
AcDbSpline
 70
8
 71
3
 72
8
 73
4
 74
0
 40
0.0
 40
0.0
 40
0.0
 40
0.0
 40
1.0
 40
1.0
 40
1.0
 40
1.0
 10
10.6965439492638765
 20
8.5509410482150336
 30
0.0
 10
10.7294200142796861
 20
8.5797816612819631
 30
0.0
 10
10.77646647308352
 20
8.6176086692262732
 30
0.0
 10
10.8010910765322574
 20
8.6350007382806595
 30
0.0
  0
SPLINE
  5
BD
  8
Layer_1
 62
256
370
-1
  6
ByLayer
100
AcDbEntity
100
AcDbSpline
 70
8
 71
3
 72
8
 73
4
 74
0
 40
0.0
 40
0.0
 40
0.0
 40
0.0
 40
1.0
 40
1.0
 40
1.0
 40
1.0
 10
10.8010910765322574
 20
8.6350007382806595
 30
0.0
 10
11.0011140531775808
 20
8.7762702074732104
 30
0.0
 10
11.1808921049085868
 20
9.1407572432890305
 30
0.0
 10
11.1459706218467041
 20
9.3342165292841965
 30
0.0
  0
SPLINE
  5
BE
  8
Layer_1
 62
256
370
-1
  6
ByLayer
100
AcDbEntity
100
AcDbSpline
 70
8
 71
3
 72
8
 73
4
 74
0
 40
0.0
 40
0.0
 40
0.0
 40
0.0
 40
1.0
 40
1.0
 40
1.0
 40
1.0
 10
11.1459706218467041
 20
9.3342165292841965
 30
0.0
 10
11.1345218764631735
 20
9.397642924878955
 30
0.0
 10
11.1778683975992941
 20
9.4345250252854687
 30
0.0
 10
11.2929486705487836
 20
9.4592759774867616
 30
0.0
  0
SPLINE
  5
BF
  8
Layer_1
 62
256
370
-1
  6
ByLayer
100
AcDbEntity
100
AcDbSpline
 70
8
 71
3
 72
8
 73
4
 74
0
 40
0.0
 40
0.0
 40
0.0
 40
0.0
 40
1.0
 40
1.0
 40
1.0
 40
1.0
 10
11.2929486705487836
 20
9.4592759774867616
 30
0.0
 10
11.3388859641428503
 20
9.4691559347362766
 30
0.0
 10
11.4191329434451383
 20
9.4926999193790458
 30
0.0
 10
11.4712745077568492
 20
9.5115953958516677
 30
0.0
  0
SPLINE
  5
C0
  8
Layer_1
 62
256
370
-1
  6
ByLayer
100
AcDbEntity
100
AcDbSpline
 70
8
 71
3
 72
8
 73
4
 74
0
 40
0.0
 40
0.0
 40
0.0
 40
0.0
 40
1.0
 40
1.0
 40
1.0
 40
1.0
 10
11.4712745077568492
 20
9.5115953958516677
 30
0.0
 10
11.5234170823244284
 20
9.5304918619621439
 30
0.0
 10
11.5839511596685298
 20
9.5502668667181041
 30
0.0
 10
11.6057957013429487
 20
9.5555419515548294
 30
0.0
  0
SPLINE
  5
C1
  8
Layer_1
 62
256
370
-1
  6
ByLayer
100
AcDbEntity
100
AcDbSpline
 70
8
 71
3
 72
8
 73
4
 74
0
 40
0.0
 40
0.0
 40
0.0
 40
0.0
 40
1.0
 40
1.0
 40
1.0
 40
1.0
 10
11.6057957013429487
 20
9.5555419515548294
 30
0.0
 10
11.6276412326552236
 20
9.5608160261356954
 30
0.0
 10
11.6602647703441935
 20
9.5726313377970982
 30
0.0
 10
11.6782932168994513
 20
9.581796969515878
 30
0.0
  0
SPLINE
  5
C2
  8
Layer_1
 62
256
370
-1
  6
ByLayer
100
AcDbEntity
100
AcDbSpline
 70
8
 71
3
 72
8
 73
4
 74
0
 40
0.0
 40
0.0
 40
0.0
 40
0.0
 40
1.0
 40
1.0
 40
1.0
 40
1.0
 10
11.6782932168994513
 20
9.581796969515878
 30
0.0
 10
11.6963216737637055
 20
9.590963601181528
 30
0.0
 10
11.7202386007504451
 20
9.5983994366094336
 30
0.0
 10
11.7314423971210413
 20
9.5983219325044296
 30
0.0
  0
SPLINE
  5
C3
  8
Layer_1
 62
256
370
-1
  6
ByLayer
100
AcDbEntity
100
AcDbSpline
 70
8
 71
3
 72
8
 73
4
 74
0
 40
0.0
 40
0.0
 40
0.0
 40
0.0
 40
1.0
 40
1.0
 40
1.0
 40
1.0
 10
11.7314423971210413
 20
9.5983219325044296
 30
0.0
 10
11.742647141893471
 20
9.598239418356119
 30
0.0
 10
11.787792004448935
 20
9.6120587541161413
 30
0.0
 10
11.8317642085300285
 20
9.6290213458476792
 30
0.0
  0
SPLINE
  5
C4
  8
Layer_1
 62
256
370
-1
  6
ByLayer
100
AcDbEntity
100
AcDbSpline
 70
8
 71
3
 72
8
 73
4
 74
0
 40
0.0
 40
0.0
 40
0.0
 40
0.0
 40
1.0
 40
1.0
 40
1.0
 40
1.0
 10
11.8317642085300285
 20
9.6290213458476792
 30
0.0
 10
11.8757374228669796
 20
9.6459849272170803
 30
0.0
 10
11.9342502357638622
 20
9.663125629212459
 30
0.0
 10
11.9617928041938626
 20
9.6671129046329227
 30
0.0
  0
SPLINE
  5
C5
  8
Layer_1
 62
256
370
-1
  6
ByLayer
100
AcDbEntity
100
AcDbSpline
 70
8
 71
3
 72
8
 73
4
 74
0
 40
0.0
 40
0.0
 40
0.0
 40
0.0
 40
1.0
 40
1.0
 40
1.0
 40
1.0
 10
11.9617928041938626
 20
9.6671129046329227
 30
0.0
 10
12.0133314592673344
 20
9.6745739888851148
 30
0.0
 10
12.0944986578219407
 20
9.6985225084801989
 30
0.0
 10
12.1286321478450621
 20
9.716339572964614
 30
0.0
  0
SPLINE
  5
C6
  8
Layer_1
 62
256
370
-1
  6
ByLayer
100
AcDbEntity
100
AcDbSpline
 70
8
 71
3
 72
8
 73
4
 74
0
 40
0.0
 40
0.0
 40
0.0
 40
0.0
 40
1.0
 40
1.0
 40
1.0
 40
1.0
 10
12.1286321478450621
 20
9.716339572964614
 30
0.0
 10
12.148734402089552
 20
9.726833896396343
 30
0.0
 10
12.3101831543014733
 20
9.7702108255086539
 30
0.0
 10
12.3284361842985533
 20
9.7700226449416583
 30
0.0
  0
SPLINE
  5
C7
  8
Layer_1
 62
256
370
-1
  6
ByLayer
100
AcDbEntity
100
AcDbSpline
 70
8
 71
3
 72
8
 73
4
 74
0
 40
0.0
 40
0.0
 40
0.0
 40
0.0
 40
1.0
 40
1.0
 40
1.0
 40
1.0
 10
12.3284361842985533
 20
9.7700226449416583
 30
0.0
 10
12.3450443017096134
 20
9.7698514226869619
 30
0.0
 10
12.3764157075868049
 20
9.6220911628628532
 30
0.0
 10
12.391091268869582
 20
9.4749170517222225
 30
0.0
  0
SPLINE
  5
C8
  8
Layer_1
 62
256
370
-1
  6
ByLayer
100
AcDbEntity
100
AcDbSpline
 70
8
 71
3
 72
8
 73
4
 74
0
 40
0.0
 40
0.0
 40
0.0
 40
0.0
 40
1.0
 40
1.0
 40
1.0
 40
1.0
 10
12.391091268869582
 20
9.4749170517222225
 30
0.0
 10
12.3959719857970789
 20
9.4259751356555821
 30
0.0
 10
12.407711919373078
 20
9.3533502494000373
 30
0.0
 10
12.4171808898276836
 20
9.3135275175935703
 30
0.0
  0
SPLINE
  5
C9
  8
Layer_1
 62
256
370
-1
  6
ByLayer
100
AcDbEntity
100
AcDbSpline
 70
8
 71
3
 72
8
 73
4
 74
0
 40
0.0
 40
0.0
 40
0.0
 40
0.0
 40
1.0
 40
1.0
 40
1.0
 40
1.0
 10
12.4171808898276836
 20
9.3135275175935703
 30
0.0
 10
12.4266498705912909
 20
9.2737057857339664
 30
0.0
 10
12.4446813742977493
 20
9.1910155047870266
 30
0.0
 10
12.4572506792901798
 20
9.1297716733179897
 30
0.0
  0
SPLINE
  5
CA
  8
Layer_1
 62
256
370
-1
  6
ByLayer
100
AcDbEntity
100
AcDbSpline
 70
8
 71
3
 72
8
 73
4
 74
0
 40
0.0
 40
0.0
 40
0.0
 40
0.0
 40
1.0
 40
1.0
 40
1.0
 40
1.0
 10
12.4572506792901798
 20
9.1297716733179897
 30
0.0
 10
12.4698199842826067
 20
9.0685278418489563
 30
0.0
 10
12.4886766702565151
 20
8.9833289207872369
 30
0.0
 10
12.4991540914377985
 20
8.9404406299564076
 30
0.0
  0
SPLINE
  5
CB
  8
Layer_1
 62
256
370
-1
  6
ByLayer
100
AcDbEntity
100
AcDbSpline
 70
8
 71
3
 72
8
 73
4
 74
0
 40
0.0
 40
0.0
 40
0.0
 40
0.0
 40
1.0
 40
1.0
 40
1.0
 40
1.0
 10
12.4991540914377985
 20
8.9404406299564076
 30
0.0
 10
12.5096315126190873
 20
8.8975523391255713
 30
0.0
 10
12.5213282223727873
 20
8.8274280313433362
 30
0.0
 10
12.5251450078232693
 20
8.784609408737925
 30
0.0
  0
SPLINE
  5
CC
  8
Layer_1
 62
256
370
-1
  6
ByLayer
100
AcDbEntity
100
AcDbSpline
 70
8
 71
3
 72
8
 73
4
 74
0
 40
0.0
 40
0.0
 40
0.0
 40
0.0
 40
1.0
 40
1.0
 40
1.0
 40
1.0
 10
12.5251450078232693
 20
8.784609408737925
 30
0.0
 10
12.5289627829116164
 20
8.7417897758766436
 30
0.0
 10
12.5391041230821951
 20
8.6766817689685443
 30
0.0
 10
12.5476816469018413
 20
8.6399243899797842
 30
0.0
  0
SPLINE
  5
CD
  8
Layer_1
 62
256
370
-1
  6
ByLayer
100
AcDbEntity
100
AcDbSpline
 70
8
 71
3
 72
8
 73
4
 74
0
 40
0.0
 40
0.0
 40
0.0
 40
0.0
 40
1.0
 40
1.0
 40
1.0
 40
1.0
 10
12.5476816469018413
 20
8.6399243899797842
 30
0.0
 10
12.6132389419572384
 20
8.3589866307269229
 30
0.0
 10
12.6301669405224786
 20
7.9869913523838036
 30
0.0
 10
12.6013064333088298
 20
7.4615309529364531
 30
0.0
  0
SPLINE
  5
CE
  8
Layer_1
 62
256
370
-1
  6
ByLayer
100
AcDbEntity
100
AcDbSpline
 70
8
 71
3
 72
8
 73
4
 74
0
 40
0.0
 40
0.0
 40
0.0
 40
0.0
 40
1.0
 40
1.0
 40
1.0
 40
1.0
 10
12.6013064333088298
 20
7.4615309529364531
 30
0.0
 10
12.5852683395978566
 20
7.1695297730071248
 30
0.0
 10
12.4774918284519085
 20
6.6382676106934468
 30
0.0
 10
12.3943517801483765
 20
6.441388239808413
 30
0.0
  0
SPLINE
  5
CF
  8
Layer_1
 62
256
370
-1
  6
ByLayer
100
AcDbEntity
100
AcDbSpline
 70
8
 71
3
 72
8
 73
4
 74
0
 40
0.0
 40
0.0
 40
0.0
 40
0.0
 40
1.0
 40
1.0
 40
1.0
 40
1.0
 10
12.3943517801483765
 20
6.441388239808413
 30
0.0
 10
12.3892130498829474
 20
6.4292185683149361
 30
0.0
 10
12.3774626138758261
 20
6.396837982933528
 30
0.0
 10
12.3682415912119588
 20
6.3694315861431363
 30
0.0
  0
SPLINE
  5
D0
  8
Layer_1
 62
256
370
-1
  6
ByLayer
100
AcDbEntity
100
AcDbSpline
 70
8
 71
3
 72
8
 73
4
 74
0
 40
0.0
 40
0.0
 40
0.0
 40
0.0
 40
1.0
 40
1.0
 40
1.0
 40
1.0
 10
12.3682415912119588
 20
6.3694315861431363
 30
0.0
 10
12.3590195686012301
 20
6.3420251996617463
 30
0.0
 10
12.3336681040849285
 20
6.2768280834994581
 30
0.0
 10
12.3119049988161766
 20
6.2245486613616725
 30
0.0
  0
SPLINE
  5
D1
  8
Layer_1
 62
256
370
-1
  6
ByLayer
100
AcDbEntity
100
AcDbSpline
 70
8
 71
3
 72
8
 73
4
 74
0
 40
0.0
 40
0.0
 40
0.0
 40
0.0
 40
1.0
 40
1.0
 40
1.0
 40
1.0
 10
12.3119049988161766
 20
6.2245486613616725
 30
0.0
 10
12.2901409039095704
 20
6.1722702494797463
 30
0.0
 10
12.2685155406765816
 20
6.1082277822799149
 30
0.0
 10
12.2638473073955012
 20
6.0822325257504382
 30
0.0
  0
SPLINE
  5
D2
  8
Layer_1
 62
256
370
-1
  6
ByLayer
100
AcDbEntity
100
AcDbSpline
 70
8
 71
3
 72
8
 73
4
 74
0
 40
0.0
 40
0.0
 40
0.0
 40
0.0
 40
1.0
 40
1.0
 40
1.0
 40
1.0
 10
12.2638473073955012
 20
6.0822325257504382
 30
0.0
 10
12.2591800740612804
 20
6.0562372589119544
 30
0.0
 10
12.2354811003386157
 20
5.9957353567146487
 30
0.0
 10
12.21118347114394
 20
5.9477832929476069
 30
0.0
  0
SPLINE
  5
D3
  8
Layer_1
 62
256
370
-1
  6
ByLayer
100
AcDbEntity
100
AcDbSpline
 70
8
 71
3
 72
8
 73
4
 74
0
 40
0.0
 40
0.0
 40
0.0
 40
0.0
 40
1.0
 40
1.0
 40
1.0
 40
1.0
 10
12.21118347114394
 20
5.9477832929476069
 30
0.0
 10
12.1868868418961238
 20
5.8998312188715714
 30
0.0
 10
12.1669815686277971
 20
5.8580992048162495
 30
0.0
 10
12.1669500849282457
 20
5.8550453671033624
 30
0.0
  0
SPLINE
  5
D4
  8
Layer_1
 62
256
370
-1
  6
ByLayer
100
AcDbEntity
100
AcDbSpline
 70
8
 71
3
 72
8
 73
4
 74
0
 40
0.0
 40
0.0
 40
0.0
 40
0.0
 40
1.0
 40
1.0
 40
1.0
 40
1.0
 10
12.1669500849282457
 20
5.8550453671033624
 30
0.0
 10
12.1669186012286961
 20
5.8519915293904718
 30
0.0
 10
12.1376249578989945
 20
5.7994077234282528
 30
0.0
 10
12.1018530069730428
 20
5.7381942437938536
 30
0.0
  0
SPLINE
  5
D5
  8
Layer_1
 62
256
370
-1
  6
ByLayer
100
AcDbEntity
100
AcDbSpline
 70
8
 71
3
 72
8
 73
4
 74
0
 40
0.0
 40
0.0
 40
0.0
 40
0.0
 40
1.0
 40
1.0
 40
1.0
 40
1.0
 10
12.1018530069730428
 20
5.7381942437938536
 30
0.0
 10
12.0660810457380894
 20
5.6769797642125903
 30
0.0
 10
12.01388769116679
 20
5.5857409773804836
 30
0.0
 10
11.9858676715052859
 20
5.5354421630488391
 30
0.0
  0
SPLINE
  5
D6
  8
Layer_1
 62
256
370
-1
  6
ByLayer
100
AcDbEntity
100
AcDbSpline
 70
8
 71
3
 72
8
 73
4
 74
0
 40
0.0
 40
0.0
 40
0.0
 40
0.0
 40
1.0
 40
1.0
 40
1.0
 40
1.0
 10
11.9858676715052859
 20
5.5354421630488391
 30
0.0
 10
11.9578476415347765
 20
5.4851423487703403
 30
0.0
 10
11.9235288934411461
 20
5.4301492186058749
 30
0.0
 10
11.9096037834164363
 20
5.4132348738121863
 30
0.0
  0
SPLINE
  5
D7
  8
Layer_1
 62
256
370
-1
  6
ByLayer
100
AcDbEntity
100
AcDbSpline
 70
8
 71
3
 72
8
 73
4
 74
0
 40
0.0
 40
0.0
 40
0.0
 40
0.0
 40
1.0
 40
1.0
 40
1.0
 40
1.0
 10
11.9096037834164363
 20
5.4132348738121863
 30
0.0
 10
11.8956786837007318
 20
5.3963215289653581
 30
0.0
 10
11.8842328331281557
 20
5.3773825178858337
 30
0.0
 10
11.8841685667944965
 20
5.3711488491555981
 30
0.0
  0
SPLINE
  5
D8
  8
Layer_1
 62
256
370
-1
  6
ByLayer
100
AcDbEntity
100
AcDbSpline
 70
8
 71
3
 72
8
 73
4
 74
0
 40
0.0
 40
0.0
 40
0.0
 40
0.0
 40
1.0
 40
1.0
 40
1.0
 40
1.0
 10
11.8841685667944965
 20
5.3711488491555981
 30
0.0
 10
11.884104310769839
 20
5.3649161803722194
 30
0.0
 10
11.8502921439393276
 20
5.3096858152527915
 30
0.0
 10
11.8090303197769337
 20
5.2484159277484714
 30
0.0
  0
SPLINE
  5
D9
  8
Layer_1
 62
256
370
-1
  6
ByLayer
100
AcDbEntity
100
AcDbSpline
 70
8
 71
3
 72
8
 73
4
 74
0
 40
0.0
 40
0.0
 40
0.0
 40
0.0
 40
1.0
 40
1.0
 40
1.0
 40
1.0
 10
11.8090303197769337
 20
5.2484159277484714
 30
0.0
 10
11.5983591506348649
 20
4.9355851141873481
 30
0.0
 10
11.551733899791282
 20
4.8730404505319029
 30
0.0
 10
11.337463947430571
 20
4.615831692554381
 30
0.0
  0
SPLINE
  5
DA
  8
Layer_1
 62
256
370
-1
  6
ByLayer
100
AcDbEntity
100
AcDbSpline
 70
8
 71
3
 72
8
 73
4
 74
0
 40
0.0
 40
0.0
 40
0.0
 40
0.0
 40
1.0
 40
1.0
 40
1.0
 40
1.0
 10
11.337463947430571
 20
4.615831692554381
 30
0.0
 10
11.2406608740719083
 20
4.4996294609737557
 30
0.0
 10
11.1639315741542742
 20
4.4020232769527139
 30
0.0
 10
11.0365528224471774
 20
4.233046445775944
 30
0.0
  0
SPLINE
  5
DB
  8
Layer_1
 62
256
370
-1
  6
ByLayer
100
AcDbEntity
100
AcDbSpline
 70
8
 71
3
 72
8
 73
4
 74
0
 40
0.0
 40
0.0
 40
0.0
 40
0.0
 40
1.0
 40
1.0
 40
1.0
 40
1.0
 10
11.0365528224471774
 20
4.233046445775944
 30
0.0
 10
11.0045525009815996
 20
4.1905960814536041
 30
0.0
 10
10.9654631424514282
 20
4.1430375266006658
 30
0.0
 10
10.949685687898727
 20
4.1273603433767097
 30
0.0
  0
SPLINE
  5
DC
  8
Layer_1
 62
256
370
-1
  6
ByLayer
100
AcDbEntity
100
AcDbSpline
 70
8
 71
3
 72
8
 73
4
 74
0
 40
0.0
 40
0.0
 40
0.0
 40
0.0
 40
1.0
 40
1.0
 40
1.0
 40
1.0
 10
10.949685687898727
 20
4.1273603433767097
 30
0.0
 10
10.9339092229838837
 20
4.1116821498968905
 30
0.0
 10
10.8956788713352406
 20
4.0677089300600278
 30
0.0
 10
10.8647287839212581
 20
4.0296409717477291
 30
0.0
  0
SPLINE
  5
DD
  8
Layer_1
 62
256
370
-1
  6
ByLayer
100
AcDbEntity
100
AcDbSpline
 70
8
 71
3
 72
8
 73
4
 74
0
 40
0.0
 40
0.0
 40
0.0
 40
0.0
 40
1.0
 40
1.0
 40
1.0
 40
1.0
 10
10.8647287839212581
 20
4.0296409717477291
 30
0.0
 10
10.8337796964541386
 20
3.9915730031264252
 30
0.0
 10
10.7903784834722334
 20
3.9399766846366413
 30
0.0
 10
10.7682826507809981
 20
3.9149831425371109
 30
0.0
  0
SPLINE
  5
DE
  8
Layer_1
 62
256
370
-1
  6
ByLayer
100
AcDbEntity
100
AcDbSpline
 70
8
 71
3
 72
8
 73
4
 74
0
 40
0.0
 40
0.0
 40
0.0
 40
0.0
 40
1.0
 40
1.0
 40
1.0
 40
1.0
 10
10.7682826507809981
 20
3.9149831425371109
 30
0.0
 10
10.7319581471011087
 20
3.8738954286385541
 30
0.0
 10
10.6747456509138452
 20
3.7974131683096215
 30
0.0
 10
10.4721336712130206
 20
3.5190921063493175
 30
0.0
  0
SPLINE
  5
DF
  8
Layer_1
 62
256
370
-1
  6
ByLayer
100
AcDbEntity
100
AcDbSpline
 70
8
 71
3
 72
8
 73
4
 74
0
 40
0.0
 40
0.0
 40
0.0
 40
0.0
 40
1.0
 40
1.0
 40
1.0
 40
1.0
 10
10.4721336712130206
 20
3.5190921063493175
 30
0.0
 10
10.2446917541898781
 20
3.2066632038597462
 30
0.0
 10
10.1607059514425817
 20
3.0270784708842169
 30
0.0
 10
10.0262153738194986
 20
2.5655954120059854
 30
0.0
  0
SPLINE
  5
E0
  8
Layer_1
 62
256
370
-1
  6
ByLayer
100
AcDbEntity
100
AcDbSpline
 70
8
 71
3
 72
8
 73
4
 74
0
 40
0.0
 40
0.0
 40
0.0
 40
0.0
 40
1.0
 40
1.0
 40
1.0
 40
1.0
 10
10.0262153738194986
 20
2.5655954120059854
 30
0.0
 10
10.0102341977161942
 20
2.5107572479652802
 30
0.0
 10
9.9918285071723147
 20
2.4409432824526203
 30
0.0
 10
9.985313845004768
 20
2.4104538219483289
 30
0.0
  0
SPLINE
  5
E1
  8
Layer_1
 62
256
370
-1
  6
ByLayer
100
AcDbEntity
100
AcDbSpline
 70
8
 71
3
 72
8
 73
4
 74
0
 40
0.0
 40
0.0
 40
0.0
 40
0.0
 40
1.0
 40
1.0
 40
1.0
 40
1.0
 10
9.985313845004768
 20
2.4104538219483289
 30
0.0
 10
9.9566744641827043
 20
2.2764099424680304
 30
0.0
 10
9.8865476949662394
 20
2.1227537144743009
 30
0.0
 10
9.7976539209672477
 20
1.9992645586701725
 30
0.0
  0
SPLINE
  5
E2
  8
Layer_1
 62
256
370
-1
  6
ByLayer
100
AcDbEntity
100
AcDbSpline
 70
8
 71
3
 72
8
 73
4
 74
0
 40
0.0
 40
0.0
 40
0.0
 40
0.0
 40
1.0
 40
1.0
 40
1.0
 40
1.0
 10
9.7976539209672477
 20
1.9992645586701725
 30
0.0
 10
9.7706690456849472
 20
1.961778753903586
 30
0.0
 10
9.7485617576439232
 20
1.9282048739450346
 30
0.0
 10
9.7485251812961806
 20
1.9246570624829094
 30
0.0
  0
SPLINE
  5
E3
  8
Layer_1
 62
256
370
-1
  6
ByLayer
100
AcDbEntity
100
AcDbSpline
 70
8
 71
3
 72
8
 73
4
 74
0
 40
0.0
 40
0.0
 40
0.0
 40
0.0
 40
1.0
 40
1.0
 40
1.0
 40
1.0
 10
9.7485251812961806
 20
1.9246570624829094
 30
0.0
 10
9.7483836799012771
 20
1.9109317918715427
 30
0.0
 10
9.6097379109770831
 20
1.7515176205773382
 30
0.0
 10
9.5761052789394601
 20
1.7264090052785623
 30
0.0
  0
SPLINE
  5
E4
  8
Layer_1
 62
256
370
-1
  6
ByLayer
100
AcDbEntity
100
AcDbSpline
 70
8
 71
3
 72
8
 73
4
 74
0
 40
0.0
 40
0.0
 40
0.0
 40
0.0
 40
1.0
 40
1.0
 40
1.0
 40
1.0
 10
9.5761052789394601
 20
1.7264090052785623
 30
0.0
 10
9.5424242680193512
 20
1.7012638867781513
 30
0.0
 10
9.4915094109903642
 20
1.6797146231545894
 30
0.0
 10
9.2633992720047935
 20
1.5940596599534844
 30
0.0
  0
SPLINE
  5
E5
  8
Layer_1
 62
256
370
-1
  6
ByLayer
100
AcDbEntity
100
AcDbSpline
 70
8
 71
3
 72
8
 73
4
 74
0
 40
0.0
 40
0.0
 40
0.0
 40
0.0
 40
1.0
 40
1.0
 40
1.0
 40
1.0
 10
9.2633992720047935
 20
1.5940596599534844
 30
0.0
 10
9.2090891421060217
 20
1.5736654595921373
 30
0.0
 10
9.1412956234940168
 20
1.5455428488633332
 30
0.0
 10
9.1127469923863309
 20
1.5315634139721359
 30
0.0
  0
SPLINE
  5
E6
  8
Layer_1
 62
256
370
-1
  6
ByLayer
100
AcDbEntity
100
AcDbSpline
 70
8
 71
3
 72
8
 73
4
 74
0
 40
0.0
 40
0.0
 40
0.0
 40
0.0
 40
1.0
 40
1.0
 40
1.0
 40
1.0
 10
9.1127469923863309
 20
1.5315634139721359
 30
0.0
 10
9.0841983715876502
 20
1.5175849790277991
 30
0.0
 10
9.048302336781477
 20
1.5024402266298926
 30
0.0
 10
9.0329768097203402
 20
1.4979089767693834
 30
0.0
  0
SPLINE
  5
E7
  8
Layer_1
 62
256
370
-1
  6
ByLayer
100
AcDbEntity
100
AcDbSpline
 70
8
 71
3
 72
8
 73
4
 74
0
 40
0.0
 40
0.0
 40
0.0
 40
0.0
 40
1.0
 40
1.0
 40
1.0
 40
1.0
 10
9.0329768097203402
 20
1.4979089767693834
 30
0.0
 10
9.006379324028071
 20
1.4900447524688278
 30
0.0
 10
8.9649684888658587
 20
1.4726197310005924
 30
0.0
 10
8.8153542355247332
 20
1.4063375828219375
 30
0.0
  0
SPLINE
  5
E8
  8
Layer_1
 62
256
370
-1
  6
ByLayer
100
AcDbEntity
100
AcDbSpline
 70
8
 71
3
 72
8
 73
4
 74
0
 40
0.0
 40
0.0
 40
0.0
 40
0.0
 40
1.0
 40
1.0
 40
1.0
 40
1.0
 10
8.8153542355247332
 20
1.4063375828219375
 30
0.0
 10
8.7785170339146159
 20
1.390017470459104
 30
0.0
 10
8.7157373523246893
 20
1.3632112420136897
 30
0.0
 10
8.6758437151591377
 20
1.3467676318959878
 30
0.0
  0
SPLINE
  5
E9
  8
Layer_1
 62
256
370
-1
  6
ByLayer
100
AcDbEntity
100
AcDbSpline
 70
8
 71
3
 72
8
 73
4
 74
0
 40
0.0
 40
0.0
 40
0.0
 40
0.0
 40
1.0
 40
1.0
 40
1.0
 40
1.0
 10
8.6758437151591377
 20
1.3467676318959878
 30
0.0
 10
8.6359500676845737
 20
1.3303230218314237
 30
0.0
 10
8.5651654284731631
 20
1.2978390148170487
 30
0.0
 10
8.5185451778155645
 20
1.2745803872431196
 30
0.0
  0
SPLINE
  5
EA
  8
Layer_1
 62
256
370
-1
  6
ByLayer
100
AcDbEntity
100
AcDbSpline
 70
8
 71
3
 72
8
 73
4
 74
0
 40
0.0
 40
0.0
 40
0.0
 40
0.0
 40
1.0
 40
1.0
 40
1.0
 40
1.0
 10
8.5185451778155645
 20
1.2745803872431196
 30
0.0
 10
8.4719249168489625
 20
1.2513207597223284
 30
0.0
 10
8.4000982920914105
 20
1.2200075567571611
 30
0.0
 10
8.3589303415905718
 20
1.2049951595947954
 30
0.0
  0
SPLINE
  5
EB
  8
Layer_1
 62
256
370
-1
  6
ByLayer
100
AcDbEntity
100
AcDbSpline
 70
8
 71
3
 72
8
 73
4
 74
0
 40
0.0
 40
0.0
 40
0.0
 40
0.0
 40
1.0
 40
1.0
 40
1.0
 40
1.0
 10
8.3589303415905718
 20
1.2049951595947954
 30
0.0
 10
8.3177623807807315
 20
1.1899817624855666
 30
0.0
 10
8.2453930532041451
 20
1.159767212627715
 30
0.0
 10
8.1981096113517129
 20
1.1378514932558197
 30
0.0
  0
SPLINE
  5
EC
  8
Layer_1
 62
256
370
-1
  6
ByLayer
100
AcDbEntity
100
AcDbSpline
 70
8
 71
3
 72
8
 73
4
 74
0
 40
0.0
 40
0.0
 40
0.0
 40
0.0
 40
1.0
 40
1.0
 40
1.0
 40
1.0
 10
8.1981096113517129
 20
1.1378514932558197
 30
0.0
 10
8.0013670926600007
 20
1.0466628670635085
 30
0.0
 10
7.9182614844021639
 20
1.0327728650442198
 30
0.0
 10
7.8719883695417927
 20
1.0833445821311276
 30
0.0
  0
LWPOLYLINE
  5
ED
  8
Layer_1
 62
256
370
-1
  6
ByLayer
100
AcDbEntity
100
AcDbPolyline
 90
2
 70
0
 10
7.9995906476457836
 20
0.9592295343058499
 10
7.9995906476457836
 20
0.9592295343058499
  0
LWPOLYLINE
  5
EE
  8
Layer_1
 62
256
370
-1
  6
ByLayer
100
AcDbEntity
100
AcDbPolyline
 90
2
 70
0
 10
7.8719883695417927
 20
1.0833445821311276
 10
7.8719883695417927
 20
1.0833445821311276
  0
ENDSEC
  0
SECTION
  2
OBJECTS
  0
DICTIONARY
  5
C
100
AcDbDictionary
280
0
281
1
  3
ACAD_GROUP
350
D
  3
ACAD_LAYOUT
350
1A
  3
ACAD_MLINESTYLE
350
17
  3
ACAD_PLOTSETTINGS
350
19
  3
ACAD_PLOTSTYLENAME
350
E
  3
AcDbVariableDictionary
350
EF
  0
DICTIONARY
  5
D
100
AcDbDictionary
280
0
281
1
  0
ACDBDICTIONARYWDFLT
  5
E
100
AcDbDictionary
281
1
  3
Normal
350
F
100
AcDbDictionaryWithDefault
340
F
  0
ACDBPLACEHOLDER
  5
F
  0
DICTIONARY
  5
17
100
AcDbDictionary
280
0
281
1
  3
Standard
350
18
  0
MLINESTYLE
  5
18
100
AcDbMlineStyle
  2
STANDARD
 70
0
  3

 62
256
 51
90.0
 52
90.0
 71
2
 49
0.5
 62
256
  6
BYLAYER
 49
-0.5
 62
256
  6
BYLAYER
  0
DICTIONARY
  5
19
100
AcDbDictionary
280
0
281
1
  0
DICTIONARY
  5
1A
100
AcDbDictionary
281
1
  3
Layout1
350
1E
  3
Layout2
350
26
  3
Model
350
22
  0
LAYOUT
  5
1E
100
AcDbPlotSettings
  1

  2
C:\Program Files\AutoCAD 2002\plotters\DWF ePlot (optimized for plotting).pc3
  4

  6

 40
0.0
 41
0.0
 42
0.0
 43
0.0
 44
0.0
 45
0.0
 46
0.0
 47
0.0
 48
0.0
 49
0.0
140
0.0
141
0.0
142
1.0
143
1.0
 70
688
 72
0
 73
0
 74
5
  7

 75
16
147
1.0
148
0.0
149
0.0
100
AcDbLayout
  1
Layout1
 70
1
 71
1
 10
0.0
 20
0.0
 11
420.0
 21
297.0
 12
0.0
 22
0.0
 32
0.0
 14
100000000000000000000.0
 24
100000000000000000000.0
 34
100000000000000000000.0
 15
-100000000000000000000.0
 25
-100000000000000000000.0
 35
-100000000000000000000.0
146
0.0
 13
0.0
 23
0.0
 33
0.0
 16
1.0
 26
0.0
 36
0.0
 17
0.0
 27
1.0
 37
0.0
 76
0
330
1B
  0
LAYOUT
  5
22
100
AcDbPlotSettings
  1

  2
C:\Program Files\AutoCAD 2002\plotters\DWF ePlot (optimized for plotting).pc3
  4

  6

 40
0.0
 41
0.0
 42
0.0
 43
0.0
 44
0.0
 45
0.0
 46
0.0
 47
0.0
 48
0.0
 49
0.0
140
0.0
141
0.0
142
1.0
143
1.0
 70
1712
 72
0
 73
0
 74
0
  7

 75
0
147
1.0
148
0.0
149
0.0
100
AcDbLayout
  1
Model
 70
1
 71
0
 10
0.0
 20
0.0
 11
12.0
 21
9.0
 12
0.0
 22
0.0
 32
0.0
 14
0.0
 24
0.0
 34
0.0
 15
0.0
 25
0.0
 35
0.0
146
0.0
 13
0.0
 23
0.0
 33
0.0
 16
1.0
 26
0.0
 36
0.0
 17
0.0
 27
1.0
 37
0.0
 76
0
330
1F
  0
LAYOUT
  5
26
100
AcDbPlotSettings
  1

  2
C:\Program Files\AutoCAD 2002\plotters\DWF ePlot (optimized for plotting).pc3
  4

  6

 40
0.0
 41
0.0
 42
0.0
 43
0.0
 44
0.0
 45
0.0
 46
0.0
 47
0.0
 48
0.0
 49
0.0
140
0.0
141
0.0
142
1.0
143
1.0
 70
688
 72
0
 73
0
 74
5
  7

 75
16
147
1.0
148
0.0
149
0.0
100
AcDbLayout
  1
Layout2
 70
1
 71
2
 10
0.0
 20
0.0
 11
12.0
 21
9.0
 12
0.0
 22
0.0
 32
0.0
 14
0.0
 24
0.0
 34
0.0
 15
0.0
 25
0.0
 35
0.0
146
0.0
 13
0.0
 23
0.0
 33
0.0
 16
1.0
 26
0.0
 36
0.0
 17
0.0
 27
1.0
 37
0.0
 76
0
330
23
  0
DICTIONARY
  5
EF
100
AcDbDictionary
281
1
  3
DIMASSOC
350
F1
  3
HIDETEXT
350
F0
  0
DICTIONARYVAR
  5
F0
100
DictionaryVariables
280
0
  1
2
  0
DICTIONARYVAR
  5
F1
100
DictionaryVariables
280
0
  1
1
  0
ENDSEC
  0
EOF
