999
dxfrw 0.5.7
0
SECTION
2
HEADER
9
$ACADVER
1
AC1021
9
$HANDSEED
5
20000
9
$DWGCODEPAGE
3
ANSI_1252
9
$INSBASE
10
0
20
0
30
0
9
$EXTMIN
10
-28.0672352615
20
0.149999999939
30
0
9
$EXTMAX
10
36.9930773631
20
38.6101261452
30
0
9
$LIMMIN
10
0
20
0
9
$LIMMAX
10
420
20
297
9
$ORTHOMODE
70
0
9
$LTSCALE
40
1
9
$TEXTSTYLE
7
STANDARD
9
$DIMASZ
40
0.1
9
$DIMSCALE
40
1
9
$DIMEXO
40
0.025
9
$DIMEXE
40
0.05
9
$DIMTXT
40
0.1
9
$DIMTSZ
40
0
9
$DIMAUNIT
70
0
9
$DIMADEC
70
2
9
$DIMLUNIT
70
2
9
$DIMSTYLE
2
Standard
9
$DIMGAP
40
0.025
9
$DIMTIH
70
0
9
$LUNITS
70
2
9
$LUPREC
70
4
9
$AUNITS
70
0
9
$AUPREC
70
2
9
$SPLINESEGS
70
8
9
$GRIDMODE
70
1
9
$SNAPSTYLE
70
0
9
$GRIDUNIT
10
0
20
0
9
$PINSBASE
10
8.87813679639
20
6.12584868182
30
0
9
$PLIMMIN
10
0
20
0
9
$PLIMMAX
10
17.0078740157
20
10.9842519685
9
$INSUNITS
70
1
9
$PSVPSCALE
40
0.0998791462331
0
ENDSEC
0
SECTION
2
CLASSES
0
ENDSEC
0
SECTION
2
TABLES
0
TABLE
2
VPORT
5
8
330
0
100
AcDbSymbolTable
70
1
0
VPORT
5
31
330
2
100
AcDbSymbolTableRecord
100
AcDbViewportTableRecord
2
*ACTIVE
70
0
10
0
20
0
11
1
21
1
12
26.7042578273
22
37.1610829976
13
0
23
0
14
10
24
10
15
10
25
10
16
0
26
0
36
1
17
0
27
0
37
0
40
100.970204332
41
1.18708240535
42
50
43
0
44
0
50
0
51
0
71
0
72
100
73
1
74
3
75
0
76
1
77
0
78
0
281
0
65
1
110
0
120
0
130
0
111
1
121
0
131
0
112
0
122
1
132
0
79
0
146
0
348
10020
60
7
61
5
292
1
282
1
141
0
142
0
63
250
421
3358443
0
ENDTAB
0
TABLE
2
LTYPE
5
5
330
0
100
AcDbSymbolTable
70
4
0
LTYPE
5
14
330
5
100
AcDbSymbolTableRecord
100
AcDbLinetypeTableRecord
2
ByBlock
70
0
3

72
65
73
0
40
0
0
LTYPE
5
15
330
5
100
AcDbSymbolTableRecord
100
AcDbLinetypeTableRecord
2
ByLayer
70
0
3

72
65
73
0
40
0
0
LTYPE
5
16
330
5
100
AcDbSymbolTableRecord
100
AcDbLinetypeTableRecord
2
Continuous
70
0
3
Solid line
72
65
73
0
40
0
0
LTYPE
5
32
330
5
100
AcDbSymbolTableRecord
100
AcDbLinetypeTableRecord
2
DOT
70
0
3
Dot . . . . . . . . . . . . . . . . . . . . . .
72
65
73
2
40
6.35
49
0
74
0
49
-6.35
74
0
0
LTYPE
5
33
330
5
100
AcDbSymbolTableRecord
100
AcDbLinetypeTableRecord
2
DOT2
70
0
3
Dot (.5x) .....................................
72
65
73
2
40
3.175
49
0
74
0
49
-3.175
74
0
0
LTYPE
5
34
330
5
100
AcDbSymbolTableRecord
100
AcDbLinetypeTableRecord
2
DOTX2
70
0
3
Dot (2x) .  .  .  .  .  .  .  .  .  .  .  .  .
72
65
73
2
40
12.7
49
0
74
0
49
-12.7
74
0
0
LTYPE
5
35
330
5
100
AcDbSymbolTableRecord
100
AcDbLinetypeTableRecord
2
DASHED
70
0
3
Dot . . . . . . . . . . . . . . . . . . . . . .
72
65
73
2
40
19.05
49
12.7
74
0
49
-6.35
74
0
0
LTYPE
5
36
330
5
100
AcDbSymbolTableRecord
100
AcDbLinetypeTableRecord
2
DASHED2
70
0
3
Dashed (.5x) _ _ _ _ _ _ _ _ _ _ _ _ _ _ _ _ _
72
65
73
2
40
9.525
49
6.35
74
0
49
-3.175
74
0
0
LTYPE
5
37
330
5
100
AcDbSymbolTableRecord
100
AcDbLinetypeTableRecord
2
DASHEDX2
70
0
3
Dashed (2x) ____  ____  ____  ____  ____  ___
72
65
73
2
40
38.1
49
25.4
74
0
49
-12.7
74
0
0
LTYPE
5
38
330
5
100
AcDbSymbolTableRecord
100
AcDbLinetypeTableRecord
2
DASHDOT
70
0
3
Dash dot __ . __ . __ . __ . __ . __ . __ . __
72
65
73
4
40
25.4
49
12.7
74
0
49
-6.35
74
0
49
0
74
0
49
-6.35
74
0
0
LTYPE
5
39
330
5
100
AcDbSymbolTableRecord
100
AcDbLinetypeTableRecord
2
DASHDOT2
70
0
3
Dash dot (.5x) _._._._._._._._._._._._._._._.
72
65
73
4
40
12.7
49
6.35
74
0
49
-3.175
74
0
49
0
74
0
49
-3.175
74
0
0
LTYPE
5
3A
330
5
100
AcDbSymbolTableRecord
100
AcDbLinetypeTableRecord
2
DASHDOTX2
70
0
3
Dash dot (2x) ____  .  ____  .  ____  .  ___
72
65
73
4
40
50.8
49
25.4
74
0
49
-12.7
74
0
49
0
74
0
49
-12.7
74
0
0
LTYPE
5
3B
330
5
100
AcDbSymbolTableRecord
100
AcDbLinetypeTableRecord
2
DIVIDE
70
0
3
Divide ____ . . ____ . . ____ . . ____ . . ____
72
65
73
6
40
31.75
49
12.7
74
0
49
-6.35
74
0
49
0
74
0
49
-6.35
74
0
49
0
74
0
49
-6.35
74
0
0
LTYPE
5
3C
330
5
100
AcDbSymbolTableRecord
100
AcDbLinetypeTableRecord
2
DIVIDE2
70
0
3
Divide (.5x) __..__..__..__..__..__..__..__.._
72
65
73
6
40
15.875
49
6.35
74
0
49
-3.175
74
0
49
0
74
0
49
-3.175
74
0
49
0
74
0
49
-3.175
74
0
0
LTYPE
5
3D
330
5
100
AcDbSymbolTableRecord
100
AcDbLinetypeTableRecord
2
DIVIDEX2
70
0
3
Divide (2x) ________  .  .  ________  .  .  _
72
65
73
6
40
63.5
49
25.4
74
0
49
-12.7
74
0
49
0
74
0
49
-12.7
74
0
49
0
74
0
49
-12.7
74
0
0
LTYPE
5
3E
330
5
100
AcDbSymbolTableRecord
100
AcDbLinetypeTableRecord
2
BORDER
70
0
3
Border __ __ . __ __ . __ __ . __ __ . __ __ .
72
65
73
6
40
44.45
49
12.7
74
0
49
-6.35
74
0
49
12.7
74
0
49
-6.35
74
0
49
0
74
0
49
-6.35
74
0
0
LTYPE
5
3F
330
5
100
AcDbSymbolTableRecord
100
AcDbLinetypeTableRecord
2
BORDER2
70
0
3
Border (.5x) __.__.__.__.__.__.__.__.__.__.__.
72
65
73
6
40
22.225
49
6.35
74
0
49
-3.175
74
0
49
6.35
74
0
49
-3.175
74
0
49
0
74
0
49
-3.175
74
0
0
LTYPE
5
40
330
5
100
AcDbSymbolTableRecord
100
AcDbLinetypeTableRecord
2
BORDERX2
70
0
3
Border (2x) ____  ____  .  ____  ____  .  ___
72
65
73
6
40
88.9
49
25.4
74
0
49
-12.7
74
0
49
25.4
74
0
49
-12.7
74
0
49
0
74
0
49
-12.7
74
0
0
LTYPE
5
41
330
5
100
AcDbSymbolTableRecord
100
AcDbLinetypeTableRecord
2
CENTER
70
0
3
Center ____ _ ____ _ ____ _ ____ _ ____ _ ____
72
65
73
4
40
50.8
49
31.75
74
0
49
-6.35
74
0
49
6.35
74
0
49
-6.35
74
0
0
LTYPE
5
42
330
5
100
AcDbSymbolTableRecord
100
AcDbLinetypeTableRecord
2
CENTER2
70
0
3
Center (.5x) ___ _ ___ _ ___ _ ___ _ ___ _ ___
72
65
73
4
40
28.575
49
19.05
74
0
49
-3.175
74
0
49
3.175
74
0
49
-3.175
74
0
0
LTYPE
5
43
330
5
100
AcDbSymbolTableRecord
100
AcDbLinetypeTableRecord
2
CENTERX2
70
0
3
Center (2x) ________  __  ________  __  _____
72
65
73
4
40
101.6
49
63.5
74
0
49
-12.7
74
0
49
12.7
74
0
49
-12.7
74
0
0
ENDTAB
0
TABLE
2
LAYER
5
2
330
0
100
AcDbSymbolTable
70
1
0
LAYER
5
10
330
2
100
AcDbSymbolTableRecord
100
AcDbLayerTableRecord
2
0
70
0
62
7
6
CONTINUOUS
370
-3
390
F
0
LAYER
5
44
330
2
100
AcDbSymbolTableRecord
100
AcDbLayerTableRecord
2
Layer_1
70
0
62
7
6
CONTINUOUS
370
-3
390
F
0
ENDTAB
0
TABLE
2
STYLE
5
3
330
0
100
AcDbSymbolTable
70
3
0
STYLE
5
45
330
2
100
AcDbSymbolTableRecord
100
AcDbTextStyleTableRecord
2
Standard
70
0
40
0
41
1
50
0
71
0
42
1
3
txt
4

0
ENDTAB
0
TABLE
2
VIEW
5
6
330
0
100
AcDbSymbolTable
70
0
0
ENDTAB
0
TABLE
2
UCS
5
7
330
0
100
AcDbSymbolTable
70
0
0
ENDTAB
0
TABLE
2
APPID
5
9
330
0
100
AcDbSymbolTable
70
1
0
APPID
5
12
330
9
100
AcDbSymbolTableRecord
100
AcDbRegAppTableRecord
2
ACAD
70
0
0
ENDTAB
0
TABLE
2
DIMSTYLE
5
A
330
0
100
AcDbSymbolTable
70
1
100
AcDbDimStyleTable
71
1
0
DIMSTYLE
105
46
330
A
100
AcDbSymbolTableRecord
100
AcDbDimStyleTableRecord
2
Standard
70
0
40
1
41
0.1
42
0.025
43
0.38
44
0.05
45
0
46
0
47
0
48
0
140
0.1
141
0.09
142
0
143
25.4
144
1
145
0
146
1
147
0.025
148
0
71
0
72
0
73
0
74
1
75
0
76
0
77
0
78
0
79
0
170
0
171
2
172
0
173
0
174
0
175
0
176
0
177
0
178
0
179
0
271
4
272
4
273
2
274
2
275
0
276
0
277
2
278
46
279
0
280
0
281
0
282
0
283
1
284
0
285
0
286
0
288
0
289
3
340
Standard
341

371
-2
372
-2
0
ENDTAB
0
TABLE
2
BLOCK_RECORD
5
1
330
0
100
AcDbSymbolTable
70
2
0
BLOCK_RECORD
5
1F
330
1
100
AcDbSymbolTableRecord
100
AcDbBlockTableRecord
2
*Model_Space
70
0
280
1
281
0
0
BLOCK_RECORD
5
1E
330
1
100
AcDbSymbolTableRecord
100
AcDbBlockTableRecord
2
*Paper_Space
70
0
280
1
281
0
0
ENDTAB
0
ENDSEC
0
SECTION
2
BLOCKS
0
BLOCK
5
20
330
1F
100
AcDbEntity
8
0
100
AcDbBlockBegin
2
*Model_Space
70
0
10
0
20
0
30
0
3
*Model_Space
1

0
ENDBLK
5
21
330
1F
100
AcDbEntity
8
0
100
AcDbBlockEnd
0
BLOCK
5
1C
330
1B
100
AcDbEntity
8
0
100
AcDbBlockBegin
2
*Paper_Space
70
0
10
0
20
0
30
0
3
*Paper_Space
1

0
ENDBLK
5
1D
330
1F
100
AcDbEntity
8
0
100
AcDbBlockEnd
0
ENDSEC
0
SECTION
2
ENTITIES
0
ARC
5
47
100
AcDbEntity
8
Layer_1
6
ByLayer
62
256
370
-1
100
AcDbCircle
10
20.354519833
20
47.9502713987
40
9.89662329549
100
AcDbArc
50
251.229489508
51
267.947094036
0
ARC
5
48
100
AcDbEntity
8
Layer_1
6
ByLayer
62
256
370
-1
100
AcDbCircle
10
16.902587007
20
37.408225058
40
1.20190108725
100
AcDbArc
50
77.1445763238
51
114.718477526
0
LINE
5
49
100
AcDbEntity
8
Layer_1
6
ByLayer
62
256
370
-1
100
AcDbLine
10
16.4
20
38.5
11
13.6
21
37.54
0
ARC
5
4A
100
AcDbEntity
8
Layer_1
6
ByLayer
62
256
370
-1
100
AcDbCircle
10
14.0827385159
20
36.6059187279
40
1.05144866617
100
AcDbArc
50
117.330178058
51
151.352735586
0
LINE
5
4B
100
AcDbEntity
8
Layer_1
6
ByLayer
62
256
370
-1
100
AcDbLine
10
13.16
20
37.11
11
11.85
21
27.81
0
ARC
5
4C
100
AcDbEntity
8
Layer_1
6
ByLayer
62
256
370
-1
100
AcDbCircle
10
10.9236206897
20
27.8679885057
40
0.928192487275
100
AcDbArc
50
324.576969701
51
356.418133286
0
ARC
5
4D
100
AcDbEntity
8
Layer_1
6
ByLayer
62
256
370
-1
100
AcDbCircle
10
12.3821473354
20
26.7782915361
40
0.892968705967
100
AcDbArc
50
141.84170019
51
182.457663205
0
LINE
5
4E
100
AcDbEntity
8
Layer_1
6
ByLayer
62
256
370
-1
100
AcDbLine
10
11.49
20
26.74
11
13.17
21
21.33
0
ARC
5
4F
100
AcDbEntity
8
Layer_1
6
ByLayer
62
256
370
-1
100
AcDbCircle
10
13.3726377953
20
21.403976378
40
0.215718753402
100
AcDbArc
50
200.055471072
51
277.287143193
0
ARC
5
50
100
AcDbEntity
8
Layer_1
6
ByLayer
62
256
370
-1
100
AcDbCircle
10
10.6834246575
20
25.3194520548
40
0.750576747029
100
AcDbArc
50
39.8095877146
51
89.4980604015
0
ARC
5
51
100
AcDbEntity
8
Layer_1
6
ByLayer
62
256
370
-1
100
AcDbCircle
10
10.6079384966
20
26.5321298405
40
0.469359222629
100
AcDbArc
50
209.641238102
51
280.069190636
0
LINE
5
52
100
AcDbEntity
8
Layer_1
6
ByLayer
62
256
370
-1
100
AcDbLine
10
10.2
20
26.3
11
10.16
21
26.4
0
ARC
5
53
100
AcDbEntity
8
Layer_1
6
ByLayer
62
256
370
-1
100
AcDbCircle
10
10.105
20
26.375
40
0.060415229868
100
AcDbArc
50
24.4439547804
51
114.44395478
0
ARC
5
54
100
AcDbEntity
8
Layer_1
6
ByLayer
62
256
370
-1
100
AcDbCircle
10
0.59304354053
20
51.0932898883
40
26.4249921661
100
AcDbArc
50
281.939916116
51
291.039688007
0
ARC
5
55
100
AcDbEntity
8
Layer_1
6
ByLayer
62
256
370
-1
100
AcDbCircle
10
6.63
20
23.4
40
1.92626581759
100
AcDbArc
50
107.212071927
51
119.892455419
0
ARC
5
56
100
AcDbEntity
8
Layer_1
6
ByLayer
62
256
370
-1
100
AcDbCircle
10
5.84583333333
20
24.91
40
0.237733803047
100
AcDbArc
50
137.699291057
51
187.249572195
0
ARC
5
57
100
AcDbEntity
8
Layer_1
6
ByLayer
62
256
370
-1
100
AcDbCircle
10
5.4925
20
24.845
40
0.122601998352
100
AcDbArc
50
309.207203505
51
16.5873385569
0
ARC
5
58
100
AcDbEntity
8
Layer_1
6
ByLayer
62
256
370
-1
100
AcDbCircle
10
4.62949438202
20
25.4874719101
40
1.1951634347
100
AcDbArc
50
300.718031819
51
321.899196209
0
ARC
5
59
100
AcDbEntity
8
Layer_1
6
ByLayer
62
256
370
-1
100
AcDbCircle
10
5.6764
20
24.0039
40
0.631246520782
100
AcDbArc
50
133.735525377
51
167.548967537
0
ARC
5
5A
100
AcDbEntity
8
Layer_1
6
ByLayer
62
256
370
-1
100
AcDbCircle
10
5.58342105263
20
23.9028947368
40
0.574620313037
100
AcDbArc
50
155.629879946
51
191.330516551
0
LINE
5
5B
100
AcDbEntity
8
Layer_1
6
ByLayer
62
256
370
-1
100
AcDbLine
10
5.02
20
23.79
11
5.88
21
20.21
0
ARC
5
5C
100
AcDbEntity
8
Layer_1
6
ByLayer
62
256
370
-1
100
AcDbCircle
10
6.02833333333
20
20.2466666667
40
0.152797978462
100
AcDbArc
50
193.884667685
51
243.434948823
0
ARC
5
5D
100
AcDbEntity
8
Layer_1
6
ByLayer
62
256
370
-1
100
AcDbCircle
10
5.235
20
18.535
40
1.73385408844
100
AcDbArc
50
58.9228988492
51
65.2825590889
0
ARC
5
5E
100
AcDbEntity
8
Layer_1
6
ByLayer
62
256
370
-1
100
AcDbCircle
10
6.23293103448
20
20.2477586207
40
0.24993756652
100
AcDbArc
50
245.680345071
51
287.959994689
0
ARC
5
5F
100
AcDbEntity
8
Layer_1
6
ByLayer
62
256
370
-1
100
AcDbCircle
10
3.68652173913
20
36.3539130435
40
16.5531305727
100
AcDbArc
50
279.119165217
51
285.463532309
0
ARC
5
60
100
AcDbEntity
8
Layer_1
6
ByLayer
62
256
370
-1
100
AcDbCircle
10
13.3423076923
20
-6.29615384615
40
27.2059997081
100
AcDbArc
50
95.1504285737
51
101.109776135
0
ARC
5
61
100
AcDbEntity
8
Layer_1
6
ByLayer
62
256
370
-1
100
AcDbCircle
10
5.95
20
63.65
40
43.1349626173
100
AcDbArc
50
276.589557363
51
278.599729374
0
ARC
5
62
100
AcDbEntity
8
Layer_1
6
ByLayer
62
256
370
-1
100
AcDbCircle
10
12.3073979592
20
21.4487244898
40
0.458179883568
100
AcDbArc
50
281.660284479
51
8.94940845844
0
LINE
5
63
100
AcDbEntity
8
Layer_1
6
ByLayer
62
256
370
-1
100
AcDbLine
10
12.76
20
21.52
11
11.26
21
25.8
0
ARC
5
64
100
AcDbEntity
8
Layer_1
6
ByLayer
62
256
370
-1
100
AcDbCircle
10
30.6705617978
20
-114.066629213
40
136.354787415
100
AcDbArc
50
94.4883198081
51
97.2765713721
0
ARC
5
65
100
AcDbEntity
8
Layer_1
6
ByLayer
62
256
370
-1
100
AcDbCircle
10
19.645480167
20
47.9502713987
40
9.89662329549
100
AcDbArc
50
272.052905964
51
288.770510491
0
ARC
5
66
100
AcDbEntity
8
Layer_1
6
ByLayer
62
256
370
-1
100
AcDbCircle
10
23.0974129931
20
37.408225058
40
1.20190108725
100
AcDbArc
50
65.281522474
51
102.855423676
0
LINE
5
67
100
AcDbEntity
8
Layer_1
6
ByLayer
62
256
370
-1
100
AcDbLine
10
23.6
20
38.5
11
26.4
21
37.54
0
ARC
5
68
100
AcDbEntity
8
Layer_1
6
ByLayer
62
256
370
-1
100
AcDbCircle
10
25.9172614841
20
36.6059187279
40
1.05144866617
100
AcDbArc
50
28.6472644135
51
62.6698219415
0
LINE
5
69
100
AcDbEntity
8
Layer_1
6
ByLayer
62
256
370
-1
100
AcDbLine
10
26.84
20
37.11
11
28.15
21
27.81
0
ARC
5
6A
100
AcDbEntity
8
Layer_1
6
ByLayer
62
256
370
-1
100
AcDbCircle
10
29.0763793104
20
27.8679885057
40
0.928192487275
100
AcDbArc
50
183.581866714
51
215.423030299
0
ARC
5
6B
100
AcDbEntity
8
Layer_1
6
ByLayer
62
256
370
-1
100
AcDbCircle
10
27.6178526646
20
26.778291536
40
0.892968705967
100
AcDbArc
50
357.542336795
51
38.1582998096
0
LINE
5
6C
100
AcDbEntity
8
Layer_1
6
ByLayer
62
256
370
-1
100
AcDbLine
10
28.51
20
26.74
11
26.83
21
21.33
0
ARC
5
6D
100
AcDbEntity
8
Layer_1
6
ByLayer
62
256
370
-1
100
AcDbCircle
10
26.6273622047
20
21.4039763779
40
0.215718753402
100
AcDbArc
50
262.712856807
51
339.944528928
0
ARC
5
6E
100
AcDbEntity
8
Layer_1
6
ByLayer
62
256
370
-1
100
AcDbCircle
10
29.3165753425
20
25.3194520548
40
0.750576747029
100
AcDbArc
50
90.5019395985
51
140.190412285
0
ARC
5
6F
100
AcDbEntity
8
Layer_1
6
ByLayer
62
256
370
-1
100
AcDbCircle
10
29.3920615034
20
26.5321298405
40
0.469359222629
100
AcDbArc
50
259.930809364
51
330.358761898
0
LINE
5
70
100
AcDbEntity
8
Layer_1
6
ByLayer
62
256
370
-1
100
AcDbLine
10
29.8
20
26.3
11
29.84
21
26.4
0
ARC
5
71
100
AcDbEntity
8
Layer_1
6
ByLayer
62
256
370
-1
100
AcDbCircle
10
29.895
20
26.375
40
0.060415229868
100
AcDbArc
50
65.5560452195
51
155.55604522
0
ARC
5
72
100
AcDbEntity
8
Layer_1
6
ByLayer
62
256
370
-1
100
AcDbCircle
10
39.4069564595
20
51.0932898883
40
26.4249921661
100
AcDbArc
50
248.960311993
51
258.060083884
0
ARC
5
73
100
AcDbEntity
8
Layer_1
6
ByLayer
62
256
370
-1
100
AcDbCircle
10
33.37
20
23.4
40
1.92626581759
100
AcDbArc
50
60.1075445811
51
72.787928073
0
ARC
5
74
100
AcDbEntity
8
Layer_1
6
ByLayer
62
256
370
-1
100
AcDbCircle
10
34.1541666667
20
24.91
40
0.237733803047
100
AcDbArc
50
352.750427805
51
42.3007089425
0
ARC
5
75
100
AcDbEntity
8
Layer_1
6
ByLayer
62
256
370
-1
100
AcDbCircle
10
34.5075
20
24.845
40
0.122601998352
100
AcDbArc
50
163.412661443
51
230.792796495
0
ARC
5
76
100
AcDbEntity
8
Layer_1
6
ByLayer
62
256
370
-1
100
AcDbCircle
10
35.370505618
20
25.4874719101
40
1.1951634347
100
AcDbArc
50
218.100803791
51
239.281968181
0
ARC
5
77
100
AcDbEntity
8
Layer_1
6
ByLayer
62
256
370
-1
100
AcDbCircle
10
34.3236
20
24.0039
40
0.631246520782
100
AcDbArc
50
12.4510324625
51
46.264474623
0
ARC
5
78
100
AcDbEntity
8
Layer_1
6
ByLayer
62
256
370
-1
100
AcDbCircle
10
34.4165789474
20
23.9028947368
40
0.574620313037
100
AcDbArc
50
348.669483449
51
24.3701200538
0
LINE
5
79
100
AcDbEntity
8
Layer_1
6
ByLayer
62
256
370
-1
100
AcDbLine
10
34.98
20
23.79
11
34.12
21
20.21
0
ARC
5
7A
100
AcDbEntity
8
Layer_1
6
ByLayer
62
256
370
-1
100
AcDbCircle
10
33.9716666667
20
20.2466666667
40
0.152797978462
100
AcDbArc
50
296.565051177
51
346.115332315
0
ARC
5
7B
100
AcDbEntity
8
Layer_1
6
ByLayer
62
256
370
-1
100
AcDbCircle
10
34.765
20
18.535
40
1.73385408844
100
AcDbArc
50
114.717440911
51
121.077101151
0
ARC
5
7C
100
AcDbEntity
8
Layer_1
6
ByLayer
62
256
370
-1
100
AcDbCircle
10
33.7670689655
20
20.2477586207
40
0.24993756652
100
AcDbArc
50
252.040005311
51
294.319654928
0
ARC
5
7D
100
AcDbEntity
8
Layer_1
6
ByLayer
62
256
370
-1
100
AcDbCircle
10
36.3134782609
20
36.3539130435
40
16.5531305727
100
AcDbArc
50
254.536467691
51
260.880834783
0
ARC
5
7E
100
AcDbEntity
8
Layer_1
6
ByLayer
62
256
370
-1
100
AcDbCircle
10
26.6576923077
20
-6.29615384616
40
27.2059997081
100
AcDbArc
50
78.8902238654
51
84.8495714262
0
ARC
5
7F
100
AcDbEntity
8
Layer_1
6
ByLayer
62
256
370
-1
100
AcDbCircle
10
34.05
20
63.65
40
43.1349626173
100
AcDbArc
50
261.400270626
51
263.410442637
0
ARC
5
80
100
AcDbEntity
8
Layer_1
6
ByLayer
62
256
370
-1
100
AcDbCircle
10
27.6926020408
20
21.4487244898
40
0.458179883568
100
AcDbArc
50
171.050591542
51
258.339715521
0
LINE
5
81
100
AcDbEntity
8
Layer_1
6
ByLayer
62
256
370
-1
100
AcDbLine
10
27.24
20
21.52
11
28.74
21
25.8
0
ARC
5
82
100
AcDbEntity
8
Layer_1
6
ByLayer
62
256
370
-1
100
AcDbCircle
10
9.32943820212
20
-114.066629213
40
136.354787415
100
AcDbArc
50
82.7234286279
51
85.5116801918
0
LINE
5
83
100
AcDbEntity
8
Layer_1
6
ByLayer
62
256
370
-1
100
AcDbLine
10
20
20
21.6
11
6.16
21
17.52
0
ARC
5
84
100
AcDbEntity
8
Layer_1
6
ByLayer
62
256
370
-1
100
AcDbCircle
10
6.22891304348
20
17.3518478261
40
0.181725510463
100
AcDbArc
50
112.285067802
51
190.093344712
0
LINE
5
85
100
AcDbEntity
8
Layer_1
6
ByLayer
62
256
370
-1
100
AcDbLine
10
6.05
20
17.32
11
6.95
21
14.49
0
LINE
5
86
100
AcDbEntity
8
Layer_1
6
ByLayer
62
256
370
-1
100
AcDbLine
10
6.95
20
14.49
11
7.25
21
13.05
0
ARC
5
87
100
AcDbEntity
8
Layer_1
6
ByLayer
62
256
370
-1
100
AcDbCircle
10
7.485
20
13.1108823529
40
0.242758441459
100
AcDbArc
50
194.524500119
51
287.995909297
0
ARC
5
88
100
AcDbEntity
8
Layer_1
6
ByLayer
62
256
370
-1
100
AcDbCircle
10
20.6647340902
20
-29.1632372274
40
44.0382544174
100
AcDbArc
50
90.8648822441
51
107.312078935
0
LINE
5
89
100
AcDbEntity
8
Layer_1
6
ByLayer
62
256
370
-1
100
AcDbLine
10
20
20
21.6
11
33.84
21
17.52
0
ARC
5
8A
100
AcDbEntity
8
Layer_1
6
ByLayer
62
256
370
-1
100
AcDbCircle
10
33.7710869565
20
17.3518478261
40
0.181725510463
100
AcDbArc
50
349.906655288
51
67.7149321984
0
LINE
5
8B
100
AcDbEntity
8
Layer_1
6
ByLayer
62
256
370
-1
100
AcDbLine
10
33.95
20
17.32
11
33.05
21
14.49
0
LINE
5
8C
100
AcDbEntity
8
Layer_1
6
ByLayer
62
256
370
-1
100
AcDbLine
10
33.05
20
14.49
11
32.75
21
13.05
0
ARC
5
8D
100
AcDbEntity
8
Layer_1
6
ByLayer
62
256
370
-1
100
AcDbCircle
10
32.515
20
13.1108823529
40
0.242758441459
100
AcDbArc
50
252.004090703
51
345.475499881
0
ARC
5
8E
100
AcDbEntity
8
Layer_1
6
ByLayer
62
256
370
-1
100
AcDbCircle
10
19.3352659098
20
-29.1632372274
40
44.0382544174
100
AcDbArc
50
72.6879210648
51
89.1351177559
0
ARC
5
8F
100
AcDbEntity
8
Layer_1
6
ByLayer
62
256
370
-1
100
AcDbCircle
10
6.88458333333
20
12.648125
40
0.10479912167
100
AcDbArc
50
51.3757681335
51
143.813518604
0
LINE
5
90
100
AcDbEntity
8
Layer_1
6
ByLayer
62
256
370
-1
100
AcDbLine
10
6.8
20
12.71
11
5.73
21
10.18
0
ARC
5
91
100
AcDbEntity
8
Layer_1
6
ByLayer
62
256
370
-1
100
AcDbCircle
10
5.868
20
10.11
40
0.154738489071
100
AcDbArc
50
153.103763035
51
255.784146526
0
ARC
5
92
100
AcDbEntity
8
Layer_1
6
ByLayer
62
256
370
-1
100
AcDbCircle
10
15.3826781532
20
32.3208447641
40
24.3158598134
100
AcDbArc
50
246.867555068
51
267.400853644
0
ARC
5
93
100
AcDbEntity
8
Layer_1
6
ByLayer
62
256
370
-1
100
AcDbCircle
10
15.645
20
34.2983333333
40
26.3037746552
100
AcDbArc
50
267.025374313
51
271.165435619
0
LINE
5
94
100
AcDbEntity
8
Layer_1
6
ByLayer
62
256
370
-1
100
AcDbLine
10
16.18
20
8
11
20
21
8.01
0
LINE
5
95
100
AcDbEntity
8
Layer_1
6
ByLayer
62
256
370
-1
100
AcDbLine
10
20
20
11
11
15.4
21
11
0
ARC
5
96
100
AcDbEntity
8
Layer_1
6
ByLayer
62
256
370
-1
100
AcDbCircle
10
15.4323640806
20
32.6596395846
40
21.659663764
100
AcDbArc
50
246.944642998
51
269.914388056
0
ARC
5
97
100
AcDbEntity
8
Layer_1
6
ByLayer
62
256
370
-1
100
AcDbCircle
10
33.1154166667
20
12.648125
40
0.10479912167
100
AcDbArc
50
36.1864813963
51
128.624231867
0
LINE
5
98
100
AcDbEntity
8
Layer_1
6
ByLayer
62
256
370
-1
100
AcDbLine
10
33.2
20
12.71
11
34.27
21
10.18
0
ARC
5
99
100
AcDbEntity
8
Layer_1
6
ByLayer
62
256
370
-1
100
AcDbCircle
10
34.132
20
10.11
40
0.154738489071
100
AcDbArc
50
284.215853474
51
26.8962369655
0
ARC
5
9A
100
AcDbEntity
8
Layer_1
6
ByLayer
62
256
370
-1
100
AcDbCircle
10
24.6173218468
20
32.3208447641
40
24.3158598134
100
AcDbArc
50
272.599146356
51
293.132444932
0
ARC
5
9B
100
AcDbEntity
8
Layer_1
6
ByLayer
62
256
370
-1
100
AcDbCircle
10
24.355
20
34.2983333333
40
26.3037746552
100
AcDbArc
50
268.834564381
51
272.974625687
0
LINE
5
9C
100
AcDbEntity
8
Layer_1
6
ByLayer
62
256
370
-1
100
AcDbLine
10
23.82
20
8
11
20
21
8.01
0
LINE
5
9D
100
AcDbEntity
8
Layer_1
6
ByLayer
62
256
370
-1
100
AcDbLine
10
20
20
11
11
24.6
21
11
0
ARC
5
9E
100
AcDbEntity
8
Layer_1
6
ByLayer
62
256
370
-1
100
AcDbCircle
10
24.5676359194
20
32.6596395846
40
21.659663764
100
AcDbArc
50
270.085611944
51
293.055357002
0
ARC
5
9F
100
AcDbEntity
8
Layer_1
6
ByLayer
62
256
370
-1
100
AcDbCircle
10
15.4660477744
20
30.9959097418
40
23.5659341999
100
AcDbArc
50
246.103968185
51
270.082547965
0
ARC
5
A0
100
AcDbEntity
8
Layer_1
6
ByLayer
62
256
370
-1
100
AcDbCircle
10
5.82914201183
20
9.29192307692
40
0.182327967199
100
AcDbArc
50
60.1109714287
51
158.076012572
0
LINE
5
A1
100
AcDbEntity
8
Layer_1
6
ByLayer
62
256
370
-1
100
AcDbLine
10
5.66
20
9.36
11
4.52
21
7.04
0
ARC
5
A2
100
AcDbEntity
8
Layer_1
6
ByLayer
62
256
370
-1
100
AcDbCircle
10
4.70388888889
20
6.94388888889
40
0.207490889284
100
AcDbArc
50
152.405794019
51
249.138715345
0
ARC
5
A3
100
AcDbEntity
8
Layer_1
6
ByLayer
62
256
370
-1
100
AcDbCircle
10
15.4934283688
20
30.8951475177
40
26.4764466003
100
AcDbArc
50
245.775980534
51
268.326040995
0
LINE
5
A4
100
AcDbEntity
8
Layer_1
6
ByLayer
62
256
370
-1
100
AcDbLine
10
20
20
0.15
11
14.74
21
0.15
0
ARC
5
A5
100
AcDbEntity
8
Layer_1
6
ByLayer
62
256
370
-1
100
AcDbCircle
10
15.659005371
20
30.2943635795
40
30.1583690953
100
AcDbArc
50
245.369373695
51
268.253775546
0
ARC
5
A6
100
AcDbEntity
8
Layer_1
6
ByLayer
62
256
370
-1
100
AcDbCircle
10
3.175
20
3.025
40
0.16807736314
100
AcDbArc
50
157.249023657
51
239.620873989
0
LINE
5
A7
100
AcDbEntity
8
Layer_1
6
ByLayer
62
256
370
-1
100
AcDbLine
10
3.02
20
3.09
11
4.37
21
5.91
0
ARC
5
A8
100
AcDbEntity
8
Layer_1
6
ByLayer
62
256
370
-1
100
AcDbCircle
10
4.50209302326
20
5.83302325581
40
0.152885532142
100
AcDbArc
50
63.6298316752
51
149.768656793
0
ARC
5
A9
100
AcDbEntity
8
Layer_1
6
ByLayer
62
256
370
-1
100
AcDbCircle
10
15.4479259981
20
30.1973807205
40
26.5573954031
100
AcDbArc
50
245.820250267
51
269.939751542
0
LINE
5
AA
100
AcDbEntity
8
Layer_1
6
ByLayer
62
256
370
-1
100
AcDbLine
10
15.42
20
3.64
11
20
21
3.6
0
LINE
5
AB
100
AcDbEntity
8
Layer_1
6
ByLayer
62
256
370
-1
100
AcDbLine
10
20
20
0.15
11
25.26
21
0.15
0
ARC
5
AC
100
AcDbEntity
8
Layer_1
6
ByLayer
62
256
370
-1
100
AcDbCircle
10
24.340994629
20
30.2943635795
40
30.1583690953
100
AcDbArc
50
271.746224454
51
294.630626305
0
ARC
5
AD
100
AcDbEntity
8
Layer_1
6
ByLayer
62
256
370
-1
100
AcDbCircle
10
36.825
20
3.025
40
0.16807736314
100
AcDbArc
50
300.379126011
51
22.7509763428
0
LINE
5
AE
100
AcDbEntity
8
Layer_1
6
ByLayer
62
256
370
-1
100
AcDbLine
10
36.98
20
3.09
11
35.63
21
5.91
0
ARC
5
AF
100
AcDbEntity
8
Layer_1
6
ByLayer
62
256
370
-1
100
AcDbCircle
10
35.4979069767
20
5.83302325581
40
0.152885532142
100
AcDbArc
50
30.2313432072
51
116.370168325
0
ARC
5
B0
100
AcDbEntity
8
Layer_1
6
ByLayer
62
256
370
-1
100
AcDbCircle
10
24.5520740019
20
30.1973807205
40
26.5573954031
100
AcDbArc
50
270.060248458
51
294.179749733
0
LINE
5
B1
100
AcDbEntity
8
Layer_1
6
ByLayer
62
256
370
-1
100
AcDbLine
10
24.58
20
3.64
11
20
21
3.6
0
CIRCLE
5
B2
100
AcDbEntity
8
Layer_1
6
ByLayer
62
256
370
-1
100
AcDbCircle
10
4.96
20
3.17
40
0.07
0
CIRCLE
5
B3
100
AcDbEntity
8
Layer_1
6
ByLayer
62
256
370
-1
100
AcDbCircle
10
7.98
20
3.68
40
0.07
0
CIRCLE
5
B4
100
AcDbEntity
8
Layer_1
6
ByLayer
62
256
370
-1
100
AcDbCircle
10
20
20
1.12
40
0.07
0
CIRCLE
5
B5
100
AcDbEntity
8
Layer_1
6
ByLayer
62
256
370
-1
100
AcDbCircle
10
35.04
20
3.17
40
0.07
0
CIRCLE
5
B6
100
AcDbEntity
8
Layer_1
6
ByLayer
62
256
370
-1
100
AcDbCircle
10
32.02
20
3.68
40
0.07
0
LINE
5
B7
100
AcDbEntity
8
Layer_1
6
ByLayer
62
256
370
-1
100
AcDbLine
10
20
20
7.4
11
15.5
21
7.43
0
LINE
5
B8
100
AcDbEntity
8
Layer_1
6
ByLayer
62
256
370
-1
100
AcDbLine
10
14.72
20
4.43
11
20
21
4.38
0
ARC
5
B9
100
AcDbEntity
8
Layer_1
6
ByLayer
62
256
370
-1
100
AcDbCircle
10
24.5339522256
20
30.9959097418
40
23.5659341999
100
AcDbArc
50
269.917452035
51
293.896031815
0
ARC
5
BA
100
AcDbEntity
8
Layer_1
6
ByLayer
62
256
370
-1
100
AcDbCircle
10
34.1708579882
20
9.29192307692
40
0.182327967199
100
AcDbArc
50
21.9239874277
51
119.889028571
0
LINE
5
BB
100
AcDbEntity
8
Layer_1
6
ByLayer
62
256
370
-1
100
AcDbLine
10
34.34
20
9.36
11
35.48
21
7.04
0
ARC
5
BC
100
AcDbEntity
8
Layer_1
6
ByLayer
62
256
370
-1
100
AcDbCircle
10
35.2961111111
20
6.94388888889
40
0.207490889284
100
AcDbArc
50
290.861284655
51
27.5942059814
0
ARC
5
BD
100
AcDbEntity
8
Layer_1
6
ByLayer
62
256
370
-1
100
AcDbCircle
10
24.5065716312
20
30.8951475177
40
26.4764466003
100
AcDbArc
50
271.673959005
51
294.224019466
0
ARC
5
BE
100
AcDbEntity
8
Layer_1
6
ByLayer
62
256
370
-1
100
AcDbCircle
10
35.4979069767
20
5.83302325581
40
0.152885532142
100
AcDbArc
50
30.2313432072
51
116.370168325
0
LINE
5
BF
100
AcDbEntity
8
Layer_1
6
ByLayer
62
256
370
-1
100
AcDbLine
10
20
20
7.4
11
24.5
21
7.43
0
LINE
5
C0
100
AcDbEntity
8
Layer_1
6
ByLayer
62
256
370
-1
100
AcDbLine
10
25.28
20
4.43
11
20
21
4.38
0
CIRCLE
5
C1
100
AcDbEntity
8
Layer_1
6
ByLayer
62
256
370
-1
100
AcDbCircle
10
20
20
4.92
40
0.07
0
CIRCLE
5
C2
100
AcDbEntity
8
Layer_1
6
ByLayer
62
256
370
-1
100
AcDbCircle
10
6.33
20
6.67
40
0.07
0
CIRCLE
5
C3
100
AcDbEntity
8
Layer_1
6
ByLayer
62
256
370
-1
100
AcDbCircle
10
9.6
20
7.18
40
0.07
0
CIRCLE
5
C4
100
AcDbEntity
8
Layer_1
6
ByLayer
62
256
370
-1
100
AcDbCircle
10
33.67
20
6.67
40
0.07
0
CIRCLE
5
C5
100
AcDbEntity
8
Layer_1
6
ByLayer
62
256
370
-1
100
AcDbCircle
10
30.4
20
7.18
40
0.07
0
CIRCLE
5
C6
100
AcDbEntity
8
Layer_1
6
ByLayer
62
256
370
-1
100
AcDbCircle
10
7.52
20
9.91
40
0.07
0
CIRCLE
5
C7
100
AcDbEntity
8
Layer_1
6
ByLayer
62
256
370
-1
100
AcDbCircle
10
10.72
20
10.62
40
0.07
0
CIRCLE
5
C8
100
AcDbEntity
8
Layer_1
6
ByLayer
62
256
370
-1
100
AcDbCircle
10
20
20
8.6
40
0.07
0
CIRCLE
5
C9
100
AcDbEntity
8
Layer_1
6
ByLayer
62
256
370
-1
100
AcDbCircle
10
32.48
20
9.91
40
0.07
0
CIRCLE
5
CA
100
AcDbEntity
8
Layer_1
6
ByLayer
62
256
370
-1
100
AcDbCircle
10
29.28
20
10.62
40
0.07
0
CIRCLE
5
CB
100
AcDbEntity
8
Layer_1
6
ByLayer
62
256
370
-1
100
AcDbCircle
10
8.62
20
14.89
40
0.07
0
CIRCLE
5
CC
100
AcDbEntity
8
Layer_1
6
ByLayer
62
256
370
-1
100
AcDbCircle
10
11.09
20
16.38
40
0.07
0
CIRCLE
5
CD
100
AcDbEntity
8
Layer_1
6
ByLayer
62
256
370
-1
100
AcDbCircle
10
20
20
21.29
40
0.07
0
CIRCLE
5
CE
100
AcDbEntity
8
Layer_1
6
ByLayer
62
256
370
-1
100
AcDbCircle
10
20
20
16.44
40
0.07
0
CIRCLE
5
CF
100
AcDbEntity
8
Layer_1
6
ByLayer
62
256
370
-1
100
AcDbCircle
10
31.38
20
14.89
40
0.07
0
CIRCLE
5
D0
100
AcDbEntity
8
Layer_1
6
ByLayer
62
256
370
-1
100
AcDbCircle
10
28.91
20
16.38
40
0.07
0
CIRCLE
5
D1
100
AcDbEntity
8
Layer_1
6
ByLayer
62
256
370
-1
100
AcDbCircle
10
9.6
20
24.6
40
0.07
0
CIRCLE
5
D2
100
AcDbEntity
8
Layer_1
6
ByLayer
62
256
370
-1
100
AcDbCircle
10
30.4
20
24.6
40
0.07
0
CIRCLE
5
D3
100
AcDbEntity
8
Layer_1
6
ByLayer
62
256
370
-1
100
AcDbCircle
10
12.1
20
26.1
40
0.07
0
CIRCLE
5
D4
100
AcDbEntity
8
Layer_1
6
ByLayer
62
256
370
-1
100
AcDbCircle
10
12.8
20
24
40
0.07
0
CIRCLE
5
D5
100
AcDbEntity
8
Layer_1
6
ByLayer
62
256
370
-1
100
AcDbCircle
10
13.4
20
21.8
40
0.07
0
CIRCLE
5
D6
100
AcDbEntity
8
Layer_1
6
ByLayer
62
256
370
-1
100
AcDbCircle
10
27.9000000025
20
26.0999999952
40
0.07
0
CIRCLE
5
D7
100
AcDbEntity
8
Layer_1
6
ByLayer
62
256
370
-1
100
AcDbCircle
10
27.2000000012
20
23.9999999956
40
0.07
0
CIRCLE
5
D8
100
AcDbEntity
8
Layer_1
6
ByLayer
62
256
370
-1
100
AcDbCircle
10
26.5999999999
20
21.7999999993
40
0.07
0
CIRCLE
5
D9
100
AcDbEntity
8
Layer_1
6
ByLayer
62
256
370
-1
100
AcDbCircle
10
14.4
20
37.4
40
0.07
0
CIRCLE
5
DA
100
AcDbEntity
8
Layer_1
6
ByLayer
62
256
370
-1
100
AcDbCircle
10
16
20
37.9
40
0.07
0
CIRCLE
5
DB
100
AcDbEntity
8
Layer_1
6
ByLayer
62
256
370
-1
100
AcDbCircle
10
25.6
20
37.4
40
0.07
0
CIRCLE
5
DC
100
AcDbEntity
8
Layer_1
6
ByLayer
62
256
370
-1
100
AcDbCircle
10
24
20
37.9
40
0.07
0
CIRCLE
5
DD
100
AcDbEntity
8
Layer_1
6
ByLayer
62
256
370
-1
100
AcDbCircle
10
20
20
28.6
40
0.07
0
ARC
5
DE
100
AcDbEntity
8
Layer_1
6
ByLayer
62
256
370
-1
100
AcDbCircle
10
-14.6342426154
20
48.6437326433
40
44.6752299014
100
AcDbArc
50
253.810996958
51
269.530912575
0
ARC
5
DF
100
AcDbEntity
8
Layer_1
6
ByLayer
62
256
370
-1
100
AcDbCircle
10
-27.1527985074
20
5.50731343284
40
0.241011806927
100
AcDbArc
50
74.8965908617
51
169.798296137
0
LINE
5
E0
100
AcDbEntity
8
Layer_1
6
ByLayer
62
256
370
-1
100
AcDbLine
10
-27.3899999999
20
5.55000000004
11
-28.0599999999
21
2.79000000004
0
ARC
5
E1
100
AcDbEntity
8
Layer_1
6
ByLayer
62
256
370
-1
100
AcDbCircle
10
-27.8435714285
20
2.73357142864
40
0.223663833026
100
AcDbArc
50
165.386823953
51
252.722384245
0
ARC
5
E2
100
AcDbEntity
8
Layer_1
6
ByLayer
62
256
370
-1
100
AcDbCircle
10
-15.1895934847
20
43.9138995346
40
43.3043145725
100
AcDbArc
50
252.917729477
51
270.250851245
0
ARC
5
E3
100
AcDbEntity
8
Layer_1
6
ByLayer
62
256
370
-1
100
AcDbCircle
10
-15.3657573844
20
48.6437326433
40
44.6752299014
100
AcDbArc
50
270.469087425
51
286.189003042
0
ARC
5
E4
100
AcDbEntity
8
Layer_1
6
ByLayer
62
256
370
-1
100
AcDbCircle
10
-2.84720149244
20
5.50731343284
40
0.241011806927
100
AcDbArc
50
10.2017038628
51
105.103409138
0
LINE
5
E5
100
AcDbEntity
8
Layer_1
6
ByLayer
62
256
370
-1
100
AcDbLine
10
-2.60999999994
20
5.55000000004
11
-1.93999999994
21
2.79000000004
0
ARC
5
E6
100
AcDbEntity
8
Layer_1
6
ByLayer
62
256
370
-1
100
AcDbCircle
10
-2.15642857134
20
2.73357142864
40
0.223663833026
100
AcDbArc
50
287.277615755
51
14.6131760471
0
ARC
5
E7
100
AcDbEntity
8
Layer_1
6
ByLayer
62
256
370
-1
100
AcDbCircle
10
-14.8104065151
20
43.9138995346
40
43.3043145725
100
AcDbArc
50
269.749148755
51
287.082270523
0
CIRCLE
5
E8
100
AcDbEntity
8
Layer_1
6
ByLayer
62
256
370
-1
100
AcDbCircle
10
-26.7199999999
20
4.75000000004
40
0.07
0
CIRCLE
5
E9
100
AcDbEntity
8
Layer_1
6
ByLayer
62
256
370
-1
100
AcDbCircle
10
-26.0299999999
20
3.00000000004
40
0.07
0
CIRCLE
5
EA
100
AcDbEntity
8
Layer_1
6
ByLayer
62
256
370
-1
100
AcDbCircle
10
-14.9999999999
20
1.53000000004
40
0.07
0
CIRCLE
5
EB
100
AcDbEntity
8
Layer_1
6
ByLayer
62
256
370
-1
100
AcDbCircle
10
-3.27999999994
20
4.75000000004
40
0.07
0
CIRCLE
5
EC
100
AcDbEntity
8
Layer_1
6
ByLayer
62
256
370
-1
100
AcDbCircle
10
-3.96999999994
20
3.00000000004
40
0.07
0
ARC
5
ED
100
AcDbEntity
8
Layer_1
6
ByLayer
62
256
370
-1
100
AcDbCircle
10
-14.9165477556
20
46.506433184
40
38.4465237551
100
AcDbArc
50
252.746161945
51
269.875633355
0
ARC
5
EE
100
AcDbEntity
8
Layer_1
6
ByLayer
62
256
370
-1
100
AcDbCircle
10
-26.3675000002
20
9.63500000002
40
0.162114928369
100
AcDbArc
50
72.9622322044
51
160.16787015
0
LINE
5
EF
100
AcDbEntity
8
Layer_1
6
ByLayer
62
256
370
-1
100
AcDbLine
10
-26.5200000002
20
9.69000000002
11
-27.4200000002
21
7.12000000002
0
ARC
5
F0
100
AcDbEntity
8
Layer_1
6
ByLayer
62
256
370
-1
100
AcDbCircle
10
-27.2395029242
20
7.05505847952
40
0.191824387223
100
AcDbArc
50
160.211641819
51
254.737221433
0
ARC
5
F1
100
AcDbEntity
8
Layer_1
6
ByLayer
62
256
370
-1
100
AcDbCircle
10
-14.9034979841
20
46.9553528226
40
41.9554638052
100
AcDbArc
50
252.828683982
51
269.868213515
0
ARC
5
F2
100
AcDbEntity
8
Layer_1
6
ByLayer
62
256
370
-1
100
AcDbCircle
10
-15.0834522448
20
46.506433184
40
38.4465237551
100
AcDbArc
50
270.124366645
51
287.253838055
0
ARC
5
F3
100
AcDbEntity
8
Layer_1
6
ByLayer
62
256
370
-1
100
AcDbCircle
10
-3.63250000019
20
9.63500000002
40
0.162114928369
100
AcDbArc
50
19.8321298502
51
107.037767796
0
LINE
5
F4
100
AcDbEntity
8
Layer_1
6
ByLayer
62
256
370
-1
100
AcDbLine
10
-3.48000000019
20
9.69000000002
11
-2.58000000019
21
7.12000000002
0
ARC
5
F5
100
AcDbEntity
8
Layer_1
6
ByLayer
62
256
370
-1
100
AcDbCircle
10
-2.76049707619
20
7.05505847952
40
0.191824387223
100
AcDbArc
50
285.262778567
51
19.7883581809
0
ARC
5
F6
100
AcDbEntity
8
Layer_1
6
ByLayer
62
256
370
-1
100
AcDbCircle
10
-15.0965020163
20
46.9553528226
40
41.9554638052
100
AcDbArc
50
270.131786485
51
287.171316018
0
CIRCLE
5
F7
100
AcDbEntity
8
Layer_1
6
ByLayer
62
256
370
-1
100
AcDbCircle
10
-15.0000000002
20
5.61000000002
40
0.07
0
CIRCLE
5
F8
100
AcDbEntity
8
Layer_1
6
ByLayer
62
256
370
-1
100
AcDbCircle
10
-25.3400000002
20
7.32000000002
40
0.07
0
CIRCLE
5
F9
100
AcDbEntity
8
Layer_1
6
ByLayer
62
256
370
-1
100
AcDbCircle
10
-25.9400000002
20
8.78000000002
40
0.07
0
CIRCLE
5
FA
100
AcDbEntity
8
Layer_1
6
ByLayer
62
256
370
-1
100
AcDbCircle
10
-4.66000000019
20
7.32000000002
40
0.07
0
CIRCLE
5
FB
100
AcDbEntity
8
Layer_1
6
ByLayer
62
256
370
-1
100
AcDbCircle
10
-4.06000000019
20
8.78000000002
40
0.07
0
ARC
5
FC
100
AcDbEntity
8
Layer_1
6
ByLayer
62
256
370
-1
100
AcDbCircle
10
-15.2391747142
20
45.4131971475
40
33.3140557233
100
AcDbArc
50
252.620611025
51
270.411352479
0
ARC
5
FD
100
AcDbEntity
8
Layer_1
6
ByLayer
62
256
370
-1
100
AcDbCircle
10
-25.2408860761
20
13.4315189873
40
0.195229313522
100
AcDbArc
50
74.8915008278
51
165.621373499
0
LINE
5
FE
100
AcDbEntity
8
Layer_1
6
ByLayer
62
256
370
-1
100
AcDbLine
10
-25.4300000002
20
13.48
11
-26.1400000002
21
11.04
0
ARC
5
FF
100
AcDbEntity
8
Layer_1
6
ByLayer
62
256
370
-1
100
AcDbCircle
10
-25.8822222224
20
10.9566666667
40
0.27091295126
100
AcDbArc
50
162.085232029
51
259.842281035
0
ARC
5
100
100
AcDbEntity
8
Layer_1
6
ByLayer
62
256
370
-1
100
AcDbCircle
10
-14.6631889857
20
47.8273319689
40
38.8087935423
100
AcDbArc
50
253.123128727
51
269.502739196
0
ARC
5
101
100
AcDbEntity
8
Layer_1
6
ByLayer
62
256
370
-1
100
AcDbCircle
10
-14.7608252862
20
45.4131971475
40
33.3140557233
100
AcDbArc
50
269.588647521
51
287.379388975
0
ARC
5
102
100
AcDbEntity
8
Layer_1
6
ByLayer
62
256
370
-1
100
AcDbCircle
10
-4.75911392429
20
13.4315189873
40
0.195229313522
100
AcDbArc
50
14.3786265007
51
105.108499172
0
LINE
5
103
100
AcDbEntity
8
Layer_1
6
ByLayer
62
256
370
-1
100
AcDbLine
10
-4.57000000019
20
13.48
11
-3.86000000019
21
11.04
0
ARC
5
104
100
AcDbEntity
8
Layer_1
6
ByLayer
62
256
370
-1
100
AcDbCircle
10
-4.11777777799
20
10.9566666667
40
0.27091295126
100
AcDbArc
50
280.157718965
51
17.9147679708
0
ARC
5
105
100
AcDbEntity
8
Layer_1
6
ByLayer
62
256
370
-1
100
AcDbCircle
10
-15.3368110147
20
47.8273319689
40
38.8087935423
100
AcDbArc
50
270.497260804
51
286.876871273
0
CIRCLE
5
106
100
AcDbEntity
8
Layer_1
6
ByLayer
62
256
370
-1
100
AcDbCircle
10
-15.0000000002
20
9.66000000002
40
0.07
0
CIRCLE
5
107
100
AcDbEntity
8
Layer_1
6
ByLayer
62
256
370
-1
100
AcDbCircle
10
-24.0800000002
20
11.14
40
0.07
0
CIRCLE
5
108
100
AcDbEntity
8
Layer_1
6
ByLayer
62
256
370
-1
100
AcDbCircle
10
-24.8600000002
20
12.59
40
0.07
0
CIRCLE
5
109
100
AcDbEntity
8
Layer_1
6
ByLayer
62
256
370
-1
100
AcDbCircle
10
-5.92000000019
20
11.14
40
0.07
0
CIRCLE
5
10A
100
AcDbEntity
8
Layer_1
6
ByLayer
62
256
370
-1
100
AcDbCircle
10
-5.14000000019
20
12.59
40
0.07
0
LINE
5
10B
100
AcDbEntity
8
Layer_1
6
ByLayer
62
256
370
-1
100
AcDbLine
10
-15
20
21.73
11
-4.27
21
18.53
0
ARC
5
10C
100
AcDbEntity
8
Layer_1
6
ByLayer
62
256
370
-1
100
AcDbCircle
10
-4.3444117647
20
18.3344852941
40
0.209196345434
100
AcDbArc
50
347.722392155
51
69.1634650941
0
LINE
5
10D
100
AcDbEntity
8
Layer_1
6
ByLayer
62
256
370
-1
100
AcDbLine
10
-4.14
20
18.29
11
-4.87
21
15.45
0
LINE
5
10E
100
AcDbEntity
8
Layer_1
6
ByLayer
62
256
370
-1
100
AcDbLine
10
-4.87
20
15.45
11
-5.1
21
13.96
0
ARC
5
10F
100
AcDbEntity
8
Layer_1
6
ByLayer
62
256
370
-1
100
AcDbCircle
10
-5.24
20
13.98
40
0.141421356237
100
AcDbArc
50
261.869897646
51
351.869897646
0
ARC
5
110
100
AcDbEntity
8
Layer_1
6
ByLayer
62
256
370
-1
100
AcDbCircle
10
-15.3339959121
20
-29.2756208482
40
44.2768805898
100
AcDbArc
50
76.8487328633
51
89.5677939057
0
LINE
5
111
100
AcDbEntity
8
Layer_1
6
ByLayer
62
256
370
-1
100
AcDbLine
10
-15
20
21.73
11
-25.73
21
18.53
0
ARC
5
112
100
AcDbEntity
8
Layer_1
6
ByLayer
62
256
370
-1
100
AcDbCircle
10
-25.6555882353
20
18.3344852941
40
0.209196345434
100
AcDbArc
50
110.836534906
51
192.277607845
0
LINE
5
113
100
AcDbEntity
8
Layer_1
6
ByLayer
62
256
370
-1
100
AcDbLine
10
-25.86
20
18.29
11
-25.13
21
15.45
0
LINE
5
114
100
AcDbEntity
8
Layer_1
6
ByLayer
62
256
370
-1
100
AcDbLine
10
-25.13
20
15.45
11
-24.9
21
13.96
0
ARC
5
115
100
AcDbEntity
8
Layer_1
6
ByLayer
62
256
370
-1
100
AcDbCircle
10
-24.76
20
13.98
40
0.141421356237
100
AcDbArc
50
188.130102354
51
278.130102354
0
ARC
5
116
100
AcDbEntity
8
Layer_1
6
ByLayer
62
256
370
-1
100
AcDbCircle
10
-14.6660040879
20
-29.2756208482
40
44.2768805898
100
AcDbArc
50
90.4322060943
51
103.151267137
0
CIRCLE
5
117
100
AcDbEntity
8
Layer_1
6
ByLayer
62
256
370
-1
100
AcDbCircle
10
-15
20
16.86
40
0.07
0
CIRCLE
5
118
100
AcDbEntity
8
Layer_1
6
ByLayer
62
256
370
-1
100
AcDbCircle
10
-23.53
20
16.08
40
0.07
0
CIRCLE
5
119
100
AcDbEntity
8
Layer_1
6
ByLayer
62
256
370
-1
100
AcDbCircle
10
-24.63
20
16.88
40
0.07
0
CIRCLE
5
11A
100
AcDbEntity
8
Layer_1
6
ByLayer
62
256
370
-1
100
AcDbCircle
10
-15
20
21.16
40
0.07
0
CIRCLE
5
11B
100
AcDbEntity
8
Layer_1
6
ByLayer
62
256
370
-1
100
AcDbCircle
10
-6.47
20
16.08
40
0.07
0
CIRCLE
5
11C
100
AcDbEntity
8
Layer_1
6
ByLayer
62
256
370
-1
100
AcDbCircle
10
-5.37
20
16.88
40
0.07
0
ARC
5
11D
100
AcDbEntity
8
Layer_1
6
ByLayer
62
256
370
-1
100
AcDbCircle
10
-19.2926315788
20
33.6536842105
40
0.214879338685
100
AcDbArc
50
113.990987246
51
164.806423464
0
LINE
5
11E
100
AcDbEntity
8
Layer_1
6
ByLayer
62
256
370
-1
100
AcDbLine
10
-19.3799999999
20
33.85
11
-17.3499999999
21
34.67
0
ARC
5
11F
100
AcDbEntity
8
Layer_1
6
ByLayer
62
256
370
-1
100
AcDbCircle
10
-17.1599999999
20
34.085
40
0.61508129544
100
AcDbArc
50
72.006912182
51
107.993087818
0
LINE
5
120
100
AcDbEntity
8
Layer_1
6
ByLayer
62
256
370
-1
100
AcDbLine
10
-16.9699999999
20
34.67
11
-16.4199999999
21
34.47
0
ARC
5
121
100
AcDbEntity
8
Layer_1
6
ByLayer
62
256
370
-1
100
AcDbCircle
10
-15.0480323679
20
37.4533134583
40
3.28366477789
100
AcDbArc
50
245.303221944
51
270.838133702
0
ARC
5
122
100
AcDbEntity
8
Layer_1
6
ByLayer
62
256
370
-1
100
AcDbCircle
10
-18.1299999999
20
33.12
40
1.49164338902
100
AcDbArc
50
156.700536739
51
177.310229677
0
ARC
5
123
100
AcDbEntity
8
Layer_1
6
ByLayer
62
256
370
-1
100
AcDbCircle
10
-35.6193864229
20
34.0394908616
40
16.0219225012
100
AcDbArc
50
350.880099947
51
356.960722137
0
ARC
5
124
100
AcDbEntity
8
Layer_1
6
ByLayer
62
256
370
-1
100
AcDbCircle
10
-24.9722222222
20
32.1555555556
40
5.21360103983
100
AcDbArc
50
321.359261733
51
352.776537391
0
ARC
5
125
100
AcDbEntity
8
Layer_1
6
ByLayer
62
256
370
-1
100
AcDbCircle
10
-24.1842105263
20
31.4631578947
40
4.16603134584
100
AcDbArc
50
287.954252403
51
322.029787994
0
ARC
5
126
100
AcDbEntity
8
Layer_1
6
ByLayer
62
256
370
-1
100
AcDbCircle
10
-34.5499999999
20
61.65
40
36.0824749705
100
AcDbArc
50
283.054126305
51
288.836665497
0
ARC
5
127
100
AcDbEntity
8
Layer_1
6
ByLayer
62
256
370
-1
100
AcDbCircle
10
-26.2699999999
20
25.98
40
0.53600373133
100
AcDbArc
50
104.036243468
51
188.58362148
0
LINE
5
128
100
AcDbEntity
8
Layer_1
6
ByLayer
62
256
370
-1
100
AcDbLine
10
-26.7999999999
20
25.9
11
-26.5199999999
21
21.51
0
ARC
5
129
100
AcDbEntity
8
Layer_1
6
ByLayer
62
256
370
-1
100
AcDbCircle
10
-26.1022307692
20
21.5065384615
40
0.417783571273
100
AcDbArc
50
179.525271391
51
274.424596631
0
ARC
5
12A
100
AcDbEntity
8
Layer_1
6
ByLayer
62
256
370
-1
100
AcDbCircle
10
-9.65039124354
20
-110.864471355
40
132.972125133
100
AcDbArc
50
92.3056918641
51
97.0930776733
0
ARC
5
12B
100
AcDbEntity
8
Layer_1
6
ByLayer
62
256
370
-1
100
AcDbCircle
10
-10.707368421
20
33.6536842105
40
0.214879338685
100
AcDbArc
50
15.193576536
51
66.0090127539
0
LINE
5
12C
100
AcDbEntity
8
Layer_1
6
ByLayer
62
256
370
-1
100
AcDbLine
10
-10.6199999999
20
33.85
11
-12.6499999999
21
34.67
0
ARC
5
12D
100
AcDbEntity
8
Layer_1
6
ByLayer
62
256
370
-1
100
AcDbCircle
10
-12.8399999999
20
34.085
40
0.61508129544
100
AcDbArc
50
72.006912182
51
107.993087818
0
LINE
5
12E
100
AcDbEntity
8
Layer_1
6
ByLayer
62
256
370
-1
100
AcDbLine
10
-13.0299999999
20
34.67
11
-13.5799999999
21
34.47
0
ARC
5
12F
100
AcDbEntity
8
Layer_1
6
ByLayer
62
256
370
-1
100
AcDbCircle
10
-14.9519676319
20
37.4533134583
40
3.28366477789
100
AcDbArc
50
269.161866298
51
294.696778056
0
ARC
5
130
100
AcDbEntity
8
Layer_1
6
ByLayer
62
256
370
-1
100
AcDbCircle
10
-11.8699999999
20
33.12
40
1.49164338902
100
AcDbArc
50
2.68977032314
51
23.2994632607
0
ARC
5
131
100
AcDbEntity
8
Layer_1
6
ByLayer
62
256
370
-1
100
AcDbCircle
10
5.61938642306
20
34.0394908616
40
16.0219225012
100
AcDbArc
50
183.039277863
51
189.119900053
0
ARC
5
132
100
AcDbEntity
8
Layer_1
6
ByLayer
62
256
370
-1
100
AcDbCircle
10
-5.02777777774
20
32.1555555556
40
5.21360103983
100
AcDbArc
50
187.223462609
51
218.640738267
0
ARC
5
133
100
AcDbEntity
8
Layer_1
6
ByLayer
62
256
370
-1
100
AcDbCircle
10
-5.81578947364
20
31.4631578947
40
4.16603134584
100
AcDbArc
50
217.970212006
51
252.045747597
0
ARC
5
134
100
AcDbEntity
8
Layer_1
6
ByLayer
62
256
370
-1
100
AcDbCircle
10
4.55000000006
20
61.65
40
36.0824749705
100
AcDbArc
50
251.163334503
51
256.945873695
0
ARC
5
135
100
AcDbEntity
8
Layer_1
6
ByLayer
62
256
370
-1
100
AcDbCircle
10
-3.72999999994
20
25.98
40
0.53600373133
100
AcDbArc
50
351.41637852
51
75.9637565321
0
LINE
5
136
100
AcDbEntity
8
Layer_1
6
ByLayer
62
256
370
-1
100
AcDbLine
10
-3.19999999994
20
25.9
11
-3.47999999994
21
21.51
0
ARC
5
137
100
AcDbEntity
8
Layer_1
6
ByLayer
62
256
370
-1
100
AcDbCircle
10
-3.89776923074
20
21.5065384615
40
0.417783571273
100
AcDbArc
50
265.575403369
51
0.47472860924
0
ARC
5
138
100
AcDbEntity
8
Layer_1
6
ByLayer
62
256
370
-1
100
AcDbCircle
10
-20.3496087563
20
-110.864471355
40
132.972125133
100
AcDbArc
50
82.9069223267
51
87.6943081359
0
CIRCLE
5
139
100
AcDbEntity
8
Layer_1
6
ByLayer
62
256
370
-1
100
AcDbCircle
10
-24.9599999999
20
25.09
40
0.07
0
CIRCLE
5
13A
100
AcDbEntity
8
Layer_1
6
ByLayer
62
256
370
-1
100
AcDbCircle
10
-18.1999999999
20
33.74
40
0.07
0
CIRCLE
5
13B
100
AcDbEntity
8
Layer_1
6
ByLayer
62
256
370
-1
100
AcDbCircle
10
-14.9999999999
20
28.6
40
0.07
0
CIRCLE
5
13C
100
AcDbEntity
8
Layer_1
6
ByLayer
62
256
370
-1
100
AcDbCircle
10
-5.03999999994
20
25.09
40
0.07
0
CIRCLE
5
13D
100
AcDbEntity
8
Layer_1
6
ByLayer
62
256
370
-1
100
AcDbCircle
10
-11.7999999999
20
33.74
40
0.07
0
ENDSEC
0
SECTION
2
OBJECTS
0
DICTIONARY
5
C
330
0
100
AcDbDictionary
281
1
3
ACAD_GROUP
350
D
0
DICTIONARY
5
D
330
C
100
AcDbDictionary
281
1
0
ENDSEC
0
EOF
