999
dxfrw 0.5.10
0
SECTION
2
HEADER
9
$ACADVER
1
AC1021
9
$HANDSEED
5
20000
9
$DWGCODEPAGE
3
ANSI_1252
9
$INSBASE
10
0
20
0
30
0
9
$EXTMIN
10
-18.12
20
-0.522404275527
30
0
9
$EXTMAX
10
18.12
20
31
30
0
9
$LIMMIN
10
0
20
0
9
$LIMMAX
10
420
20
297
9
$ORTHOMODE
70
0
9
$LTSCALE
40
1
9
$TEXTSTYLE
7
STANDARD
9
$CLAYER
8
0
9
$DIMASZ
40
0.1
9
$DIMLFAC
40
1
9
$DIMSCALE
40
1
9
$DIMEXO
40
0.025
9
$DIMEXE
40
0.05
9
$DIMTXT
40
0.1
9
$DIMTSZ
40
0
9
$DIMAUNIT
70
0
9
$DIMADEC
70
2
9
$DIMLUNIT
70
2
9
$DIMSTYLE
2
STANDARD
9
$DIMGAP
40
0.025
9
$DIMTIH
70
0
9
$LUNITS
70
2
9
$LUPREC
70
4
9
$AUNITS
70
0
9
$AUPREC
70
2
9
$SPLINESEGS
70
8
9
$GRIDMODE
70
1
9
$SNAPSTYLE
70
0
9
$GRIDUNIT
10
0
20
0
9
$PINSBASE
10
20.7913926625
20
-6.83983805722
30
0
9
$PLIMMIN
10
0
20
0
9
$PLIMMAX
10
17.9921259843
20
12.0078740157
9
$INSUNITS
70
1
9
$PSVPSCALE
40
1
0
ENDSEC
0
SECTION
2
CLASSES
0
ENDSEC
0
SECTION
2
TABLES
0
TABLE
2
VPORT
5
8
330
0
100
AcDbSymbolTable
70
1
0
VPORT
5
31
330
2
100
AcDbSymbolTableRecord
100
AcDbViewportTableRecord
2
*ACTIVE
70
0
10
0
20
0
11
1
21
1
12
6.67657071298
22
21.509570596
13
0
23
0
14
10
24
10
15
10
25
10
16
0
26
0
36
1
17
0
27
0
37
0
40
47.1489787463
41
1.04087591241
42
50
43
0
44
0
50
0
51
0
71
0
72
100
73
1
74
3
75
0
76
1
77
0
78
0
281
0
65
1
110
0
120
0
130
0
111
1
121
0
131
0
112
0
122
1
132
0
79
0
146
0
348
10020
60
7
61
5
292
1
282
1
141
0
142
0
63
250
421
3358443
0
ENDTAB
0
TABLE
2
LTYPE
5
5
330
0
100
AcDbSymbolTable
70
4
0
LTYPE
5
14
330
5
100
AcDbSymbolTableRecord
100
AcDbLinetypeTableRecord
2
ByBlock
70
0
3

72
65
73
0
40
0
0
LTYPE
5
15
330
5
100
AcDbSymbolTableRecord
100
AcDbLinetypeTableRecord
2
ByLayer
70
0
3

72
65
73
0
40
0
0
LTYPE
5
16
330
5
100
AcDbSymbolTableRecord
100
AcDbLinetypeTableRecord
2
Continuous
70
0
3
Solid line
72
65
73
0
40
0
0
LTYPE
5
32
330
5
100
AcDbSymbolTableRecord
100
AcDbLinetypeTableRecord
2
DOT
70
0
3
Dot . . . . . . . . . . . . . . . . . . . . . .
72
65
73
2
40
6.35
49
0
74
0
49
-6.35
74
0
0
LTYPE
5
33
330
5
100
AcDbSymbolTableRecord
100
AcDbLinetypeTableRecord
2
DOT2
70
0
3
Dot (.5x) .....................................
72
65
73
2
40
3.175
49
0
74
0
49
-3.175
74
0
0
LTYPE
5
34
330
5
100
AcDbSymbolTableRecord
100
AcDbLinetypeTableRecord
2
DOTX2
70
0
3
Dot (2x) .  .  .  .  .  .  .  .  .  .  .  .  .
72
65
73
2
40
12.7
49
0
74
0
49
-12.7
74
0
0
LTYPE
5
35
330
5
100
AcDbSymbolTableRecord
100
AcDbLinetypeTableRecord
2
DASHED
70
0
3
Dot . . . . . . . . . . . . . . . . . . . . . .
72
65
73
2
40
19.05
49
12.7
74
0
49
-6.35
74
0
0
LTYPE
5
36
330
5
100
AcDbSymbolTableRecord
100
AcDbLinetypeTableRecord
2
DASHED2
70
0
3
Dashed (.5x) _ _ _ _ _ _ _ _ _ _ _ _ _ _ _ _ _
72
65
73
2
40
9.525
49
6.35
74
0
49
-3.175
74
0
0
LTYPE
5
37
330
5
100
AcDbSymbolTableRecord
100
AcDbLinetypeTableRecord
2
DASHEDX2
70
0
3
Dashed (2x) ____  ____  ____  ____  ____  ___
72
65
73
2
40
38.1
49
25.4
74
0
49
-12.7
74
0
0
LTYPE
5
38
330
5
100
AcDbSymbolTableRecord
100
AcDbLinetypeTableRecord
2
DASHDOT
70
0
3
Dash dot __ . __ . __ . __ . __ . __ . __ . __
72
65
73
4
40
25.4
49
12.7
74
0
49
-6.35
74
0
49
0
74
0
49
-6.35
74
0
0
LTYPE
5
39
330
5
100
AcDbSymbolTableRecord
100
AcDbLinetypeTableRecord
2
DASHDOT2
70
0
3
Dash dot (.5x) _._._._._._._._._._._._._._._.
72
65
73
4
40
12.7
49
6.35
74
0
49
-3.175
74
0
49
0
74
0
49
-3.175
74
0
0
LTYPE
5
3A
330
5
100
AcDbSymbolTableRecord
100
AcDbLinetypeTableRecord
2
DASHDOTX2
70
0
3
Dash dot (2x) ____  .  ____  .  ____  .  ___
72
65
73
4
40
50.8
49
25.4
74
0
49
-12.7
74
0
49
0
74
0
49
-12.7
74
0
0
LTYPE
5
3B
330
5
100
AcDbSymbolTableRecord
100
AcDbLinetypeTableRecord
2
DIVIDE
70
0
3
Divide ____ . . ____ . . ____ . . ____ . . ____
72
65
73
6
40
31.75
49
12.7
74
0
49
-6.35
74
0
49
0
74
0
49
-6.35
74
0
49
0
74
0
49
-6.35
74
0
0
LTYPE
5
3C
330
5
100
AcDbSymbolTableRecord
100
AcDbLinetypeTableRecord
2
DIVIDE2
70
0
3
Divide (.5x) __..__..__..__..__..__..__..__.._
72
65
73
6
40
15.875
49
6.35
74
0
49
-3.175
74
0
49
0
74
0
49
-3.175
74
0
49
0
74
0
49
-3.175
74
0
0
LTYPE
5
3D
330
5
100
AcDbSymbolTableRecord
100
AcDbLinetypeTableRecord
2
DIVIDEX2
70
0
3
Divide (2x) ________  .  .  ________  .  .  _
72
65
73
6
40
63.5
49
25.4
74
0
49
-12.7
74
0
49
0
74
0
49
-12.7
74
0
49
0
74
0
49
-12.7
74
0
0
LTYPE
5
3E
330
5
100
AcDbSymbolTableRecord
100
AcDbLinetypeTableRecord
2
BORDER
70
0
3
Border __ __ . __ __ . __ __ . __ __ . __ __ .
72
65
73
6
40
44.45
49
12.7
74
0
49
-6.35
74
0
49
12.7
74
0
49
-6.35
74
0
49
0
74
0
49
-6.35
74
0
0
LTYPE
5
3F
330
5
100
AcDbSymbolTableRecord
100
AcDbLinetypeTableRecord
2
BORDER2
70
0
3
Border (.5x) __.__.__.__.__.__.__.__.__.__.__.
72
65
73
6
40
22.225
49
6.35
74
0
49
-3.175
74
0
49
6.35
74
0
49
-3.175
74
0
49
0
74
0
49
-3.175
74
0
0
LTYPE
5
40
330
5
100
AcDbSymbolTableRecord
100
AcDbLinetypeTableRecord
2
BORDERX2
70
0
3
Border (2x) ____  ____  .  ____  ____  .  ___
72
65
73
6
40
88.9
49
25.4
74
0
49
-12.7
74
0
49
25.4
74
0
49
-12.7
74
0
49
0
74
0
49
-12.7
74
0
0
LTYPE
5
41
330
5
100
AcDbSymbolTableRecord
100
AcDbLinetypeTableRecord
2
CENTER
70
0
3
Center ____ _ ____ _ ____ _ ____ _ ____ _ ____
72
65
73
4
40
50.8
49
31.75
74
0
49
-6.35
74
0
49
6.35
74
0
49
-6.35
74
0
0
LTYPE
5
42
330
5
100
AcDbSymbolTableRecord
100
AcDbLinetypeTableRecord
2
CENTER2
70
0
3
Center (.5x) ___ _ ___ _ ___ _ ___ _ ___ _ ___
72
65
73
4
40
28.575
49
19.05
74
0
49
-3.175
74
0
49
3.175
74
0
49
-3.175
74
0
0
LTYPE
5
43
330
5
100
AcDbSymbolTableRecord
100
AcDbLinetypeTableRecord
2
CENTERX2
70
0
3
Center (2x) ________  __  ________  __  _____
72
65
73
4
40
101.6
49
63.5
74
0
49
-12.7
74
0
49
12.7
74
0
49
-12.7
74
0
0
ENDTAB
0
TABLE
2
LAYER
5
2
330
0
100
AcDbSymbolTable
70
1
0
LAYER
5
10
330
2
100
AcDbSymbolTableRecord
100
AcDbLayerTableRecord
2
0
70
0
62
7
6
CONTINUOUS
370
0
390
F
0
ENDTAB
0
TABLE
2
STYLE
5
3
330
0
100
AcDbSymbolTable
70
3
0
STYLE
5
44
330
2
100
AcDbSymbolTableRecord
100
AcDbTextStyleTableRecord
2
iso
70
0
40
0
41
1
50
0
71
0
42
1
3
iso
4

0
STYLE
5
45
330
2
100
AcDbSymbolTableRecord
100
AcDbTextStyleTableRecord
2
Standard
70
0
40
0
41
1
50
0
71
0
42
1
3
txt
4

0
ENDTAB
0
TABLE
2
VIEW
5
6
330
0
100
AcDbSymbolTable
70
0
0
ENDTAB
0
TABLE
2
UCS
5
7
330
0
100
AcDbSymbolTable
70
0
0
ENDTAB
0
TABLE
2
APPID
5
9
330
0
100
AcDbSymbolTable
70
1
0
APPID
5
12
330
9
100
AcDbSymbolTableRecord
100
AcDbRegAppTableRecord
2
ACAD
70
0
0
ENDTAB
0
TABLE
2
DIMSTYLE
5
A
330
0
100
AcDbSymbolTable
70
1
100
AcDbDimStyleTable
71
1
0
DIMSTYLE
105
46
330
A
100
AcDbSymbolTableRecord
100
AcDbDimStyleTableRecord
2
Standard
70
0
40
1
41
0.1
42
0.025
43
0.38
44
0.05
45
0
46
0
47
0
48
0
140
0.1
141
0.09
142
0
143
25.4
144
1
145
0
146
1
147
0.025
148
0
71
0
72
0
73
0
74
1
75
0
76
0
77
0
78
0
79
0
170
0
171
2
172
0
173
0
174
0
175
0
176
0
177
0
178
0
179
0
271
4
272
4
273
2
274
2
275
0
276
0
277
2
278
46
279
0
280
0
281
0
282
0
283
1
284
0
285
0
286
0
288
0
289
3
340
Standard
341

371
-2
372
-2
0
ENDTAB
0
TABLE
2
BLOCK_RECORD
5
1
330
0
100
AcDbSymbolTable
70
2
0
BLOCK_RECORD
5
1F
330
1
100
AcDbSymbolTableRecord
100
AcDbBlockTableRecord
2
*Model_Space
70
0
280
1
281
0
0
BLOCK_RECORD
5
1E
330
1
100
AcDbSymbolTableRecord
100
AcDbBlockTableRecord
2
*Paper_Space
70
0
280
1
281
0
0
BLOCK_RECORD
5
47
330
1
100
AcDbSymbolTableRecord
100
AcDbBlockTableRecord
2
arms_early_15thC-0
70
0
280
1
281
0
0
ENDTAB
0
ENDSEC
0
SECTION
2
BLOCKS
0
BLOCK
5
20
330
1F
100
AcDbEntity
8
0
100
AcDbBlockBegin
2
*Model_Space
70
0
10
0
20
0
30
0
3
*Model_Space
1

0
ENDBLK
5
21
330
1F
100
AcDbEntity
8
0
100
AcDbBlockEnd
0
BLOCK
5
1C
330
1B
100
AcDbEntity
8
0
100
AcDbBlockBegin
2
*Paper_Space
70
0
10
0
20
0
30
0
3
*Paper_Space
1

0
ENDBLK
5
1D
330
1F
100
AcDbEntity
8
0
100
AcDbBlockEnd
0
BLOCK
5
48
330
47
100
AcDbEntity
8
0
100
AcDbBlockBegin
2
arms_early_15thC-0
70
0
10
0
20
0
3
arms_early_15thC-0
1

0
ARC
5
4A
100
AcDbEntity
8
0
6
ByLayer
62
256
370
-1
100
AcDbCircle
10
4.32514705882
20
7.59264705882
40
0.281003400157
100
AcDbArc
50
99.2454244832
51
150.738615914
0
LINE
5
4B
100
AcDbEntity
8
0
6
ByLayer
62
256
370
-1
100
AcDbLine
10
4.08
20
7.73
11
3.87
21
7.42
0
ARC
5
4C
100
AcDbEntity
8
0
6
ByLayer
62
256
370
-1
100
AcDbCircle
10
4.10807692308
20
7.29576923077
40
0.268540323463
100
AcDbArc
50
152.444025183
51
183.366460663
0
ARC
5
4D
100
AcDbEntity
8
0
6
ByLayer
62
256
370
-1
100
AcDbCircle
10
19.486407767
20
8.82189320388
40
15.7221980226
100
AcDbArc
50
185.628106444
51
190.74749758
0
ARC
5
4E
100
AcDbEntity
8
0
6
ByLayer
62
256
370
-1
100
AcDbCircle
10
39.9262962963
20
13.5264814815
40
36.6898093656
100
AcDbArc
50
192.013157483
51
196.786885131
0
ARC
5
4F
100
AcDbEntity
8
0
6
ByLayer
62
256
370
-1
100
AcDbCircle
10
-12.7297798742
20
-1.6684591195
40
18.122886324
100
AcDbArc
50
9.39526138175
51
14.6987996007
0
ARC
5
50
100
AcDbEntity
8
0
6
ByLayer
62
256
370
-1
100
AcDbCircle
10
5.58921052632
20
1.38684210526
40
0.449760246997
100
AcDbArc
50
192.434266304
51
224.786653028
0
LINE
5
51
100
AcDbEntity
8
0
6
ByLayer
62
256
370
-1
100
AcDbLine
10
5.27
20
1.07
11
5.6
21
0.82
0
ARC
5
52
100
AcDbEntity
8
0
6
ByLayer
62
256
370
-1
100
AcDbCircle
10
5.715
20
0.975
40
0.193002590656
100
AcDbArc
50
233.426969021
51
286.557071376
0
ARC
5
53
100
AcDbEntity
8
0
6
ByLayer
62
256
370
-1
100
AcDbCircle
10
7.92231884058
20
-43.0667391304
40
51.0667982135
100
AcDbArc
50
89.9128434824
51
94.0900712716
0
ARC
5
54
100
AcDbEntity
8
0
6
ByLayer
62
256
370
-1
100
AcDbCircle
10
11.6748529412
20
7.59264705882
40
0.281003400157
100
AcDbArc
50
29.2613840861
51
80.7545755168
0
LINE
5
55
100
AcDbEntity
8
0
6
ByLayer
62
256
370
-1
100
AcDbLine
10
11.92
20
7.73
11
12.13
21
7.42
0
ARC
5
56
100
AcDbEntity
8
0
6
ByLayer
62
256
370
-1
100
AcDbCircle
10
11.8919230769
20
7.29576923077
40
0.268540323463
100
AcDbArc
50
356.633539337
51
27.5559748175
0
ARC
5
57
100
AcDbEntity
8
0
6
ByLayer
62
256
370
-1
100
AcDbCircle
10
-3.48640776699
20
8.82189320388
40
15.7221980226
100
AcDbArc
50
349.25250242
51
354.371893556
0
ARC
5
58
100
AcDbEntity
8
0
6
ByLayer
62
256
370
-1
100
AcDbCircle
10
-23.9262962963
20
13.5264814815
40
36.6898093656
100
AcDbArc
50
343.213114869
51
347.986842517
0
ARC
5
59
100
AcDbEntity
8
0
6
ByLayer
62
256
370
-1
100
AcDbCircle
10
28.7297798742
20
-1.6684591195
40
18.122886324
100
AcDbArc
50
165.301200399
51
170.604738618
0
ARC
5
5A
100
AcDbEntity
8
0
6
ByLayer
62
256
370
-1
100
AcDbCircle
10
10.4107894737
20
1.38684210526
40
0.449760246997
100
AcDbArc
50
315.213346972
51
347.565733696
0
LINE
5
5B
100
AcDbEntity
8
0
6
ByLayer
62
256
370
-1
100
AcDbLine
10
10.73
20
1.07
11
10.4
21
0.82
0
ARC
5
5C
100
AcDbEntity
8
0
6
ByLayer
62
256
370
-1
100
AcDbCircle
10
10.285
20
0.975
40
0.193002590656
100
AcDbArc
50
253.442928624
51
306.573030979
0
ARC
5
5D
100
AcDbEntity
8
0
6
ByLayer
62
256
370
-1
100
AcDbCircle
10
8.07768115942
20
-43.0667391304
40
51.0667982135
100
AcDbArc
50
85.9099287284
51
90.0871565176
0
ARC
5
5E
100
AcDbEntity
8
0
6
ByLayer
62
256
370
-1
100
AcDbCircle
10
7.94700275103
20
-8.51982324622
40
9.56097013141
100
AcDbArc
50
89.6824031244
51
103.161513311
0
ARC
5
5F
100
AcDbEntity
8
0
6
ByLayer
62
256
370
-1
100
AcDbCircle
10
8.05299724897
20
-8.51982324622
40
9.56097013141
100
AcDbArc
50
76.8384866885
51
90.3175968756
0
ARC
5
60
100
AcDbEntity
8
0
6
ByLayer
62
256
370
-1
100
AcDbCircle
10
13.6908823529
20
8.02735294118
40
0.122985497218
100
AcDbArc
50
85.7484221487
51
169.388761909
0
ARC
5
61
100
AcDbEntity
8
0
6
ByLayer
62
256
370
-1
100
AcDbCircle
10
48.3382638215
20
8.71548011639
40
34.7746320318
100
AcDbArc
50
181.096532946
51
192.666914316
0
ARC
5
62
100
AcDbEntity
8
0
6
ByLayer
62
256
370
-1
100
AcDbCircle
10
14.5826923077
20
1.17269230769
40
0.191469712716
100
AcDbArc
50
205.587051104
51
287.415817544
0
ARC
5
63
100
AcDbEntity
8
0
6
ByLayer
62
256
370
-1
100
AcDbCircle
10
20.3091176471
20
8.02735294118
40
0.122985497218
100
AcDbArc
50
10.611238091
51
94.2515778513
0
ARC
5
64
100
AcDbEntity
8
0
6
ByLayer
62
256
370
-1
100
AcDbCircle
10
-14.3382638215
20
8.71548011639
40
34.7746320318
100
AcDbArc
50
347.333085684
51
358.903467054
0
ARC
5
65
100
AcDbEntity
8
0
6
ByLayer
62
256
370
-1
100
AcDbCircle
10
19.4173076923
20
1.17269230769
40
0.191469712716
100
AcDbArc
50
252.584182456
51
334.412948896
0
ARC
5
66
100
AcDbEntity
8
0
6
ByLayer
62
256
370
-1
100
AcDbCircle
10
16.8528415842
20
-6.84600990099
40
8.22732608388
100
AcDbArc
50
72.2577476908
51
88.9751219645
0
ARC
5
67
100
AcDbEntity
8
0
6
ByLayer
62
256
370
-1
100
AcDbCircle
10
17.1471584158
20
-6.84600990099
40
8.22732608388
100
AcDbArc
50
91.0248780355
51
107.742252309
0
ARC
5
68
100
AcDbEntity
8
0
6
ByLayer
62
256
370
-1
100
AcDbCircle
10
17.9083739255
20
20.8136676218
40
13.3446202168
100
AcDbArc
50
251.617386396
51
266.096833887
0
ARC
5
69
100
AcDbEntity
8
0
6
ByLayer
62
256
370
-1
100
AcDbCircle
10
16.0916260745
20
20.8136676218
40
13.3446202168
100
AcDbArc
50
273.903166113
51
288.382613604
0
ARC
5
6A
100
AcDbEntity
8
0
6
ByLayer
62
256
370
-1
100
AcDbCircle
10
11.9518269231
20
8.6861538462
40
0.188273675008
100
AcDbArc
50
278.606004349
51
358.126916978
0
LINE
5
6B
100
AcDbEntity
8
0
6
ByLayer
62
256
370
-1
100
AcDbLine
10
11.98
20
8.5
11
8
21
8.5
0
LINE
5
6C
100
AcDbEntity
8
0
6
ByLayer
62
256
370
-1
100
AcDbLine
10
12.14
20
8.68
11
12.13
21
9.89
0
ARC
5
6D
100
AcDbEntity
8
0
6
ByLayer
62
256
370
-1
100
AcDbCircle
10
11.4434343434
20
9.7282323232
40
0.705365991541
100
AcDbArc
50
13.2581378207
51
52.7895972909
0
ARC
5
6E
100
AcDbEntity
8
0
6
ByLayer
62
256
370
-1
100
AcDbCircle
10
7.47434782609
20
-7.07467391304
40
17.9123883985
100
AcDbArc
50
75.7946844682
51
88.3183719106
0
CIRCLE
5
6F
100
AcDbEntity
8
0
6
ByLayer
62
256
370
-1
100
AcDbCircle
10
8.002
20
8.891
40
0.03
0
CIRCLE
5
70
100
AcDbEntity
8
0
6
ByLayer
62
256
370
-1
100
AcDbCircle
10
10.83
20
8.91
40
0.03
0
CIRCLE
5
71
100
AcDbEntity
8
0
6
ByLayer
62
256
370
-1
100
AcDbCircle
10
11.683
20
9.887
40
0.03
0
ARC
5
72
100
AcDbEntity
8
0
6
ByLayer
62
256
370
-1
100
AcDbCircle
10
4.26571428571
20
12.0971428571
40
0.3963738701
100
AcDbArc
50
130.175727877
51
176.694169768
0
LINE
5
73
100
AcDbEntity
8
0
6
ByLayer
62
256
370
-1
100
AcDbLine
10
3.87
20
12.12
11
3.92
21
11.06
0
ARC
5
74
100
AcDbEntity
8
0
6
ByLayer
62
256
370
-1
100
AcDbCircle
10
4.21620689655
20
11.1779310345
40
0.318820097326
100
AcDbArc
50
201.709349667
51
274.279883917
0
ARC
5
75
100
AcDbEntity
8
0
6
ByLayer
62
256
370
-1
100
AcDbCircle
10
1.13
20
39.64
40
28.9475473918
100
AcDbArc
50
276.167515865
51
279.263831263
0
ARC
5
76
100
AcDbEntity
8
0
6
ByLayer
62
256
370
-1
100
AcDbCircle
10
8.31030769231
20
-3.71942857143
40
15.0026380458
100
AcDbArc
50
91.1851641692
51
99.671030203
0
ARC
5
77
100
AcDbEntity
8
0
6
ByLayer
62
256
370
-1
100
AcDbCircle
10
5.124
20
11.11
40
1.70443421698
100
AcDbArc
50
111.114742021
51
130.812771043
0
ARC
5
78
100
AcDbEntity
8
0
6
ByLayer
62
256
370
-1
100
AcDbCircle
10
8.20989224138
20
1.82045258621
40
11.4914644205
100
AcDbArc
50
91.0465688193
51
108.782027381
0
CIRCLE
5
79
100
AcDbEntity
8
0
6
ByLayer
62
256
370
-1
100
AcDbCircle
10
4.249
20
11.161
40
0.03
0
ARC
5
7A
100
AcDbEntity
8
0
6
ByLayer
62
256
370
-1
100
AcDbCircle
10
4.0481730769
20
8.6861538462
40
0.188273675008
100
AcDbArc
50
181.873083022
51
261.393995651
0
LINE
5
7B
100
AcDbEntity
8
0
6
ByLayer
62
256
370
-1
100
AcDbLine
10
4.02
20
8.5
11
8
21
8.5
0
LINE
5
7C
100
AcDbEntity
8
0
6
ByLayer
62
256
370
-1
100
AcDbLine
10
3.86
20
8.68
11
3.87
21
9.89
0
ARC
5
7D
100
AcDbEntity
8
0
6
ByLayer
62
256
370
-1
100
AcDbCircle
10
4.5565656566
20
9.7282323232
40
0.705365991541
100
AcDbArc
50
127.210402709
51
166.741862179
0
ARC
5
7E
100
AcDbEntity
8
0
6
ByLayer
62
256
370
-1
100
AcDbCircle
10
8.52565217391
20
-7.07467391304
40
17.9123883985
100
AcDbArc
50
91.6816280894
51
104.205315532
0
CIRCLE
5
7F
100
AcDbEntity
8
0
6
ByLayer
62
256
370
-1
100
AcDbCircle
10
5.17
20
8.91
40
0.03
0
CIRCLE
5
80
100
AcDbEntity
8
0
6
ByLayer
62
256
370
-1
100
AcDbCircle
10
4.317
20
9.887
40
0.03
0
ARC
5
81
100
AcDbEntity
8
0
6
ByLayer
62
256
370
-1
100
AcDbCircle
10
11.7342857143
20
12.0971428571
40
0.3963738701
100
AcDbArc
50
3.30583023155
51
49.8242721226
0
LINE
5
82
100
AcDbEntity
8
0
6
ByLayer
62
256
370
-1
100
AcDbLine
10
12.13
20
12.12
11
12.08
21
11.06
0
ARC
5
83
100
AcDbEntity
8
0
6
ByLayer
62
256
370
-1
100
AcDbCircle
10
11.7837931034
20
11.1779310345
40
0.318820097326
100
AcDbArc
50
265.720116083
51
338.290650333
0
ARC
5
84
100
AcDbEntity
8
0
6
ByLayer
62
256
370
-1
100
AcDbCircle
10
14.87
20
39.64
40
28.9475473918
100
AcDbArc
50
260.736168737
51
263.832484135
0
ARC
5
85
100
AcDbEntity
8
0
6
ByLayer
62
256
370
-1
100
AcDbCircle
10
7.68969230769
20
-3.71942857143
40
15.0026380458
100
AcDbArc
50
80.328969797
51
88.8148358308
0
ARC
5
86
100
AcDbEntity
8
0
6
ByLayer
62
256
370
-1
100
AcDbCircle
10
10.876
20
11.11
40
1.70443421698
100
AcDbArc
50
49.1872289568
51
68.885257979
0
ARC
5
87
100
AcDbEntity
8
0
6
ByLayer
62
256
370
-1
100
AcDbCircle
10
7.79010775862
20
1.82045258621
40
11.4914644205
100
AcDbArc
50
71.2179726188
51
88.9534311807
0
CIRCLE
5
88
100
AcDbEntity
8
0
6
ByLayer
62
256
370
-1
100
AcDbCircle
10
11.751
20
11.161
40
0.03
0
ARC
5
89
100
AcDbEntity
8
0
6
ByLayer
62
256
370
-1
100
AcDbCircle
10
-1.43375
20
16.2508333333
40
14.5641702964
100
AcDbArc
50
355.231049388
51
357.832492094
0
ARC
5
8A
100
AcDbEntity
8
0
6
ByLayer
62
256
370
-1
100
AcDbCircle
10
12.163
20
15.2106363636
40
0.932740997595
100
AcDbArc
50
327.53823023
51
349.458901122
0
ARC
5
8B
100
AcDbEntity
8
0
6
ByLayer
62
256
370
-1
100
AcDbCircle
10
12.676
20
14.904
40
0.33572607882
100
AcDbArc
50
275.812482383
51
324.700391944
0
ARC
5
8C
100
AcDbEntity
8
0
6
ByLayer
62
256
370
-1
100
AcDbCircle
10
13.9306976744
20
-10.0463953488
40
24.6466432356
100
AcDbArc
50
92.8389038659
51
95.1694420155
0
ARC
5
8D
100
AcDbEntity
8
0
6
ByLayer
62
256
370
-1
100
AcDbCircle
10
12.1735714286
20
11.5321428571
40
3.00384328649
100
AcDbArc
50
98.8777145416
51
107.306071587
0
ARC
5
8E
100
AcDbEntity
8
0
6
ByLayer
62
256
370
-1
100
AcDbCircle
10
6.99347749338
20
23.3754280671
40
9.94648602206
100
AcDbArc
50
275.807917706
51
295.528403137
0
CIRCLE
5
8F
100
AcDbEntity
8
0
6
ByLayer
62
256
370
-1
100
AcDbCircle
10
12.231
20
14.97
40
0.03
0
ARC
5
90
100
AcDbEntity
8
0
6
ByLayer
62
256
370
-1
100
AcDbCircle
10
-1.43375
20
15.1491666667
40
14.5641702964
100
AcDbArc
50
2.16750790628
51
4.76895061155
0
ARC
5
91
100
AcDbEntity
8
0
6
ByLayer
62
256
370
-1
100
AcDbCircle
10
12.163
20
16.1893636364
40
0.932740997595
100
AcDbArc
50
10.541098878
51
32.4617697701
0
ARC
5
92
100
AcDbEntity
8
0
6
ByLayer
62
256
370
-1
100
AcDbCircle
10
12.676
20
16.496
40
0.33572607882
100
AcDbArc
50
35.2996080561
51
84.1875176169
0
ARC
5
93
100
AcDbEntity
8
0
6
ByLayer
62
256
370
-1
100
AcDbCircle
10
13.9306976744
20
41.4463953488
40
24.6466432356
100
AcDbArc
50
264.830557984
51
267.161096134
0
ARC
5
94
100
AcDbEntity
8
0
6
ByLayer
62
256
370
-1
100
AcDbCircle
10
12.1735714286
20
19.8678571429
40
3.00384328649
100
AcDbArc
50
252.693928413
51
261.122285458
0
ARC
5
95
100
AcDbEntity
8
0
6
ByLayer
62
256
370
-1
100
AcDbCircle
10
6.99347749338
20
8.02457193292
40
9.94648602206
100
AcDbArc
50
64.4715968628
51
84.1920822937
0
CIRCLE
5
96
100
AcDbEntity
8
0
6
ByLayer
62
256
370
-1
100
AcDbCircle
10
12.231
20
16.43
40
0.03
0
ARC
5
97
100
AcDbEntity
8
0
6
ByLayer
62
256
370
-1
100
AcDbCircle
10
3.82642857143
20
11.5321428571
40
3.00384328649
100
AcDbArc
50
72.6939284129
51
81.1222854584
0
ARC
5
98
100
AcDbEntity
8
0
6
ByLayer
62
256
370
-1
100
AcDbCircle
10
9.00652250662
20
23.3754280671
40
9.94648602206
100
AcDbArc
50
244.471596863
51
264.192082294
0
CIRCLE
5
99
100
AcDbEntity
8
0
6
ByLayer
62
256
370
-1
100
AcDbCircle
10
3.769
20
14.97
40
0.03
0
ARC
5
9A
100
AcDbEntity
8
0
6
ByLayer
62
256
370
-1
100
AcDbCircle
10
3.82642857143
20
19.8678571429
40
3.00384328649
100
AcDbArc
50
278.877714542
51
287.306071587
0
ARC
5
9B
100
AcDbEntity
8
0
6
ByLayer
62
256
370
-1
100
AcDbCircle
10
9.00652250662
20
8.02457193292
40
9.94648602206
100
AcDbArc
50
95.8079177063
51
115.528403137
0
CIRCLE
5
9C
100
AcDbEntity
8
0
6
ByLayer
62
256
370
-1
100
AcDbCircle
10
3.769
20
16.43
40
0.03
0
ARC
5
9D
100
AcDbEntity
8
0
6
ByLayer
62
256
370
-1
100
AcDbCircle
10
4.13333333333
20
17.7233333333
40
0.838106331095
100
AcDbArc
50
210.338452251
51
280.773638188
0
ARC
5
9E
100
AcDbEntity
8
0
6
ByLayer
62
256
370
-1
100
AcDbCircle
10
4.13333333333
20
13.6766666667
40
0.838106331095
100
AcDbArc
50
79.2263618122
51
149.661547749
0
CIRCLE
5
9F
100
AcDbEntity
8
0
6
ByLayer
62
256
370
-1
100
AcDbCircle
10
12.771
20
15.71
40
0.03
0
CIRCLE
5
A0
100
AcDbEntity
8
0
6
ByLayer
62
256
370
-1
100
AcDbCircle
10
3.229
20
15.71
40
0.03
0
ARC
5
A1
100
AcDbEntity
8
0
6
ByLayer
62
256
370
-1
100
AcDbCircle
10
1.48283609576
20
14.9479742173
40
2.1054740528
100
AcDbArc
50
312.674689368
51
336.249955048
0
ARC
5
A2
100
AcDbEntity
8
0
6
ByLayer
62
256
370
-1
100
AcDbCircle
10
2.2020233463
20
14.2361867704
40
1.09564558924
100
AcDbArc
50
215.496283387
51
310.253683915
0
ARC
5
A3
100
AcDbEntity
8
0
6
ByLayer
62
256
370
-1
100
AcDbCircle
10
1.48283609576
20
16.4520257827
40
2.1054740528
100
AcDbArc
50
23.7500449516
51
47.3253106324
0
ARC
5
A4
100
AcDbEntity
8
0
6
ByLayer
62
256
370
-1
100
AcDbCircle
10
2.2020233463
20
17.1638132296
40
1.09564558924
100
AcDbArc
50
49.7463160851
51
144.503716613
0
LINE
5
A5
100
AcDbEntity
8
0
6
ByLayer
62
256
370
-1
100
AcDbLine
10
1.31
20
13.6
11
0.31
21
15.7
0
LINE
5
A6
100
AcDbEntity
8
0
6
ByLayer
62
256
370
-1
100
AcDbLine
10
1.31
20
17.8
11
0.31
21
15.7
0
ARC
5
A7
100
AcDbEntity
8
0
6
ByLayer
62
256
370
-1
100
AcDbCircle
10
7.83756637168
20
31.7988938053
40
10.8201131165
100
AcDbArc
50
270.860167621
51
284.846458983
0
ARC
5
A8
100
AcDbEntity
8
0
6
ByLayer
62
256
370
-1
100
AcDbCircle
10
9.04018348624
20
25.3161009174
40
4.27477512771
100
AcDbArc
50
291.544753366
51
334.85938292
0
ARC
5
A9
100
AcDbEntity
8
0
6
ByLayer
62
256
370
-1
100
AcDbCircle
10
8.16243362832
20
31.7988938053
40
10.8201131165
100
AcDbArc
50
255.153541017
51
269.139832379
0
ARC
5
AA
100
AcDbEntity
8
0
6
ByLayer
62
256
370
-1
100
AcDbCircle
10
6.95981651376
20
25.3161009174
40
4.27477512771
100
AcDbArc
50
205.14061708
51
248.455246634
0
CIRCLE
5
AB
100
AcDbEntity
8
0
6
ByLayer
62
256
370
-1
100
AcDbCircle
10
11.53
20
22.25
40
0.03
0
CIRCLE
5
AC
100
AcDbEntity
8
0
6
ByLayer
62
256
370
-1
100
AcDbCircle
10
4.47
20
22.25
40
0.03
0
ARC
5
AD
100
AcDbEntity
8
0
6
ByLayer
62
256
370
-1
100
AcDbCircle
10
-2.25
20
20.54
40
6.10550571206
100
AcDbArc
50
28.9999151756
51
48.3197013325
0
ARC
5
AE
100
AcDbEntity
8
0
6
ByLayer
62
256
370
-1
100
AcDbCircle
10
2.82142857143
20
25.9371428571
40
1.31293408759
100
AcDbArc
50
177.255897128
51
219.614000518
0
ARC
5
AF
100
AcDbEntity
8
0
6
ByLayer
62
256
370
-1
100
AcDbCircle
10
9.24723529412
20
26.4057058824
40
7.74786469032
100
AcDbArc
50
166.609557658
51
183.001584526
0
ARC
5
B0
100
AcDbEntity
8
0
6
ByLayer
62
256
370
-1
100
AcDbCircle
10
2.49103448276
20
27.854137931
40
0.854187001778
100
AcDbArc
50
81.9941974977
51
156.1150107
0
ARC
5
B1
100
AcDbEntity
8
0
6
ByLayer
62
256
370
-1
100
AcDbCircle
10
-1.23875
20
25.13
40
14.315824341
100
AcDbArc
50
355.352272547
51
1.80131775989
0
ARC
5
B2
100
AcDbEntity
8
0
6
ByLayer
62
256
370
-1
100
AcDbCircle
10
10.4981481481
20
24.3661111111
40
2.56265054427
100
AcDbArc
50
340.246468725
51
351.108091319
0
LINE
5
B3
100
AcDbEntity
8
0
6
ByLayer
62
256
370
-1
100
AcDbLine
10
2.61
20
28.7
11
12.559
21
26.19
0
ARC
5
B4
100
AcDbEntity
8
0
6
ByLayer
62
256
370
-1
100
AcDbCircle
10
12.1767727273
20
25.3507727273
40
0.922171406684
100
AcDbArc
50
14.3931088081
51
65.5130391518
0
CIRCLE
5
B5
100
AcDbEntity
8
0
6
ByLayer
62
256
370
-1
100
AcDbCircle
10
2.51
20
25.9
40
0.03
0
CIRCLE
5
B6
100
AcDbEntity
8
0
6
ByLayer
62
256
370
-1
100
AcDbCircle
10
12.01
20
24.7
40
0.03
0
CIRCLE
5
B7
100
AcDbEntity
8
0
6
ByLayer
62
256
370
-1
100
AcDbCircle
10
4.01
20
27.6
40
0.15
0
CIRCLE
5
B8
100
AcDbEntity
8
0
6
ByLayer
62
256
370
-1
100
AcDbCircle
10
3.01
20
27.8
40
0.15
0
CIRCLE
5
B9
100
AcDbEntity
8
0
6
ByLayer
62
256
370
-1
100
AcDbCircle
10
11.89
20
12.2
40
0.03
0
CIRCLE
5
BA
100
AcDbEntity
8
0
6
ByLayer
62
256
370
-1
100
AcDbCircle
10
4.11
20
12.2
40
0.03
0
ARC
5
BB
100
AcDbEntity
8
0
6
ByLayer
62
256
370
-1
100
AcDbCircle
10
4.26571428571
20
19.3028571429
40
0.3963738701
100
AcDbArc
50
183.305830232
51
229.824272123
0
LINE
5
BC
100
AcDbEntity
8
0
6
ByLayer
62
256
370
-1
100
AcDbLine
10
3.87
20
19.28
11
3.92
21
20.34
0
ARC
5
BD
100
AcDbEntity
8
0
6
ByLayer
62
256
370
-1
100
AcDbCircle
10
4.21620689655
20
20.2220689655
40
0.318820097326
100
AcDbArc
50
85.720116083
51
158.290650333
0
ARC
5
BE
100
AcDbEntity
8
0
6
ByLayer
62
256
370
-1
100
AcDbCircle
10
1.13
20
-8.24
40
28.9475473918
100
AcDbArc
50
80.736168737
51
83.832484135
0
ARC
5
BF
100
AcDbEntity
8
0
6
ByLayer
62
256
370
-1
100
AcDbCircle
10
8.31030769231
20
35.1194285714
40
15.0026380458
100
AcDbArc
50
260.328969797
51
268.814835831
0
ARC
5
C0
100
AcDbEntity
8
0
6
ByLayer
62
256
370
-1
100
AcDbCircle
10
5.124
20
20.29
40
1.70443421698
100
AcDbArc
50
229.187228957
51
248.885257979
0
ARC
5
C1
100
AcDbEntity
8
0
6
ByLayer
62
256
370
-1
100
AcDbCircle
10
8.20989224138
20
29.5795474138
40
11.4914644205
100
AcDbArc
50
251.217972619
51
268.953431181
0
CIRCLE
5
C2
100
AcDbEntity
8
0
6
ByLayer
62
256
370
-1
100
AcDbCircle
10
4.249
20
20.239
40
0.03
0
ARC
5
C3
100
AcDbEntity
8
0
6
ByLayer
62
256
370
-1
100
AcDbCircle
10
11.7342857143
20
19.3028571429
40
0.3963738701
100
AcDbArc
50
310.175727877
51
356.694169768
0
LINE
5
C4
100
AcDbEntity
8
0
6
ByLayer
62
256
370
-1
100
AcDbLine
10
12.13
20
19.28
11
12.08
21
20.34
0
ARC
5
C5
100
AcDbEntity
8
0
6
ByLayer
62
256
370
-1
100
AcDbCircle
10
11.7837931034
20
20.2220689655
40
0.318820097326
100
AcDbArc
50
21.709349667
51
94.279883917
0
ARC
5
C6
100
AcDbEntity
8
0
6
ByLayer
62
256
370
-1
100
AcDbCircle
10
14.87
20
-8.24
40
28.9475473918
100
AcDbArc
50
96.167515865
51
99.263831263
0
ARC
5
C7
100
AcDbEntity
8
0
6
ByLayer
62
256
370
-1
100
AcDbCircle
10
7.68969230769
20
35.1194285714
40
15.0026380458
100
AcDbArc
50
271.185164169
51
279.671030203
0
ARC
5
C8
100
AcDbEntity
8
0
6
ByLayer
62
256
370
-1
100
AcDbCircle
10
10.876
20
20.29
40
1.70443421698
100
AcDbArc
50
291.114742021
51
310.812771043
0
ARC
5
C9
100
AcDbEntity
8
0
6
ByLayer
62
256
370
-1
100
AcDbCircle
10
7.79010775862
20
29.5795474138
40
11.4914644205
100
AcDbArc
50
271.046568819
51
288.782027381
0
CIRCLE
5
CA
100
AcDbEntity
8
0
6
ByLayer
62
256
370
-1
100
AcDbCircle
10
11.751
20
20.239
40
0.03
0
CIRCLE
5
CB
100
AcDbEntity
8
0
6
ByLayer
62
256
370
-1
100
AcDbCircle
10
11.89
20
19.2
40
0.03
0
CIRCLE
5
CC
100
AcDbEntity
8
0
6
ByLayer
62
256
370
-1
100
AcDbCircle
10
4.11
20
19.2
40
0.03
0
ENDBLK
5
49
330
47
100
AcDbEntity
8
0
100
AcDbBlockEnd
0
ENDSEC
0
SECTION
2
ENTITIES
0
ARC
5
CD
100
AcDbEntity
8
0
6
ByLayer
62
256
370
-1
100
AcDbCircle
10
-3.56625
20
16.1491666667
40
14.5641702964
100
AcDbArc
50
175.231049388
51
177.832492094
0
ARC
5
CE
100
AcDbEntity
8
0
6
ByLayer
62
256
370
-1
100
AcDbCircle
10
-17.163
20
17.1893636364
40
0.932740997595
100
AcDbArc
50
147.53823023
51
169.458901122
0
ARC
5
CF
100
AcDbEntity
8
0
6
ByLayer
62
256
370
-1
100
AcDbCircle
10
-17.676
20
17.496
40
0.33572607882
100
AcDbArc
50
95.8124823831
51
144.700391944
0
ARC
5
D0
100
AcDbEntity
8
0
6
ByLayer
62
256
370
-1
100
AcDbCircle
10
-18.9306976744
20
42.4463953488
40
24.6466432356
100
AcDbArc
50
272.838903866
51
275.169442016
0
ARC
5
D1
100
AcDbEntity
8
0
6
ByLayer
62
256
370
-1
100
AcDbCircle
10
-9.13333333333
20
18.7233333333
40
0.838106331095
100
AcDbArc
50
259.226361812
51
329.661547749
0
ARC
5
D2
100
AcDbEntity
8
0
6
ByLayer
62
256
370
-1
100
AcDbCircle
10
-6.48283609576
20
17.4520257827
40
2.1054740528
100
AcDbArc
50
132.674689368
51
156.249955048
0
ARC
5
D3
100
AcDbEntity
8
0
6
ByLayer
62
256
370
-1
100
AcDbCircle
10
-7.2020233463
20
18.1638132296
40
1.09564558924
100
AcDbArc
50
35.496283387
51
130.253683915
0
LINE
5
D4
100
AcDbEntity
8
0
6
ByLayer
62
256
370
-1
100
AcDbLine
10
-6.31
20
18.8
11
-5.31
21
16.7
0
ARC
5
D5
100
AcDbEntity
8
0
6
ByLayer
62
256
370
-1
100
AcDbCircle
10
-9.26571428571
20
20.3028571429
40
0.3963738701
100
AcDbArc
50
310.175727877
51
356.694169768
0
LINE
5
D6
100
AcDbEntity
8
0
6
ByLayer
62
256
370
-1
100
AcDbLine
10
-8.87
20
20.28
11
-8.92
21
21.34
0
ARC
5
D7
100
AcDbEntity
8
0
6
ByLayer
62
256
370
-1
100
AcDbCircle
10
-9.21620689655
20
21.2220689655
40
0.318820097326
100
AcDbArc
50
21.709349667
51
94.279883917
0
ARC
5
D8
100
AcDbEntity
8
0
6
ByLayer
62
256
370
-1
100
AcDbCircle
10
-6.13
20
-7.24
40
28.9475473918
100
AcDbArc
50
96.167515865
51
99.263831263
0
ARC
5
D9
100
AcDbEntity
8
0
6
ByLayer
62
256
370
-1
100
AcDbCircle
10
-13.3103076923
20
36.1194285714
40
15.0026380458
100
AcDbArc
50
271.185164169
51
279.671030203
0
ARC
5
DA
100
AcDbEntity
8
0
6
ByLayer
62
256
370
-1
100
AcDbCircle
10
-10.124
20
21.29
40
1.70443421698
100
AcDbArc
50
291.114742021
51
310.812771043
0
ARC
5
DB
100
AcDbEntity
8
0
6
ByLayer
62
256
370
-1
100
AcDbCircle
10
-13.2098922414
20
30.5795474138
40
11.4914644205
100
AcDbArc
50
271.046568819
51
288.782027381
0
ARC
5
DC
100
AcDbEntity
8
0
6
ByLayer
62
256
370
-1
100
AcDbCircle
10
-16.7342857143
20
20.3028571429
40
0.3963738701
100
AcDbArc
50
183.305830232
51
229.824272123
0
LINE
5
DD
100
AcDbEntity
8
0
6
ByLayer
62
256
370
-1
100
AcDbLine
10
-17.13
20
20.28
11
-17.08
21
21.34
0
ARC
5
DE
100
AcDbEntity
8
0
6
ByLayer
62
256
370
-1
100
AcDbCircle
10
-16.7837931034
20
21.2220689655
40
0.318820097326
100
AcDbArc
50
85.720116083
51
158.290650333
0
ARC
5
DF
100
AcDbEntity
8
0
6
ByLayer
62
256
370
-1
100
AcDbCircle
10
-19.87
20
-7.24
40
28.9475473918
100
AcDbArc
50
80.736168737
51
83.832484135
0
ARC
5
E0
100
AcDbEntity
8
0
6
ByLayer
62
256
370
-1
100
AcDbCircle
10
-12.6896923077
20
36.1194285714
40
15.0026380458
100
AcDbArc
50
260.328969797
51
268.814835831
0
ARC
5
E1
100
AcDbEntity
8
0
6
ByLayer
62
256
370
-1
100
AcDbCircle
10
-15.876
20
21.29
40
1.70443421698
100
AcDbArc
50
229.187228957
51
248.885257979
0
ARC
5
E2
100
AcDbEntity
8
0
6
ByLayer
62
256
370
-1
100
AcDbCircle
10
-12.7901077586
20
30.5795474138
40
11.4914644205
100
AcDbArc
50
251.217972619
51
268.953431181
0
CIRCLE
5
E3
100
AcDbEntity
8
0
6
ByLayer
62
256
370
-1
100
AcDbCircle
10
-16.751
20
21.239
40
0.065
0
CIRCLE
5
E4
100
AcDbEntity
8
0
6
ByLayer
62
256
370
-1
100
AcDbCircle
10
-9.249
20
21.239
40
0.065
0
CIRCLE
5
E5
100
AcDbEntity
8
0
6
ByLayer
62
256
370
-1
100
AcDbCircle
10
-17.231
20
17.43
40
0.065
0
CIRCLE
5
E6
100
AcDbEntity
8
0
6
ByLayer
62
256
370
-1
100
AcDbCircle
10
-17.771
20
16.71
40
0.065
0
CIRCLE
5
E7
100
AcDbEntity
8
0
6
ByLayer
62
256
370
-1
100
AcDbCircle
10
-8.229
20
16.71
40
0.065
0
CIRCLE
5
E8
100
AcDbEntity
8
0
6
ByLayer
62
256
370
-1
100
AcDbCircle
10
-8.769
20
17.43
40
0.065
0
CIRCLE
5
E9
100
AcDbEntity
8
0
6
ByLayer
62
256
370
-1
100
AcDbCircle
10
-13.002
20
9.891
40
0.065
0
CIRCLE
5
EA
100
AcDbEntity
8
0
6
ByLayer
62
256
370
-1
100
AcDbCircle
10
-10.17
20
9.91
40
0.065
0
ARC
5
EB
100
AcDbEntity
8
0
6
ByLayer
62
256
370
-1
100
AcDbCircle
10
-13.1409552089
20
32.5191234665
40
10.8201131165
100
AcDbArc
50
270.749690297
51
284.735981659
0
ARC
5
EC
100
AcDbEntity
8
0
6
ByLayer
62
256
370
-1
100
AcDbCircle
10
-14.0491660938
20
26.033822963
40
4.27477512771
100
AcDbArc
50
205.262059756
51
248.57668931
0
ARC
5
ED
100
AcDbEntity
8
0
6
ByLayer
62
256
370
-1
100
AcDbCircle
10
-15.505113908
20
25.0807450282
40
2.56265054427
100
AcDbArc
50
189.013351357
51
199.874973951
0
ARC
5
EE
100
AcDbEntity
8
0
6
ByLayer
62
256
370
-1
100
AcDbCircle
10
3.79381879705
20
25.8562111188
40
21.8616431991
100
AcDbArc
50
176.637020582
51
183.086065795
0
ARC
5
EF
100
AcDbEntity
8
0
6
ByLayer
62
256
370
-1
100
AcDbCircle
10
-12.8602924332
20
32.5191503234
40
10.8201131165
100
AcDbArc
50
255.274983693
51
269.261275055
0
ARC
5
F0
100
AcDbEntity
8
0
6
ByLayer
62
256
370
-1
100
AcDbCircle
10
-17.1287390432
20
26.7604602786
40
0.977555451738
100
AcDbArc
50
106.120325089
51
157.240255433
0
CIRCLE
5
F1
100
AcDbEntity
8
0
6
ByLayer
62
256
370
-1
100
AcDbCircle
10
-7.40006700916
20
26.700535865
40
0.065
0
CIRCLE
5
F2
100
AcDbEntity
8
0
6
ByLayer
62
256
370
-1
100
AcDbCircle
10
-17.0176700657
20
25.4114286868
40
0.065
0
CIRCLE
5
F3
100
AcDbEntity
8
0
6
ByLayer
62
256
370
-1
100
AcDbCircle
10
-7.1312781465
20
28.441206197
40
0.065
0
CIRCLE
5
F4
100
AcDbEntity
8
0
6
ByLayer
62
256
370
-1
100
AcDbCircle
10
-9.16019209272
20
28.2326200066
40
0.065
0
CIRCLE
5
F5
100
AcDbEntity
8
0
6
ByLayer
62
256
370
-1
100
AcDbCircle
10
-11.189106039
20
28.0240338164
40
0.065
0
CIRCLE
5
F6
100
AcDbEntity
8
0
6
ByLayer
62
256
370
-1
100
AcDbCircle
10
-13.2180199851
20
27.815447626
40
0.065
0
CIRCLE
5
F7
100
AcDbEntity
8
0
6
ByLayer
62
256
370
-1
100
AcDbCircle
10
-15.2469339314
20
27.6068614356
40
0.065
0
CIRCLE
5
F8
100
AcDbEntity
8
0
6
ByLayer
62
256
370
-1
100
AcDbCircle
10
-17.2758478777
20
27.3982752452
40
0.065
0
LINE
5
F9
100
AcDbEntity
8
0
6
ByLayer
62
256
370
-1
100
AcDbLine
10
-17.3981633012
20
27.6989928498
11
-7.11
21
28.74
0
ELLIPSE
5
FA
100
AcDbEntity
8
0
6
ByLayer
62
256
370
-1
100
AcDbEllipse
10
-16.7038846153
20
7.58961538461
30
0
11
0.222276448454
21
0
31
0
40
0.943396226415
41
2.40809588849
42
2.94779420035
0
LINE
5
FB
100
AcDbEntity
8
0
6
ByLayer
62
256
370
-1
100
AcDbLine
10
-16.604
20
8.03000000004
11
-16.869
21
7.73000000004
0
ELLIPSE
5
FC
100
AcDbEntity
8
0
6
ByLayer
62
256
370
-1
100
AcDbEllipse
10
-16.3331544117
20
7.89764705883
30
0
11
0.305024215568
21
0
31
0
40
0.943396226415
41
1.76493456899
42
2.66366030181
0
ELLIPSE
5
FD
100
AcDbEntity
8
0
6
ByLayer
62
256
370
-1
100
AcDbEllipse
10
-12.9520695652
20
-35.6324637682
30
0
11
46.5684362604
21
0
31
0
40
0.943396226415
41
1.57182557422
42
1.64473195275
0
ELLIPSE
5
FE
100
AcDbEntity
8
0
6
ByLayer
62
256
370
-1
100
AcDbEllipse
10
2.15285437008
20
9.06689320373
30
0
11
19.1355669775
21
0
31
0
40
0.943396226415
41
3.22127253261
42
3.31062276363
0
ARC
5
FF
100
AcDbEntity
8
0
6
ByLayer
62
256
370
-1
100
AcDbCircle
10
-12.7393225806
20
10.3137096774
40
8.53027428527
100
AcDbArc
50
91.751179512
51
100.542071807
0
ARC
5
100
100
AcDbEntity
8
0
6
ByLayer
62
256
370
-1
100
AcDbCircle
10
-11.6557198444
20
7.85910505837
40
11.1587284525
100
AcDbArc
50
103.707756343
51
114.538550289
0
ARC
5
101
100
AcDbEntity
8
0
6
ByLayer
62
256
370
-1
100
AcDbCircle
10
-16.9094444454
20
19.5183333362
40
1.63057685316
100
AcDbArc
50
277.025742211
51
292.327044086
0
ARC
5
102
100
AcDbEntity
8
0
6
ByLayer
62
256
370
-1
100
AcDbCircle
10
-13.2606774194
20
10.3137096774
40
8.53027428527
100
AcDbArc
50
79.4579281927
51
88.248820488
0
ARC
5
103
100
AcDbEntity
8
0
6
ByLayer
62
256
370
-1
100
AcDbCircle
10
-14.3442801556
20
7.85910505837
40
11.1587284525
100
AcDbArc
50
65.4614497109
51
76.2922436572
0
ARC
5
104
100
AcDbEntity
8
0
6
ByLayer
62
256
370
-1
100
AcDbCircle
10
-8.75357142886
20
20.805
40
2.95411249141
100
AcDbArc
50
251.109428345
51
259.53778539
0
ARC
5
105
100
AcDbEntity
8
0
6
ByLayer
62
256
370
-1
100
AcDbCircle
10
-3.56625
20
17.2508333333
40
14.5641702964
100
AcDbArc
50
182.167507906
51
184.768950612
0
ARC
5
106
100
AcDbEntity
8
0
6
ByLayer
62
256
370
-1
100
AcDbCircle
10
-17.163
20
16.2106363636
40
0.932740997595
100
AcDbArc
50
190.541098878
51
212.46176977
0
ARC
5
107
100
AcDbEntity
8
0
6
ByLayer
62
256
370
-1
100
AcDbCircle
10
-17.676
20
15.904
40
0.33572607882
100
AcDbArc
50
215.299608056
51
264.187517617
0
ARC
5
108
100
AcDbEntity
8
0
6
ByLayer
62
256
370
-1
100
AcDbCircle
10
-18.9306976744
20
-9.0463953488
40
24.6466432356
100
AcDbArc
50
84.830557984
51
87.161096134
0
ARC
5
109
100
AcDbEntity
8
0
6
ByLayer
62
256
370
-1
100
AcDbCircle
10
-9.13333333333
20
14.6766666667
40
0.838106331095
100
AcDbArc
50
30.338452251
51
100.773638188
0
ARC
5
10A
100
AcDbEntity
8
0
6
ByLayer
62
256
370
-1
100
AcDbCircle
10
-6.48283609576
20
15.9479742173
40
2.1054740528
100
AcDbArc
50
203.750044952
51
227.325310632
0
ARC
5
10B
100
AcDbEntity
8
0
6
ByLayer
62
256
370
-1
100
AcDbCircle
10
-7.2020233463
20
15.2361867704
40
1.09564558924
100
AcDbArc
50
229.746316085
51
324.503716613
0
LINE
5
10C
100
AcDbEntity
8
0
6
ByLayer
62
256
370
-1
100
AcDbLine
10
-6.31
20
14.6
11
-5.31
21
16.7
0
CIRCLE
5
10D
100
AcDbEntity
8
0
6
ByLayer
62
256
370
-1
100
AcDbCircle
10
-17.231
20
15.97
40
0.065
0
CIRCLE
5
10E
100
AcDbEntity
8
0
6
ByLayer
62
256
370
-1
100
AcDbCircle
10
-8.769
20
15.97
40
0.065
0
ARC
5
10F
100
AcDbEntity
8
0
6
ByLayer
62
256
370
-1
100
AcDbCircle
10
-12.7393225806
20
23.0862903226
40
8.53027428527
100
AcDbArc
50
259.457928193
51
268.248820488
0
ARC
5
110
100
AcDbEntity
8
0
6
ByLayer
62
256
370
-1
100
AcDbCircle
10
-11.6557198444
20
25.5408949416
40
11.1587284525
100
AcDbArc
50
245.461449711
51
256.292243657
0
ARC
5
111
100
AcDbEntity
8
0
6
ByLayer
62
256
370
-1
100
AcDbCircle
10
-16.9094444454
20
13.8816666638
40
1.63057685316
100
AcDbArc
50
67.6729559144
51
82.9742577894
0
ARC
5
112
100
AcDbEntity
8
0
6
ByLayer
62
256
370
-1
100
AcDbCircle
10
-13.2606774194
20
23.0862903226
40
8.53027428527
100
AcDbArc
50
271.751179512
51
280.542071807
0
ARC
5
113
100
AcDbEntity
8
0
6
ByLayer
62
256
370
-1
100
AcDbCircle
10
-14.3442801556
20
25.5408949416
40
11.1587284525
100
AcDbArc
50
283.707756343
51
294.538550289
0
ARC
5
114
100
AcDbEntity
8
0
6
ByLayer
62
256
370
-1
100
AcDbCircle
10
-8.75357142886
20
12.595
40
2.95411249141
100
AcDbArc
50
100.46221461
51
108.890571655
0
ARC
5
115
100
AcDbEntity
8
0
6
ByLayer
62
256
370
-1
100
AcDbCircle
10
-7.16199999999
20
27.9795
40
0.762275704707
100
AcDbArc
50
1.54105017579
51
86.088428188
0
ARC
5
116
100
AcDbEntity
8
0
6
ByLayer
62
256
370
-1
100
AcDbCircle
10
-12.1044467126
20
28.0931533558
40
6.2772822641
100
AcDbArc
50
285.86236274
51
329.423785432
0
LINE
5
117
100
AcDbEntity
8
0
6
ByLayer
62
256
370
-1
100
AcDbLine
10
-6.4
20
28
11
-6.5
21
25.7
0
ARC
5
118
100
AcDbEntity
8
0
6
ByLayer
62
256
370
-1
100
AcDbCircle
10
-11.8
20
26.6
40
5.37587202229
100
AcDbArc
50
341.565051177
51
350.362461887
0
CIRCLE
5
119
100
AcDbEntity
8
0
6
ByLayer
62
256
370
-1
100
AcDbCircle
10
-16.85
20
20.2
40
0.065
0
CIRCLE
5
11A
100
AcDbEntity
8
0
6
ByLayer
62
256
370
-1
100
AcDbCircle
10
-9.15
20
20.2
40
0.065
0
CIRCLE
5
11B
100
AcDbEntity
8
0
6
ByLayer
62
256
370
-1
100
AcDbCircle
10
-9.4
20
23
40
0.065
0
CIRCLE
5
11C
100
AcDbEntity
8
0
6
ByLayer
62
256
370
-1
100
AcDbCircle
10
-16.6
20
23
40
0.065
0
CIRCLE
5
11D
100
AcDbEntity
8
0
6
ByLayer
62
256
370
-1
100
AcDbCircle
10
-9.43
20
10.9
40
0.065
0
ARC
5
11E
100
AcDbEntity
8
0
6
ByLayer
62
256
370
-1
100
AcDbCircle
10
-9.26571428571
20
13.0971428571
40
0.3963738701
100
AcDbArc
50
3.305830232
51
49.824272123
0
LINE
5
11F
100
AcDbEntity
8
0
6
ByLayer
62
256
370
-1
100
AcDbLine
10
-8.87
20
13.12
11
-8.92
21
12.06
0
ARC
5
120
100
AcDbEntity
8
0
6
ByLayer
62
256
370
-1
100
AcDbCircle
10
-9.21620689655
20
12.1779310345
40
0.318820097326
100
AcDbArc
50
265.720116083
51
338.290650333
0
ARC
5
121
100
AcDbEntity
8
0
6
ByLayer
62
256
370
-1
100
AcDbCircle
10
-6.13
20
40.64
40
28.9475473918
100
AcDbArc
50
260.736168737
51
263.832484135
0
ARC
5
122
100
AcDbEntity
8
0
6
ByLayer
62
256
370
-1
100
AcDbCircle
10
-13.3103076923
20
-2.7194285714
40
15.0026380458
100
AcDbArc
50
80.328969797
51
88.814835831
0
ARC
5
123
100
AcDbEntity
8
0
6
ByLayer
62
256
370
-1
100
AcDbCircle
10
-10.124
20
12.11
40
1.70443421698
100
AcDbArc
50
49.187228957
51
68.885257979
0
ARC
5
124
100
AcDbEntity
8
0
6
ByLayer
62
256
370
-1
100
AcDbCircle
10
-13.2098922414
20
2.8204525862
40
11.4914644205
100
AcDbArc
50
71.217972619
51
88.953431181
0
ARC
5
125
100
AcDbEntity
8
0
6
ByLayer
62
256
370
-1
100
AcDbCircle
10
-16.7342857143
20
13.0971428571
40
0.3963738701
100
AcDbArc
50
130.175727877
51
176.694169768
0
LINE
5
126
100
AcDbEntity
8
0
6
ByLayer
62
256
370
-1
100
AcDbLine
10
-17.13
20
13.12
11
-17.08
21
12.06
0
ARC
5
127
100
AcDbEntity
8
0
6
ByLayer
62
256
370
-1
100
AcDbCircle
10
-16.7837931034
20
12.1779310345
40
0.318820097326
100
AcDbArc
50
201.709349667
51
274.279883917
0
ARC
5
128
100
AcDbEntity
8
0
6
ByLayer
62
256
370
-1
100
AcDbCircle
10
-19.87
20
40.64
40
28.9475473918
100
AcDbArc
50
276.167515865
51
279.263831263
0
ARC
5
129
100
AcDbEntity
8
0
6
ByLayer
62
256
370
-1
100
AcDbCircle
10
-12.6896923077
20
-2.7194285714
40
15.0026380458
100
AcDbArc
50
91.185164169
51
99.671030203
0
ARC
5
12A
100
AcDbEntity
8
0
6
ByLayer
62
256
370
-1
100
AcDbCircle
10
-15.876
20
12.11
40
1.70443421698
100
AcDbArc
50
111.114742021
51
130.812771043
0
ARC
5
12B
100
AcDbEntity
8
0
6
ByLayer
62
256
370
-1
100
AcDbCircle
10
-12.7901077586
20
2.8204525862
40
11.4914644205
100
AcDbArc
50
91.046568819
51
108.782027381
0
CIRCLE
5
12C
100
AcDbEntity
8
0
6
ByLayer
62
256
370
-1
100
AcDbCircle
10
-16.751
20
12.161
40
0.065
0
CIRCLE
5
12D
100
AcDbEntity
8
0
6
ByLayer
62
256
370
-1
100
AcDbCircle
10
-9.249
20
12.161
40
0.065
0
CIRCLE
5
12E
100
AcDbEntity
8
0
6
ByLayer
62
256
370
-1
100
AcDbCircle
10
-16.85
20
13.2
40
0.065
0
CIRCLE
5
12F
100
AcDbEntity
8
0
6
ByLayer
62
256
370
-1
100
AcDbCircle
10
-9.15
20
13.2
40
0.065
0
ARC
5
130
100
AcDbEntity
8
0
6
ByLayer
62
256
370
-1
100
AcDbCircle
10
-9.64222222222
20
10.8655555556
40
0.546170732588
100
AcDbArc
50
353.106305249
51
62.4966123112
0
LINE
5
131
100
AcDbEntity
8
0
6
ByLayer
62
256
370
-1
100
AcDbLine
10
-9.1
20
10.8
11
-9.34
21
9.7
0
ARC
5
132
100
AcDbEntity
8
0
6
ByLayer
62
256
370
-1
100
AcDbCircle
10
-13.474203922
20
-5.55151283127
40
17.387980264
100
AcDbArc
50
76.4150604614
51
88.4372392857
0
LINE
5
133
100
AcDbEntity
8
0
6
ByLayer
62
256
370
-1
100
AcDbLine
10
-9.6
20
9.5
11
-13
21
9.5
0
ARC
5
134
100
AcDbEntity
8
0
6
ByLayer
62
256
370
-1
100
AcDbCircle
10
-9.60202247191
20
9.77162921348
40
0.271636742747
100
AcDbArc
50
270.426599782
51
344.710584275
0
CIRCLE
5
135
100
AcDbEntity
8
0
6
ByLayer
62
256
370
-1
100
AcDbCircle
10
-15.83
20
9.90999999999
40
0.065
0
CIRCLE
5
136
100
AcDbEntity
8
0
6
ByLayer
62
256
370
-1
100
AcDbCircle
10
-16.57
20
10.9
40
0.065
0
ARC
5
137
100
AcDbEntity
8
0
6
ByLayer
62
256
370
-1
100
AcDbCircle
10
-16.7837931035
20
12.1779310345
40
0.318820097326
100
AcDbArc
50
201.709349667
51
274.279883917
0
ARC
5
138
100
AcDbEntity
8
0
6
ByLayer
62
256
370
-1
100
AcDbCircle
10
-19.8700000001
20
40.64
40
28.9475473918
100
AcDbArc
50
276.167515865
51
279.263831263
0
ARC
5
139
100
AcDbEntity
8
0
6
ByLayer
62
256
370
-1
100
AcDbCircle
10
-16.3577777778
20
10.8655555555
40
0.546170732588
100
AcDbArc
50
117.503387689
51
186.893694751
0
LINE
5
13A
100
AcDbEntity
8
0
6
ByLayer
62
256
370
-1
100
AcDbLine
10
-16.9
20
10.8
11
-16.66
21
9.69999999999
0
ARC
5
13B
100
AcDbEntity
8
0
6
ByLayer
62
256
370
-1
100
AcDbCircle
10
-12.525796078
20
-5.55151283127
40
17.387980264
100
AcDbArc
50
91.5627607144
51
103.584939539
0
LINE
5
13C
100
AcDbEntity
8
0
6
ByLayer
62
256
370
-1
100
AcDbLine
10
-16.4
20
9.49999999999
11
-13
21
9.5
0
ARC
5
13D
100
AcDbEntity
8
0
6
ByLayer
62
256
370
-1
100
AcDbCircle
10
-16.3979775281
20
9.77162921348
40
0.271636742747
100
AcDbArc
50
195.289415725
51
269.573400218
0
ARC
5
13E
100
AcDbEntity
8
0
6
ByLayer
62
256
370
-1
100
AcDbCircle
10
-7.94928571429
20
7.69785714286
40
0.270722766546
100
AcDbArc
50
134.78621077
51
179.546480874
0
ARC
5
13F
100
AcDbEntity
8
0
6
ByLayer
62
256
370
-1
100
AcDbCircle
10
-7.88891304348
20
7.95543478261
40
0.124569959694
100
AcDbArc
50
66.880184569
51
130.612139956
0
LINE
5
140
100
AcDbEntity
8
0
6
ByLayer
62
256
370
-1
100
AcDbLine
10
-8.14
20
7.89
11
-7.97
21
8.05
0
ARC
5
141
100
AcDbEntity
8
0
6
ByLayer
62
256
370
-1
100
AcDbCircle
10
21.1186771592
20
10.4473270949
40
29.4670287545
100
AcDbArc
50
185.349680667
51
192.041325088
0
ARC
5
142
100
AcDbEntity
8
0
6
ByLayer
62
256
370
-1
100
AcDbCircle
10
-4.60342817164
20
17.8824860074
40
10.3324865762
100
AcDbArc
50
251.74526457
51
270.019009923
0
ARC
5
143
100
AcDbEntity
8
0
6
ByLayer
62
256
370
-1
100
AcDbCircle
10
63.0000000042
20
17.6500000003
40
71.9493745671
100
AcDbArc
50
190.693032969
51
193.707904486
0
ARC
5
144
100
AcDbEntity
8
0
6
ByLayer
62
256
370
-1
100
AcDbCircle
10
-6.738
20
0.645999999999
40
0.16840427548
100
AcDbArc
50
195.851928154
51
285.851928154
0
ARC
5
145
100
AcDbEntity
8
0
6
ByLayer
62
256
370
-1
100
AcDbCircle
10
-4.59080385821
20
-6.34366559691
40
7.14367151607
100
AcDbArc
50
90.0737576269
51
107.105610996
0
ARC
5
146
100
AcDbEntity
8
0
6
ByLayer
62
256
370
-1
100
AcDbCircle
10
-1.25071428556
20
7.69785714279
40
0.270722766546
100
AcDbArc
50
0.453519124759
51
45.2137892288
0
ARC
5
147
100
AcDbEntity
8
0
6
ByLayer
62
256
370
-1
100
AcDbCircle
10
-1.31108695636
20
7.95543478254
40
0.124569959694
100
AcDbArc
50
49.3878600428
51
113.11981543
0
LINE
5
148
100
AcDbEntity
8
0
6
ByLayer
62
256
370
-1
100
AcDbLine
10
-1.05999999985
20
7.88999999992
11
-1.22999999984
21
8.04999999993
0
ARC
5
149
100
AcDbEntity
8
0
6
ByLayer
62
256
370
-1
100
AcDbCircle
10
-30.318677159
20
10.4473270955
40
29.4670287545
100
AcDbArc
50
347.958674911
51
354.650319332
0
ARC
5
14A
100
AcDbEntity
8
0
6
ByLayer
62
256
370
-1
100
AcDbCircle
10
-4.59657182799
20
17.8824860074
40
10.3324865762
100
AcDbArc
50
269.980990076
51
288.254735429
0
ARC
5
14B
100
AcDbEntity
8
0
6
ByLayer
62
256
370
-1
100
AcDbCircle
10
-72.2000000039
20
17.6500000017
40
71.9493745671
100
AcDbArc
50
346.292095513
51
349.30696703
0
ARC
5
14C
100
AcDbEntity
8
0
6
ByLayer
62
256
370
-1
100
AcDbCircle
10
-2.462
20
0.645999999953
40
0.16840427548
100
AcDbArc
50
254.148071845
51
344.148071845
0
ARC
5
14D
100
AcDbEntity
8
0
6
ByLayer
62
256
370
-1
100
AcDbCircle
10
-4.60919614195
20
-6.34366559691
40
7.14367151607
100
AcDbArc
50
72.8943890024
51
89.9262423719
0
ELLIPSE
5
14E
100
AcDbEntity
8
0
6
ByLayer
62
256
370
-1
100
AcDbEllipse
10
-13.0032121214
20
-11.366666667
30
0
11
12.896667067
21
0
31
0
40
0.943396226415
41
1.57054726078
42
1.7482513357
0
ELLIPSE
5
14F
100
AcDbEntity
8
0
6
ByLayer
62
256
370
-1
100
AcDbEllipse
10
-176.611
20
-21.2700000047
30
0
11
162.498423517
21
0
31
0
40
0.943396226415
41
0.14787015276
42
0.179036673376
0
ARC
5
150
100
AcDbEntity
8
0
6
ByLayer
62
256
370
-1
100
AcDbCircle
10
-15.481888473
20
1.39214511771
40
0.411121297976
100
AcDbArc
50
190.668804653
51
278.953708971
0
ARC
5
151
100
AcDbEntity
8
0
6
ByLayer
62
256
370
-1
100
AcDbCircle
10
-15.3925581942
20
0.861723231943
40
0.126867734734
100
AcDbArc
50
25.3461759419
51
101.523721704
0
LINE
5
152
100
AcDbEntity
8
0
6
ByLayer
62
256
370
-1
100
AcDbLine
10
-15.2779030218
20
0.916033576771
11
-15.2499030219
21
0.616033576862
0
ELLIPSE
5
153
100
AcDbEntity
8
0
6
ByLayer
62
256
370
-1
100
AcDbEllipse
10
-9.2961153847
20
7.58961538461
30
0
11
-0.222276448454
21
0
31
0
40
0.943396226415
41
3.33539110683
42
3.87508941869
0
LINE
5
154
100
AcDbEntity
8
0
6
ByLayer
62
256
370
-1
100
AcDbLine
10
-9.396
20
8.03000000004
11
-9.131
21
7.73000000004
0
ELLIPSE
5
155
100
AcDbEntity
8
0
6
ByLayer
62
256
370
-1
100
AcDbEllipse
10
-9.6668455883
20
7.89764705883
30
0
11
-0.305024215568
21
0
31
0
40
0.943396226415
41
3.61952500537
42
4.51825073819
0
ELLIPSE
5
156
100
AcDbEntity
8
0
6
ByLayer
62
256
370
-1
100
AcDbEllipse
10
-13.0479304348
20
-35.6324637682
30
0
11
-46.5684362604
21
0
31
0
40
0.943396226415
41
4.63845335443
42
4.71135973296
0
ELLIPSE
5
157
100
AcDbEntity
8
0
6
ByLayer
62
256
370
-1
100
AcDbEllipse
10
-28.1528543701
20
9.06689320373
30
0
11
-19.1355669775
21
0
31
0
40
0.943396226415
41
2.97256254355
42
3.06191277457
0
ELLIPSE
5
158
100
AcDbEntity
8
0
6
ByLayer
62
256
370
-1
100
AcDbEllipse
10
-12.9967878786
20
-11.366666667
30
0
11
-12.896667067
21
0
31
0
40
0.943396226415
41
4.53493397148
42
4.7126380464
0
ELLIPSE
5
159
100
AcDbEntity
8
0
6
ByLayer
62
256
370
-1
100
AcDbEllipse
10
150.611
20
-21.2700000047
30
0
11
-162.498423517
21
0
31
0
40
0.943396226415
41
6.1041486338
42
6.13531515442
0
ARC
5
15A
100
AcDbEntity
8
0
6
ByLayer
62
256
370
-1
100
AcDbCircle
10
-10.518111527
20
1.39214511771
40
0.411121297976
100
AcDbArc
50
261.046291029
51
349.331195347
0
ARC
5
15B
100
AcDbEntity
8
0
6
ByLayer
62
256
370
-1
100
AcDbCircle
10
-10.6074418058
20
0.861723231943
40
0.126867734734
100
AcDbArc
50
78.476278296
51
154.653824058
0
LINE
5
15C
100
AcDbEntity
8
0
6
ByLayer
62
256
370
-1
100
AcDbLine
10
-10.7220969782
20
0.916033576771
11
-10.7500969781
21
0.616033576862
0
ARC
5
15D
100
AcDbEntity
8
0
6
ByLayer
62
256
370
-1
100
AcDbCircle
10
3.56625
20
16.1491666667
40
14.5641702964
100
AcDbArc
50
2.167507906
51
4.768950612
0
ARC
5
15E
100
AcDbEntity
8
0
6
ByLayer
62
256
370
-1
100
AcDbCircle
10
17.163
20
17.1893636364
40
0.932740997595
100
AcDbArc
50
10.541098878
51
32.46176977
0
ARC
5
15F
100
AcDbEntity
8
0
6
ByLayer
62
256
370
-1
100
AcDbCircle
10
17.676
20
17.496
40
0.33572607882
100
AcDbArc
50
35.299608056
51
84.1875176169
0
ARC
5
160
100
AcDbEntity
8
0
6
ByLayer
62
256
370
-1
100
AcDbCircle
10
18.9306976744
20
42.4463953488
40
24.6466432356
100
AcDbArc
50
264.830557984
51
267.161096134
0
ARC
5
161
100
AcDbEntity
8
0
6
ByLayer
62
256
370
-1
100
AcDbCircle
10
9.13333333333
20
18.7233333333
40
0.838106331095
100
AcDbArc
50
210.338452251
51
280.773638188
0
ARC
5
162
100
AcDbEntity
8
0
6
ByLayer
62
256
370
-1
100
AcDbCircle
10
6.48283609576
20
17.4520257827
40
2.1054740528
100
AcDbArc
50
23.750044952
51
47.325310632
0
ARC
5
163
100
AcDbEntity
8
0
6
ByLayer
62
256
370
-1
100
AcDbCircle
10
7.2020233463
20
18.1638132296
40
1.09564558924
100
AcDbArc
50
49.746316085
51
144.503716613
0
LINE
5
164
100
AcDbEntity
8
0
6
ByLayer
62
256
370
-1
100
AcDbLine
10
6.31
20
18.8
11
5.31
21
16.7
0
ARC
5
165
100
AcDbEntity
8
0
6
ByLayer
62
256
370
-1
100
AcDbCircle
10
9.26571428571
20
20.3028571429
40
0.3963738701
100
AcDbArc
50
183.305830232
51
229.824272123
0
LINE
5
166
100
AcDbEntity
8
0
6
ByLayer
62
256
370
-1
100
AcDbLine
10
8.87
20
20.28
11
8.92
21
21.34
0
ARC
5
167
100
AcDbEntity
8
0
6
ByLayer
62
256
370
-1
100
AcDbCircle
10
9.21620689655
20
21.2220689655
40
0.318820097326
100
AcDbArc
50
85.720116083
51
158.290650333
0
ARC
5
168
100
AcDbEntity
8
0
6
ByLayer
62
256
370
-1
100
AcDbCircle
10
6.13
20
-7.24
40
28.9475473918
100
AcDbArc
50
80.736168737
51
83.832484135
0
ARC
5
169
100
AcDbEntity
8
0
6
ByLayer
62
256
370
-1
100
AcDbCircle
10
13.3103076923
20
36.1194285714
40
15.0026380458
100
AcDbArc
50
260.328969797
51
268.814835831
0
ARC
5
16A
100
AcDbEntity
8
0
6
ByLayer
62
256
370
-1
100
AcDbCircle
10
10.124
20
21.29
40
1.70443421698
100
AcDbArc
50
229.187228957
51
248.885257979
0
ARC
5
16B
100
AcDbEntity
8
0
6
ByLayer
62
256
370
-1
100
AcDbCircle
10
13.2098922414
20
30.5795474138
40
11.4914644205
100
AcDbArc
50
251.217972619
51
268.953431181
0
ARC
5
16C
100
AcDbEntity
8
0
6
ByLayer
62
256
370
-1
100
AcDbCircle
10
16.7342857143
20
20.3028571429
40
0.3963738701
100
AcDbArc
50
310.175727877
51
356.694169768
0
LINE
5
16D
100
AcDbEntity
8
0
6
ByLayer
62
256
370
-1
100
AcDbLine
10
17.13
20
20.28
11
17.08
21
21.34
0
ARC
5
16E
100
AcDbEntity
8
0
6
ByLayer
62
256
370
-1
100
AcDbCircle
10
16.7837931034
20
21.2220689655
40
0.318820097326
100
AcDbArc
50
21.709349667
51
94.279883917
0
ARC
5
16F
100
AcDbEntity
8
0
6
ByLayer
62
256
370
-1
100
AcDbCircle
10
19.87
20
-7.24
40
28.9475473918
100
AcDbArc
50
96.167515865
51
99.263831263
0
ARC
5
170
100
AcDbEntity
8
0
6
ByLayer
62
256
370
-1
100
AcDbCircle
10
12.6896923077
20
36.1194285714
40
15.0026380458
100
AcDbArc
50
271.185164169
51
279.671030203
0
ARC
5
171
100
AcDbEntity
8
0
6
ByLayer
62
256
370
-1
100
AcDbCircle
10
15.876
20
21.29
40
1.70443421698
100
AcDbArc
50
291.114742021
51
310.812771043
0
ARC
5
172
100
AcDbEntity
8
0
6
ByLayer
62
256
370
-1
100
AcDbCircle
10
12.7901077586
20
30.5795474138
40
11.4914644205
100
AcDbArc
50
271.046568819
51
288.782027381
0
CIRCLE
5
173
100
AcDbEntity
8
0
6
ByLayer
62
256
370
-1
100
AcDbCircle
10
16.751
20
21.239
40
0.065
0
CIRCLE
5
174
100
AcDbEntity
8
0
6
ByLayer
62
256
370
-1
100
AcDbCircle
10
9.249
20
21.239
40
0.065
0
CIRCLE
5
175
100
AcDbEntity
8
0
6
ByLayer
62
256
370
-1
100
AcDbCircle
10
17.231
20
17.43
40
0.065
0
CIRCLE
5
176
100
AcDbEntity
8
0
6
ByLayer
62
256
370
-1
100
AcDbCircle
10
17.771
20
16.71
40
0.065
0
CIRCLE
5
177
100
AcDbEntity
8
0
6
ByLayer
62
256
370
-1
100
AcDbCircle
10
8.229
20
16.71
40
0.065
0
CIRCLE
5
178
100
AcDbEntity
8
0
6
ByLayer
62
256
370
-1
100
AcDbCircle
10
8.769
20
17.43
40
0.065
0
CIRCLE
5
179
100
AcDbEntity
8
0
6
ByLayer
62
256
370
-1
100
AcDbCircle
10
13.002
20
9.891
40
0.065
0
CIRCLE
5
17A
100
AcDbEntity
8
0
6
ByLayer
62
256
370
-1
100
AcDbCircle
10
10.17
20
9.91
40
0.065
0
ARC
5
17B
100
AcDbEntity
8
0
6
ByLayer
62
256
370
-1
100
AcDbCircle
10
13.1409552089
20
32.5191234665
40
10.8201131165
100
AcDbArc
50
255.264018341
51
269.250309703
0
ARC
5
17C
100
AcDbEntity
8
0
6
ByLayer
62
256
370
-1
100
AcDbCircle
10
14.0491660938
20
26.033822963
40
4.27477512771
100
AcDbArc
50
291.42331069
51
334.737940244
0
ARC
5
17D
100
AcDbEntity
8
0
6
ByLayer
62
256
370
-1
100
AcDbCircle
10
15.505113908
20
25.0807450282
40
2.56265054427
100
AcDbArc
50
340.125026049
51
350.986648643
0
ARC
5
17E
100
AcDbEntity
8
0
6
ByLayer
62
256
370
-1
100
AcDbCircle
10
-3.79381879705
20
25.8562111188
40
21.8616431991
100
AcDbArc
50
356.913934205
51
3.362979418
0
ARC
5
17F
100
AcDbEntity
8
0
6
ByLayer
62
256
370
-1
100
AcDbCircle
10
12.8602924332
20
32.5191503234
40
10.8201131165
100
AcDbArc
50
270.738724945
51
284.725016307
0
ARC
5
180
100
AcDbEntity
8
0
6
ByLayer
62
256
370
-1
100
AcDbCircle
10
17.1287390432
20
26.7604602786
40
0.977555451738
100
AcDbArc
50
22.759744567
51
73.879674911
0
CIRCLE
5
181
100
AcDbEntity
8
0
6
ByLayer
62
256
370
-1
100
AcDbCircle
10
7.40006700916
20
26.700535865
40
0.065
0
CIRCLE
5
182
100
AcDbEntity
8
0
6
ByLayer
62
256
370
-1
100
AcDbCircle
10
17.0176700657
20
25.4114286868
40
0.065
0
CIRCLE
5
183
100
AcDbEntity
8
0
6
ByLayer
62
256
370
-1
100
AcDbCircle
10
7.1312781465
20
28.441206197
40
0.065
0
CIRCLE
5
184
100
AcDbEntity
8
0
6
ByLayer
62
256
370
-1
100
AcDbCircle
10
9.16019209272
20
28.2326200066
40
0.065
0
CIRCLE
5
185
100
AcDbEntity
8
0
6
ByLayer
62
256
370
-1
100
AcDbCircle
10
11.189106039
20
28.0240338164
40
0.065
0
CIRCLE
5
186
100
AcDbEntity
8
0
6
ByLayer
62
256
370
-1
100
AcDbCircle
10
13.2180199851
20
27.815447626
40
0.065
0
CIRCLE
5
187
100
AcDbEntity
8
0
6
ByLayer
62
256
370
-1
100
AcDbCircle
10
15.2469339314
20
27.6068614356
40
0.065
0
CIRCLE
5
188
100
AcDbEntity
8
0
6
ByLayer
62
256
370
-1
100
AcDbCircle
10
17.2758478777
20
27.3982752452
40
0.065
0
LINE
5
189
100
AcDbEntity
8
0
6
ByLayer
62
256
370
-1
100
AcDbLine
10
17.3981633012
20
27.6989928498
11
7.11
21
28.74
0
ELLIPSE
5
18A
100
AcDbEntity
8
0
6
ByLayer
62
256
370
-1
100
AcDbEllipse
10
16.7038846153
20
7.58961538461
30
0
11
-0.222276448454
21
0
31
0
40
0.943396226415
41
3.33539110683
42
3.87508941869
0
LINE
5
18B
100
AcDbEntity
8
0
6
ByLayer
62
256
370
-1
100
AcDbLine
10
16.604
20
8.03000000004
11
16.869
21
7.73000000004
0
ELLIPSE
5
18C
100
AcDbEntity
8
0
6
ByLayer
62
256
370
-1
100
AcDbEllipse
10
16.3331544117
20
7.89764705883
30
0
11
-0.305024215568
21
0
31
0
40
0.943396226415
41
3.61952500537
42
4.51825073819
0
ELLIPSE
5
18D
100
AcDbEntity
8
0
6
ByLayer
62
256
370
-1
100
AcDbEllipse
10
12.9520695652
20
-35.6324637682
30
0
11
-46.5684362604
21
0
31
0
40
0.943396226415
41
4.63845335443
42
4.71135973296
0
ELLIPSE
5
18E
100
AcDbEntity
8
0
6
ByLayer
62
256
370
-1
100
AcDbEllipse
10
-2.15285437008
20
9.06689320373
30
0
11
-19.1355669775
21
0
31
0
40
0.943396226415
41
2.97256254355
42
3.06191277457
0
ARC
5
18F
100
AcDbEntity
8
0
6
ByLayer
62
256
370
-1
100
AcDbCircle
10
12.7393225806
20
10.3137096774
40
8.53027428527
100
AcDbArc
50
79.457928193
51
88.248820488
0
ARC
5
190
100
AcDbEntity
8
0
6
ByLayer
62
256
370
-1
100
AcDbCircle
10
11.6557198444
20
7.85910505837
40
11.1587284525
100
AcDbArc
50
65.461449711
51
76.292243657
0
ARC
5
191
100
AcDbEntity
8
0
6
ByLayer
62
256
370
-1
100
AcDbCircle
10
16.9094444454
20
19.5183333362
40
1.63057685316
100
AcDbArc
50
247.672955914
51
262.974257789
0
ARC
5
192
100
AcDbEntity
8
0
6
ByLayer
62
256
370
-1
100
AcDbCircle
10
13.2606774194
20
10.3137096774
40
8.53027428527
100
AcDbArc
50
91.751179512
51
100.542071807
0
ARC
5
193
100
AcDbEntity
8
0
6
ByLayer
62
256
370
-1
100
AcDbCircle
10
14.3442801556
20
7.85910505837
40
11.1587284525
100
AcDbArc
50
103.707756343
51
114.538550289
0
ARC
5
194
100
AcDbEntity
8
0
6
ByLayer
62
256
370
-1
100
AcDbCircle
10
8.75357142886
20
20.805
40
2.95411249141
100
AcDbArc
50
280.46221461
51
288.890571655
0
ARC
5
195
100
AcDbEntity
8
0
6
ByLayer
62
256
370
-1
100
AcDbCircle
10
3.56625
20
17.2508333333
40
14.5641702964
100
AcDbArc
50
355.231049388
51
357.832492094
0
ARC
5
196
100
AcDbEntity
8
0
6
ByLayer
62
256
370
-1
100
AcDbCircle
10
17.163
20
16.2106363636
40
0.932740997595
100
AcDbArc
50
327.53823023
51
349.458901122
0
ARC
5
197
100
AcDbEntity
8
0
6
ByLayer
62
256
370
-1
100
AcDbCircle
10
17.676
20
15.904
40
0.33572607882
100
AcDbArc
50
275.812482383
51
324.700391944
0
ARC
5
198
100
AcDbEntity
8
0
6
ByLayer
62
256
370
-1
100
AcDbCircle
10
18.9306976744
20
-9.0463953488
40
24.6466432356
100
AcDbArc
50
92.838903866
51
95.169442016
0
ARC
5
199
100
AcDbEntity
8
0
6
ByLayer
62
256
370
-1
100
AcDbCircle
10
9.13333333333
20
14.6766666667
40
0.838106331095
100
AcDbArc
50
79.226361812
51
149.661547749
0
ARC
5
19A
100
AcDbEntity
8
0
6
ByLayer
62
256
370
-1
100
AcDbCircle
10
6.48283609576
20
15.9479742173
40
2.1054740528
100
AcDbArc
50
312.674689368
51
336.249955048
0
ARC
5
19B
100
AcDbEntity
8
0
6
ByLayer
62
256
370
-1
100
AcDbCircle
10
7.2020233463
20
15.2361867704
40
1.09564558924
100
AcDbArc
50
215.496283387
51
310.253683915
0
LINE
5
19C
100
AcDbEntity
8
0
6
ByLayer
62
256
370
-1
100
AcDbLine
10
6.31
20
14.6
11
5.31
21
16.7
0
CIRCLE
5
19D
100
AcDbEntity
8
0
6
ByLayer
62
256
370
-1
100
AcDbCircle
10
17.231
20
15.97
40
0.065
0
CIRCLE
5
19E
100
AcDbEntity
8
0
6
ByLayer
62
256
370
-1
100
AcDbCircle
10
8.769
20
15.97
40
0.065
0
ARC
5
19F
100
AcDbEntity
8
0
6
ByLayer
62
256
370
-1
100
AcDbCircle
10
12.7393225806
20
23.0862903226
40
8.53027428527
100
AcDbArc
50
271.751179512
51
280.542071807
0
ARC
5
1A0
100
AcDbEntity
8
0
6
ByLayer
62
256
370
-1
100
AcDbCircle
10
11.6557198444
20
25.5408949416
40
11.1587284525
100
AcDbArc
50
283.707756343
51
294.538550289
0
ARC
5
1A1
100
AcDbEntity
8
0
6
ByLayer
62
256
370
-1
100
AcDbCircle
10
16.9094444454
20
13.8816666638
40
1.63057685316
100
AcDbArc
50
97.0257422106
51
112.327044086
0
ARC
5
1A2
100
AcDbEntity
8
0
6
ByLayer
62
256
370
-1
100
AcDbCircle
10
13.2606774194
20
23.0862903226
40
8.53027428527
100
AcDbArc
50
259.457928193
51
268.248820488
0
ARC
5
1A3
100
AcDbEntity
8
0
6
ByLayer
62
256
370
-1
100
AcDbCircle
10
14.3442801556
20
25.5408949416
40
11.1587284525
100
AcDbArc
50
245.461449711
51
256.292243657
0
ARC
5
1A4
100
AcDbEntity
8
0
6
ByLayer
62
256
370
-1
100
AcDbCircle
10
8.75357142886
20
12.595
40
2.95411249141
100
AcDbArc
50
71.109428345
51
79.53778539
0
ARC
5
1A5
100
AcDbEntity
8
0
6
ByLayer
62
256
370
-1
100
AcDbCircle
10
7.16199999999
20
27.9795
40
0.762275704707
100
AcDbArc
50
93.911571812
51
178.458949824
0
ARC
5
1A6
100
AcDbEntity
8
0
6
ByLayer
62
256
370
-1
100
AcDbCircle
10
12.1044467126
20
28.0931533558
40
6.2772822641
100
AcDbArc
50
210.576214568
51
254.13763726
0
LINE
5
1A7
100
AcDbEntity
8
0
6
ByLayer
62
256
370
-1
100
AcDbLine
10
6.4
20
28
11
6.5
21
25.7
0
ARC
5
1A8
100
AcDbEntity
8
0
6
ByLayer
62
256
370
-1
100
AcDbCircle
10
11.8
20
26.6
40
5.37587202229
100
AcDbArc
50
189.637538113
51
198.434948823
0
CIRCLE
5
1A9
100
AcDbEntity
8
0
6
ByLayer
62
256
370
-1
100
AcDbCircle
10
16.85
20
20.2
40
0.065
0
CIRCLE
5
1AA
100
AcDbEntity
8
0
6
ByLayer
62
256
370
-1
100
AcDbCircle
10
9.15
20
20.2
40
0.065
0
CIRCLE
5
1AB
100
AcDbEntity
8
0
6
ByLayer
62
256
370
-1
100
AcDbCircle
10
9.4
20
23
40
0.065
0
CIRCLE
5
1AC
100
AcDbEntity
8
0
6
ByLayer
62
256
370
-1
100
AcDbCircle
10
16.6
20
23
40
0.065
0
CIRCLE
5
1AD
100
AcDbEntity
8
0
6
ByLayer
62
256
370
-1
100
AcDbCircle
10
9.43
20
10.9
40
0.065
0
ARC
5
1AE
100
AcDbEntity
8
0
6
ByLayer
62
256
370
-1
100
AcDbCircle
10
9.26571428571
20
13.0971428571
40
0.3963738701
100
AcDbArc
50
130.175727877
51
176.694169768
0
LINE
5
1AF
100
AcDbEntity
8
0
6
ByLayer
62
256
370
-1
100
AcDbLine
10
8.87
20
13.12
11
8.92
21
12.06
0
ARC
5
1B0
100
AcDbEntity
8
0
6
ByLayer
62
256
370
-1
100
AcDbCircle
10
9.21620689655
20
12.1779310345
40
0.318820097326
100
AcDbArc
50
201.709349667
51
274.279883917
0
ARC
5
1B1
100
AcDbEntity
8
0
6
ByLayer
62
256
370
-1
100
AcDbCircle
10
6.13
20
40.64
40
28.9475473918
100
AcDbArc
50
276.167515865
51
279.263831263
0
ARC
5
1B2
100
AcDbEntity
8
0
6
ByLayer
62
256
370
-1
100
AcDbCircle
10
13.3103076923
20
-2.7194285714
40
15.0026380458
100
AcDbArc
50
91.185164169
51
99.671030203
0
ARC
5
1B3
100
AcDbEntity
8
0
6
ByLayer
62
256
370
-1
100
AcDbCircle
10
10.124
20
12.11
40
1.70443421698
100
AcDbArc
50
111.114742021
51
130.812771043
0
ARC
5
1B4
100
AcDbEntity
8
0
6
ByLayer
62
256
370
-1
100
AcDbCircle
10
13.2098922414
20
2.8204525862
40
11.4914644205
100
AcDbArc
50
91.046568819
51
108.782027381
0
ARC
5
1B5
100
AcDbEntity
8
0
6
ByLayer
62
256
370
-1
100
AcDbCircle
10
16.7342857143
20
13.0971428571
40
0.3963738701
100
AcDbArc
50
3.305830232
51
49.824272123
0
LINE
5
1B6
100
AcDbEntity
8
0
6
ByLayer
62
256
370
-1
100
AcDbLine
10
17.13
20
13.12
11
17.08
21
12.06
0
ARC
5
1B7
100
AcDbEntity
8
0
6
ByLayer
62
256
370
-1
100
AcDbCircle
10
16.7837931034
20
12.1779310345
40
0.318820097326
100
AcDbArc
50
265.720116083
51
338.290650333
0
ARC
5
1B8
100
AcDbEntity
8
0
6
ByLayer
62
256
370
-1
100
AcDbCircle
10
19.87
20
40.64
40
28.9475473918
100
AcDbArc
50
260.736168737
51
263.832484135
0
ARC
5
1B9
100
AcDbEntity
8
0
6
ByLayer
62
256
370
-1
100
AcDbCircle
10
12.6896923077
20
-2.7194285714
40
15.0026380458
100
AcDbArc
50
80.328969797
51
88.814835831
0
ARC
5
1BA
100
AcDbEntity
8
0
6
ByLayer
62
256
370
-1
100
AcDbCircle
10
15.876
20
12.11
40
1.70443421698
100
AcDbArc
50
49.187228957
51
68.885257979
0
ARC
5
1BB
100
AcDbEntity
8
0
6
ByLayer
62
256
370
-1
100
AcDbCircle
10
12.7901077586
20
2.8204525862
40
11.4914644205
100
AcDbArc
50
71.217972619
51
88.953431181
0
CIRCLE
5
1BC
100
AcDbEntity
8
0
6
ByLayer
62
256
370
-1
100
AcDbCircle
10
16.751
20
12.161
40
0.065
0
CIRCLE
5
1BD
100
AcDbEntity
8
0
6
ByLayer
62
256
370
-1
100
AcDbCircle
10
9.249
20
12.161
40
0.065
0
CIRCLE
5
1BE
100
AcDbEntity
8
0
6
ByLayer
62
256
370
-1
100
AcDbCircle
10
16.85
20
13.2
40
0.065
0
CIRCLE
5
1BF
100
AcDbEntity
8
0
6
ByLayer
62
256
370
-1
100
AcDbCircle
10
9.15
20
13.2
40
0.065
0
ARC
5
1C0
100
AcDbEntity
8
0
6
ByLayer
62
256
370
-1
100
AcDbCircle
10
9.64222222222
20
10.8655555556
40
0.546170732588
100
AcDbArc
50
117.503387689
51
186.893694751
0
LINE
5
1C1
100
AcDbEntity
8
0
6
ByLayer
62
256
370
-1
100
AcDbLine
10
9.1
20
10.8
11
9.34
21
9.7
0
ARC
5
1C2
100
AcDbEntity
8
0
6
ByLayer
62
256
370
-1
100
AcDbCircle
10
13.474203922
20
-5.55151283127
40
17.387980264
100
AcDbArc
50
91.5627607143
51
103.584939539
0
LINE
5
1C3
100
AcDbEntity
8
0
6
ByLayer
62
256
370
-1
100
AcDbLine
10
9.6
20
9.5
11
13
21
9.5
0
ARC
5
1C4
100
AcDbEntity
8
0
6
ByLayer
62
256
370
-1
100
AcDbCircle
10
9.60202247191
20
9.77162921348
40
0.271636742747
100
AcDbArc
50
195.289415725
51
269.573400218
0
CIRCLE
5
1C5
100
AcDbEntity
8
0
6
ByLayer
62
256
370
-1
100
AcDbCircle
10
15.83
20
9.90999999999
40
0.065
0
CIRCLE
5
1C6
100
AcDbEntity
8
0
6
ByLayer
62
256
370
-1
100
AcDbCircle
10
16.57
20
10.9
40
0.065
0
ARC
5
1C7
100
AcDbEntity
8
0
6
ByLayer
62
256
370
-1
100
AcDbCircle
10
16.7837931035
20
12.1779310345
40
0.318820097326
100
AcDbArc
50
265.720116083
51
338.290650333
0
ARC
5
1C8
100
AcDbEntity
8
0
6
ByLayer
62
256
370
-1
100
AcDbCircle
10
19.8700000001
20
40.64
40
28.9475473918
100
AcDbArc
50
260.736168737
51
263.832484135
0
ARC
5
1C9
100
AcDbEntity
8
0
6
ByLayer
62
256
370
-1
100
AcDbCircle
10
16.3577777778
20
10.8655555555
40
0.546170732588
100
AcDbArc
50
353.106305249
51
62.496612311
0
LINE
5
1CA
100
AcDbEntity
8
0
6
ByLayer
62
256
370
-1
100
AcDbLine
10
16.9
20
10.8
11
16.66
21
9.69999999999
0
ARC
5
1CB
100
AcDbEntity
8
0
6
ByLayer
62
256
370
-1
100
AcDbCircle
10
12.525796078
20
-5.55151283127
40
17.387980264
100
AcDbArc
50
76.415060461
51
88.4372392856
0
LINE
5
1CC
100
AcDbEntity
8
0
6
ByLayer
62
256
370
-1
100
AcDbLine
10
16.4
20
9.49999999999
11
13
21
9.5
0
ARC
5
1CD
100
AcDbEntity
8
0
6
ByLayer
62
256
370
-1
100
AcDbCircle
10
16.3979775281
20
9.77162921348
40
0.271636742747
100
AcDbArc
50
270.426599782
51
344.710584275
0
ARC
5
1CE
100
AcDbEntity
8
0
6
ByLayer
62
256
370
-1
100
AcDbCircle
10
7.94928571429
20
7.69785714286
40
0.270722766546
100
AcDbArc
50
0.453519126
51
45.21378923
0
ARC
5
1CF
100
AcDbEntity
8
0
6
ByLayer
62
256
370
-1
100
AcDbCircle
10
7.88891304348
20
7.95543478261
40
0.124569959694
100
AcDbArc
50
49.387860044
51
113.119815431
0
LINE
5
1D0
100
AcDbEntity
8
0
6
ByLayer
62
256
370
-1
100
AcDbLine
10
8.14
20
7.89
11
7.97
21
8.05
0
ARC
5
1D1
100
AcDbEntity
8
0
6
ByLayer
62
256
370
-1
100
AcDbCircle
10
-21.1186771592
20
10.4473270949
40
29.4670287545
100
AcDbArc
50
347.958674912
51
354.650319333
0
ARC
5
1D2
100
AcDbEntity
8
0
6
ByLayer
62
256
370
-1
100
AcDbCircle
10
4.60342817164
20
17.8824860074
40
10.3324865762
100
AcDbArc
50
269.980990077
51
288.25473543
0
ARC
5
1D3
100
AcDbEntity
8
0
6
ByLayer
62
256
370
-1
100
AcDbCircle
10
-63.0000000042
20
17.6500000003
40
71.9493745671
100
AcDbArc
50
346.292095514
51
349.306967031
0
ARC
5
1D4
100
AcDbEntity
8
0
6
ByLayer
62
256
370
-1
100
AcDbCircle
10
6.738
20
0.645999999999
40
0.16840427548
100
AcDbArc
50
254.148071846
51
344.148071846
0
ARC
5
1D5
100
AcDbEntity
8
0
6
ByLayer
62
256
370
-1
100
AcDbCircle
10
4.59080385821
20
-6.34366559691
40
7.14367151607
100
AcDbArc
50
72.8943890036
51
89.9262423731
0
ARC
5
1D6
100
AcDbEntity
8
0
6
ByLayer
62
256
370
-1
100
AcDbCircle
10
1.25071428556
20
7.69785714279
40
0.270722766546
100
AcDbArc
50
134.786210771
51
179.546480875
0
ARC
5
1D7
100
AcDbEntity
8
0
6
ByLayer
62
256
370
-1
100
AcDbCircle
10
1.31108695636
20
7.95543478254
40
0.124569959694
100
AcDbArc
50
66.8801845702
51
130.612139957
0
LINE
5
1D8
100
AcDbEntity
8
0
6
ByLayer
62
256
370
-1
100
AcDbLine
10
1.05999999985
20
7.88999999992
11
1.22999999984
21
8.04999999993
0
ARC
5
1D9
100
AcDbEntity
8
0
6
ByLayer
62
256
370
-1
100
AcDbCircle
10
30.318677159
20
10.4473270955
40
29.4670287545
100
AcDbArc
50
185.349680668
51
192.041325089
0
ARC
5
1DA
100
AcDbEntity
8
0
6
ByLayer
62
256
370
-1
100
AcDbCircle
10
4.59657182799
20
17.8824860074
40
10.3324865762
100
AcDbArc
50
251.745264571
51
270.019009924
0
ARC
5
1DB
100
AcDbEntity
8
0
6
ByLayer
62
256
370
-1
100
AcDbCircle
10
72.2000000039
20
17.6500000017
40
71.9493745671
100
AcDbArc
50
190.69303297
51
193.707904487
0
ARC
5
1DC
100
AcDbEntity
8
0
6
ByLayer
62
256
370
-1
100
AcDbCircle
10
2.462
20
0.645999999953
40
0.16840427548
100
AcDbArc
50
195.851928155
51
285.851928155
0
ARC
5
1DD
100
AcDbEntity
8
0
6
ByLayer
62
256
370
-1
100
AcDbCircle
10
4.60919614195
20
-6.34366559691
40
7.14367151607
100
AcDbArc
50
90.0737576281
51
107.105610998
0
ELLIPSE
5
1DE
100
AcDbEntity
8
0
6
ByLayer
62
256
370
-1
100
AcDbEllipse
10
13.0032121214
20
-11.366666667
30
0
11
-12.896667067
21
0
31
0
40
0.943396226415
41
4.53493397148
42
4.7126380464
0
ELLIPSE
5
1DF
100
AcDbEntity
8
0
6
ByLayer
62
256
370
-1
100
AcDbEllipse
10
176.611
20
-21.2700000047
30
0
11
-162.498423517
21
0
31
0
40
0.943396226415
41
6.1041486338
42
6.13531515442
0
ARC
5
1E0
100
AcDbEntity
8
0
6
ByLayer
62
256
370
-1
100
AcDbCircle
10
15.481888473
20
1.39214511771
40
0.411121297976
100
AcDbArc
50
261.046291029
51
349.331195347
0
ARC
5
1E1
100
AcDbEntity
8
0
6
ByLayer
62
256
370
-1
100
AcDbCircle
10
15.3925581942
20
0.861723231943
40
0.126867734734
100
AcDbArc
50
78.476278296
51
154.653824058
0
LINE
5
1E2
100
AcDbEntity
8
0
6
ByLayer
62
256
370
-1
100
AcDbLine
10
15.2779030218
20
0.916033576771
11
15.2499030219
21
0.616033576862
0
ELLIPSE
5
1E3
100
AcDbEntity
8
0
6
ByLayer
62
256
370
-1
100
AcDbEllipse
10
9.2961153847
20
7.58961538461
30
0
11
0.222276448454
21
0
31
0
40
0.943396226415
41
2.40809588849
42
2.94779420035
0
LINE
5
1E4
100
AcDbEntity
8
0
6
ByLayer
62
256
370
-1
100
AcDbLine
10
9.396
20
8.03000000004
11
9.131
21
7.73000000004
0
ELLIPSE
5
1E5
100
AcDbEntity
8
0
6
ByLayer
62
256
370
-1
100
AcDbEllipse
10
9.6668455883
20
7.89764705883
30
0
11
0.305024215568
21
0
31
0
40
0.943396226415
41
1.76493456899
42
2.66366030181
0
ELLIPSE
5
1E6
100
AcDbEntity
8
0
6
ByLayer
62
256
370
-1
100
AcDbEllipse
10
13.0479304348
20
-35.6324637682
30
0
11
46.5684362604
21
0
31
0
40
0.943396226415
41
1.57182557422
42
1.64473195275
0
ELLIPSE
5
1E7
100
AcDbEntity
8
0
6
ByLayer
62
256
370
-1
100
AcDbEllipse
10
28.1528543701
20
9.06689320373
30
0
11
19.1355669775
21
0
31
0
40
0.943396226415
41
3.22127253261
42
3.31062276363
0
ELLIPSE
5
1E8
100
AcDbEntity
8
0
6
ByLayer
62
256
370
-1
100
AcDbEllipse
10
12.9967878786
20
-11.366666667
30
0
11
12.896667067
21
0
31
0
40
0.943396226415
41
1.57054726078
42
1.7482513357
0
ELLIPSE
5
1E9
100
AcDbEntity
8
0
6
ByLayer
62
256
370
-1
100
AcDbEllipse
10
-150.611
20
-21.2700000047
30
0
11
162.498423517
21
0
31
0
40
0.943396226415
41
0.14787015276
42
0.179036673376
0
ARC
5
1EA
100
AcDbEntity
8
0
6
ByLayer
62
256
370
-1
100
AcDbCircle
10
10.518111527
20
1.39214511771
40
0.411121297976
100
AcDbArc
50
190.668804653
51
278.953708971
0
ARC
5
1EB
100
AcDbEntity
8
0
6
ByLayer
62
256
370
-1
100
AcDbCircle
10
10.6074418058
20
0.861723231943
40
0.126867734734
100
AcDbArc
50
25.3461759419
51
101.523721704
0
LINE
5
1EC
100
AcDbEntity
8
0
6
ByLayer
62
256
370
-1
100
AcDbLine
10
10.7220969782
20
0.916033576771
11
10.7500969781
21
0.616033576862
0
TEXT
5
1ED
100
AcDbEntity
8
0
6
ByLayer
62
256
370
-1
100
AcDbText
10
-8
20
30
30
0
40
1
1
Nov. 29, 2014 at 19:00
50
0
41
1
51
0
7
iso
71
0
210
0
220
0
230
1
100
AcDbText
0
ENDSEC
0
SECTION
2
OBJECTS
0
DICTIONARY
5
C
330
0
100
AcDbDictionary
281
1
3
ACAD_GROUP
350
D
0
DICTIONARY
5
D
330
C
100
AcDbDictionary
281
1
0
ENDSEC
0
EOF
