999
dxfrw 0.5.10
0
SECTION
2
HEADER
9
$ACADVER
1
AC1021
9
$HANDSEED
5
20000
9
$DWGCODEPAGE
3
ANSI_1252
9
$INSBASE
10
0
20
0
30
0
9
$EXTMIN
10
-35.1508292
20
-5.229469
30
0
9
$EXTMAX
10
35.5533916942
20
63.5240710119
30
0
9
$LIMMIN
10
0
20
0
9
$LIMMAX
10
420
20
297
9
$ORTHOMODE
70
0
9
$LTSCALE
40
1
9
$TEXTSTYLE
7
STANDARD
9
$CLAYER
8
0
9
$DIMASZ
40
0.1
9
$DIMLFAC
40
1
9
$DIMSCALE
40
1
9
$DIMEXO
40
0.025
9
$DIMEXE
40
0.05
9
$DIMTXT
40
0.1
9
$DIMTSZ
40
0
9
$DIMAUNIT
70
0
9
$DIMADEC
70
2
9
$DIMLUNIT
70
2
9
$DIMSTYLE
2
Standard
9
$DIMGAP
40
0.025
9
$DIMTIH
70
0
9
$LUNITS
70
2
9
$LUPREC
70
4
9
$AUNITS
70
0
9
$AUPREC
70
2
9
$SPLINESEGS
70
8
9
$GRIDMODE
70
1
9
$SNAPSTYLE
70
0
9
$GRIDUNIT
10
0
20
0
9
$PINSBASE
10
32.6801011507
20
-11.3471050112
30
0
9
$PLIMMIN
10
0
20
0
9
$PLIMMAX
10
17.0078740157
20
10.9842519685
9
$INSUNITS
70
1
9
$PSVPSCALE
40
1
0
ENDSEC
0
SECTION
2
CLASSES
0
ENDSEC
0
SECTION
2
TABLES
0
TABLE
2
VPORT
5
8
330
0
100
AcDbSymbolTable
70
1
0
VPORT
5
31
330
2
100
AcDbSymbolTableRecord
100
AcDbViewportTableRecord
2
*ACTIVE
70
0
10
0
20
0
11
1
21
1
12
16.6233723739
22
32.1283527226
13
0
23
0
14
10
24
10
15
10
25
10
16
0
26
0
36
1
17
0
27
0
37
0
40
23.2151071888
41
1.04087591241
42
50
43
0
44
0
50
0
51
0
71
0
72
100
73
1
74
3
75
0
76
1
77
0
78
0
281
0
65
1
110
0
120
0
130
0
111
1
121
0
131
0
112
0
122
1
132
0
79
0
146
0
348
10020
60
7
61
5
292
1
282
1
141
0
142
0
63
250
421
3358443
0
ENDTAB
0
TABLE
2
LTYPE
5
5
330
0
100
AcDbSymbolTable
70
4
0
LTYPE
5
14
330
5
100
AcDbSymbolTableRecord
100
AcDbLinetypeTableRecord
2
ByBlock
70
0
3

72
65
73
0
40
0
0
LTYPE
5
15
330
5
100
AcDbSymbolTableRecord
100
AcDbLinetypeTableRecord
2
ByLayer
70
0
3

72
65
73
0
40
0
0
LTYPE
5
16
330
5
100
AcDbSymbolTableRecord
100
AcDbLinetypeTableRecord
2
Continuous
70
0
3
Solid line
72
65
73
0
40
0
0
LTYPE
5
32
330
5
100
AcDbSymbolTableRecord
100
AcDbLinetypeTableRecord
2
DOT
70
0
3
Dot . . . . . . . . . . . . . . . . . . . . . .
72
65
73
2
40
6.35
49
0
74
0
49
-6.35
74
0
0
LTYPE
5
33
330
5
100
AcDbSymbolTableRecord
100
AcDbLinetypeTableRecord
2
DOT2
70
0
3
Dot (.5x) .....................................
72
65
73
2
40
3.175
49
0
74
0
49
-3.175
74
0
0
LTYPE
5
34
330
5
100
AcDbSymbolTableRecord
100
AcDbLinetypeTableRecord
2
DOTX2
70
0
3
Dot (2x) .  .  .  .  .  .  .  .  .  .  .  .  .
72
65
73
2
40
12.7
49
0
74
0
49
-12.7
74
0
0
LTYPE
5
35
330
5
100
AcDbSymbolTableRecord
100
AcDbLinetypeTableRecord
2
DASHED
70
0
3
Dot . . . . . . . . . . . . . . . . . . . . . .
72
65
73
2
40
19.05
49
12.7
74
0
49
-6.35
74
0
0
LTYPE
5
36
330
5
100
AcDbSymbolTableRecord
100
AcDbLinetypeTableRecord
2
DASHED2
70
0
3
Dashed (.5x) _ _ _ _ _ _ _ _ _ _ _ _ _ _ _ _ _
72
65
73
2
40
9.525
49
6.35
74
0
49
-3.175
74
0
0
LTYPE
5
37
330
5
100
AcDbSymbolTableRecord
100
AcDbLinetypeTableRecord
2
DASHEDX2
70
0
3
Dashed (2x) ____  ____  ____  ____  ____  ___
72
65
73
2
40
38.1
49
25.4
74
0
49
-12.7
74
0
0
LTYPE
5
38
330
5
100
AcDbSymbolTableRecord
100
AcDbLinetypeTableRecord
2
DASHDOT
70
0
3
Dash dot __ . __ . __ . __ . __ . __ . __ . __
72
65
73
4
40
25.4
49
12.7
74
0
49
-6.35
74
0
49
0
74
0
49
-6.35
74
0
0
LTYPE
5
39
330
5
100
AcDbSymbolTableRecord
100
AcDbLinetypeTableRecord
2
DASHDOT2
70
0
3
Dash dot (.5x) _._._._._._._._._._._._._._._.
72
65
73
4
40
12.7
49
6.35
74
0
49
-3.175
74
0
49
0
74
0
49
-3.175
74
0
0
LTYPE
5
3A
330
5
100
AcDbSymbolTableRecord
100
AcDbLinetypeTableRecord
2
DASHDOTX2
70
0
3
Dash dot (2x) ____  .  ____  .  ____  .  ___
72
65
73
4
40
50.8
49
25.4
74
0
49
-12.7
74
0
49
0
74
0
49
-12.7
74
0
0
LTYPE
5
3B
330
5
100
AcDbSymbolTableRecord
100
AcDbLinetypeTableRecord
2
DIVIDE
70
0
3
Divide ____ . . ____ . . ____ . . ____ . . ____
72
65
73
6
40
31.75
49
12.7
74
0
49
-6.35
74
0
49
0
74
0
49
-6.35
74
0
49
0
74
0
49
-6.35
74
0
0
LTYPE
5
3C
330
5
100
AcDbSymbolTableRecord
100
AcDbLinetypeTableRecord
2
DIVIDE2
70
0
3
Divide (.5x) __..__..__..__..__..__..__..__.._
72
65
73
6
40
15.875
49
6.35
74
0
49
-3.175
74
0
49
0
74
0
49
-3.175
74
0
49
0
74
0
49
-3.175
74
0
0
LTYPE
5
3D
330
5
100
AcDbSymbolTableRecord
100
AcDbLinetypeTableRecord
2
DIVIDEX2
70
0
3
Divide (2x) ________  .  .  ________  .  .  _
72
65
73
6
40
63.5
49
25.4
74
0
49
-12.7
74
0
49
0
74
0
49
-12.7
74
0
49
0
74
0
49
-12.7
74
0
0
LTYPE
5
3E
330
5
100
AcDbSymbolTableRecord
100
AcDbLinetypeTableRecord
2
BORDER
70
0
3
Border __ __ . __ __ . __ __ . __ __ . __ __ .
72
65
73
6
40
44.45
49
12.7
74
0
49
-6.35
74
0
49
12.7
74
0
49
-6.35
74
0
49
0
74
0
49
-6.35
74
0
0
LTYPE
5
3F
330
5
100
AcDbSymbolTableRecord
100
AcDbLinetypeTableRecord
2
BORDER2
70
0
3
Border (.5x) __.__.__.__.__.__.__.__.__.__.__.
72
65
73
6
40
22.225
49
6.35
74
0
49
-3.175
74
0
49
6.35
74
0
49
-3.175
74
0
49
0
74
0
49
-3.175
74
0
0
LTYPE
5
40
330
5
100
AcDbSymbolTableRecord
100
AcDbLinetypeTableRecord
2
BORDERX2
70
0
3
Border (2x) ____  ____  .  ____  ____  .  ___
72
65
73
6
40
88.9
49
25.4
74
0
49
-12.7
74
0
49
25.4
74
0
49
-12.7
74
0
49
0
74
0
49
-12.7
74
0
0
LTYPE
5
41
330
5
100
AcDbSymbolTableRecord
100
AcDbLinetypeTableRecord
2
CENTER
70
0
3
Center ____ _ ____ _ ____ _ ____ _ ____ _ ____
72
65
73
4
40
50.8
49
31.75
74
0
49
-6.35
74
0
49
6.35
74
0
49
-6.35
74
0
0
LTYPE
5
42
330
5
100
AcDbSymbolTableRecord
100
AcDbLinetypeTableRecord
2
CENTER2
70
0
3
Center (.5x) ___ _ ___ _ ___ _ ___ _ ___ _ ___
72
65
73
4
40
28.575
49
19.05
74
0
49
-3.175
74
0
49
3.175
74
0
49
-3.175
74
0
0
LTYPE
5
43
330
5
100
AcDbSymbolTableRecord
100
AcDbLinetypeTableRecord
2
CENTERX2
70
0
3
Center (2x) ________  __  ________  __  _____
72
65
73
4
40
101.6
49
63.5
74
0
49
-12.7
74
0
49
12.7
74
0
49
-12.7
74
0
0
ENDTAB
0
TABLE
2
LAYER
5
2
330
0
100
AcDbSymbolTable
70
1
0
LAYER
5
10
330
2
100
AcDbSymbolTableRecord
100
AcDbLayerTableRecord
2
0
70
0
62
7
6
CONTINUOUS
370
0
390
F
0
ENDTAB
0
TABLE
2
STYLE
5
3
330
0
100
AcDbSymbolTable
70
3
0
STYLE
5
44
330
2
100
AcDbSymbolTableRecord
100
AcDbTextStyleTableRecord
2
iso
70
0
40
0
41
1
50
0
71
0
42
1
3
iso
4

0
STYLE
5
45
330
2
100
AcDbSymbolTableRecord
100
AcDbTextStyleTableRecord
2
Standard
70
0
40
0
41
1
50
0
71
0
42
1
3
txt
4

0
ENDTAB
0
TABLE
2
VIEW
5
6
330
0
100
AcDbSymbolTable
70
0
0
ENDTAB
0
TABLE
2
UCS
5
7
330
0
100
AcDbSymbolTable
70
0
0
ENDTAB
0
TABLE
2
APPID
5
9
330
0
100
AcDbSymbolTable
70
1
0
APPID
5
12
330
9
100
AcDbSymbolTableRecord
100
AcDbRegAppTableRecord
2
ACAD
70
0
0
ENDTAB
0
TABLE
2
DIMSTYLE
5
A
330
0
100
AcDbSymbolTable
70
1
100
AcDbDimStyleTable
71
1
0
DIMSTYLE
105
46
330
A
100
AcDbSymbolTableRecord
100
AcDbDimStyleTableRecord
2
Standard
70
0
40
1
41
0.1
42
0.025
43
0.38
44
0.05
45
0
46
0
47
0
48
0
140
0.1
141
0.09
142
0
143
25.4
144
1
145
0
146
1
147
0.025
148
0
71
0
72
0
73
0
74
1
75
0
76
0
77
0
78
0
79
0
170
0
171
2
172
0
173
0
174
0
175
0
176
0
177
0
178
0
179
0
271
4
272
4
273
2
274
2
275
0
276
0
277
2
278
46
279
0
280
0
281
0
282
0
283
1
284
0
285
0
286
0
288
0
289
3
340
Standard
341

371
-2
372
-2
0
ENDTAB
0
TABLE
2
BLOCK_RECORD
5
1
330
0
100
AcDbSymbolTable
70
2
0
BLOCK_RECORD
5
1F
330
1
100
AcDbSymbolTableRecord
100
AcDbBlockTableRecord
2
*Model_Space
70
0
280
1
281
0
0
BLOCK_RECORD
5
1E
330
1
100
AcDbSymbolTableRecord
100
AcDbBlockTableRecord
2
*Paper_Space
70
0
280
1
281
0
0
ENDTAB
0
ENDSEC
0
SECTION
2
BLOCKS
0
BLOCK
5
20
330
1F
100
AcDbEntity
8
0
100
AcDbBlockBegin
2
*Model_Space
70
0
10
0
20
0
30
0
3
*Model_Space
1

0
ENDBLK
5
21
330
1F
100
AcDbEntity
8
0
100
AcDbBlockEnd
0
BLOCK
5
1C
330
1B
100
AcDbEntity
8
0
100
AcDbBlockBegin
2
*Paper_Space
70
0
10
0
20
0
30
0
3
*Paper_Space
1

0
ENDBLK
5
1D
330
1F
100
AcDbEntity
8
0
100
AcDbBlockEnd
0
ENDSEC
0
SECTION
2
ENTITIES
0
ELLIPSE
5
47
100
AcDbEntity
8
0
6
ByLayer
62
256
370
9
100
AcDbEllipse
10
-32.03550542
20
27.7436005
30
0
11
1.61051022422e-17
21
0.268312844773
31
0
40
0.98025974026
41
0.153707529055
42
1.41708879775
0
LINE
5
48
100
AcDbEntity
8
0
6
ByLayer
62
256
370
9
100
AcDbLine
10
-32.2954208
20
27.78468
11
-31.8561272
21
24.87177
0
ELLIPSE
5
49
100
AcDbEntity
8
0
6
ByLayer
62
256
370
9
100
AcDbEllipse
10
-31.59621182
20
24.9128495
30
0
11
1.61051022422e-17
21
0.268312844773
31
0
40
0.98025974026
41
1.72450385585
42
2.98788512454
0
ELLIPSE
5
4A
100
AcDbEntity
8
0
6
ByLayer
62
256
370
9
100
AcDbEllipse
10
-19.9952
20
-23.5039925952
30
0
11
2.97684246707e-15
21
49.5945358662
31
0
40
0.98025974026
41
6.04137977857
42
0.241805528605
0
ELLIPSE
5
4B
100
AcDbEntity
8
0
6
ByLayer
62
256
370
9
100
AcDbEllipse
10
-8.39418818004
20
24.9128495
30
0
11
1.61051022422e-17
21
0.268312844773
31
0
40
0.98025974026
41
3.29530018265
42
4.55868145134
0
LINE
5
4C
100
AcDbEntity
8
0
6
ByLayer
62
256
370
9
100
AcDbLine
10
-7.6949792
20
27.78468
11
-8.1342728
21
24.87177
0
ELLIPSE
5
4D
100
AcDbEntity
8
0
6
ByLayer
62
256
370
9
100
AcDbEllipse
10
-19.9720784831
20
-23.8773409735
30
0
11
3.20136050309e-15
21
53.3350320171
31
0
40
0.98025974026
41
6.05046784168
42
0.233626556345
0
ELLIPSE
5
4E
100
AcDbEntity
8
0
6
ByLayer
62
256
370
9
100
AcDbEllipse
10
-7.962399179
20
27.74920225
30
0
11
1.65126391604e-17
21
0.275102456427
31
0
40
0.98025974026
41
4.84171110027
42
6.10509236894
0
LINE
5
4F
100
AcDbEntity
8
0
6
ByLayer
62
256
370
9
100
AcDbLine
10
-22.2465797
20
50.19168
11
-22.5211382
21
38.54004
0
LINE
5
50
100
AcDbEntity
8
0
6
ByLayer
62
256
370
9
100
AcDbLine
10
-17.4692618
20
38.54004
11
-17.7438203
21
50.19168
0
LINE
5
51
100
AcDbEntity
8
0
6
ByLayer
62
256
370
9
100
AcDbLine
10
-22.3014914
20
38.31597
11
-17.6889086
21
38.31597
0
ELLIPSE
5
52
100
AcDbEntity
8
0
6
ByLayer
62
256
370
9
100
AcDbEllipse
10
-19.9952
20
58.3770406349
30
0
11
5.00304714077e-16
21
8.33513374012
31
0
40
0.98025974026
41
2.89029199237
42
3.39289331482
0
ELLIPSE
5
53
100
AcDbEntity
8
0
6
ByLayer
62
256
370
9
100
AcDbEllipse
10
-22.07269265
20
50.11699
30
0
11
1.15528453519e-17
21
0.192471724486
31
0
40
0.98025974026
41
6.03820664405
42
1.17227388113
0
ELLIPSE
5
54
100
AcDbEntity
8
0
6
ByLayer
62
256
370
9
100
AcDbEllipse
10
-17.9120980904
20
50.1284344355
30
0
11
1.09811034787e-17
21
0.182946439507
31
0
40
0.98025974026
41
5.06537936821
42
0.290510720975
0
ELLIPSE
5
55
100
AcDbEntity
8
0
6
ByLayer
62
256
370
9
100
AcDbEllipse
10
-22.29600023
20
38.54564175
30
0
11
1.37898245602e-17
21
0.229740053868
31
0
40
0.98025974026
41
1.59518173597
42
3.11720724443
0
ELLIPSE
5
56
100
AcDbEntity
8
0
6
ByLayer
62
256
370
9
100
AcDbEllipse
10
-17.69439977
20
38.54564175
30
0
11
1.37898245602e-17
21
0.229740053868
31
0
40
0.98025974026
41
3.16597806276
42
4.68800357122
0
ELLIPSE
5
57
100
AcDbEntity
8
0
6
ByLayer
62
256
370
9
100
AcDbEllipse
10
-97.3992054578
20
44.1159689917
30
0
11
4.48814373012e-15
21
74.7729877071
31
0
40
0.98025974026
41
4.63489316363
42
4.78171323894
0
ELLIPSE
5
58
100
AcDbEntity
8
0
6
ByLayer
62
256
370
9
100
AcDbEllipse
10
-24.5786373593
20
38.3405315192
30
0
11
1.57201511234e-17
21
0.261899515119
31
0
40
0.98025974026
41
3.46126204554
42
4.66136247235
0
ELLIPSE
5
59
100
AcDbEntity
8
0
6
ByLayer
62
256
370
9
100
AcDbEllipse
10
-26.0086485005
20
48.5911705296
30
0
11
1.14073315168e-16
21
1.90047447356
31
0
40
0.98025974026
41
5.09199498788
42
1.2786345565
0
ELLIPSE
5
5A
100
AcDbEntity
8
0
6
ByLayer
62
256
370
9
100
AcDbEllipse
10
-26.3649572
20
49.2954
30
0
11
5.04400611938e-18
21
0.0840337186681
31
0
40
0.98025974026
41
0
42
6.28318530718
0
ELLIPSE
5
5B
100
AcDbEntity
8
0
6
ByLayer
62
256
370
9
100
AcDbEllipse
10
-30.97754
20
39.21225
30
0
11
5.04400611938e-18
21
0.0840337186681
31
0
40
0.98025974026
41
0
42
6.28318530718
0
ELLIPSE
5
5C
100
AcDbEntity
8
0
6
ByLayer
62
256
370
9
100
AcDbEllipse
10
-34.2790326072
20
37.9989366068
30
0
11
5.01718776133e-17
21
0.835869217565
31
0
40
0.98025974026
41
1.86594777023
42
3.42159287173
0
ELLIPSE
5
5D
100
AcDbEntity
8
0
6
ByLayer
62
256
370
9
100
AcDbEllipse
10
-21.6817736428
20
-46.5985575
30
0
11
5.0863499169e-15
21
84.7391711761
31
0
40
0.98025974026
41
0.0339093254851
42
0.149482987035
0
ELLIPSE
5
5E
100
AcDbEntity
8
0
6
ByLayer
62
256
370
9
100
AcDbEllipse
10
-39.5564433425
20
50.972876989
30
0
11
7.28690023493e-16
21
12.140059108
31
0
40
0.98025974026
41
3.56089248495
42
4.56071110399
0
ELLIPSE
5
5F
100
AcDbEntity
8
0
6
ByLayer
62
256
370
9
100
AcDbEllipse
10
-34.4345183672
20
39.2105778358
30
0
11
4.38615032702e-17
21
0.730737659497
31
0
40
0.98025974026
41
0.397079445225
42
1.56850800127
0
LINE
5
60
100
AcDbEntity
8
0
6
ByLayer
62
256
370
9
100
AcDbLine
10
-35.1508292
20
39.21225
11
-35.06297048
21
37.755795
0
ELLIPSE
5
61
100
AcDbEntity
8
0
6
ByLayer
62
256
370
9
100
AcDbEllipse
10
-20.0501117
20
-28.181682151
30
0
11
3.82953261643e-15
21
63.8004512489
31
0
40
0.98025974026
41
6.08253309065
42
0.200652216525
0
LINE
5
62
100
AcDbEntity
8
0
6
ByLayer
62
256
370
9
100
AcDbLine
10
-7.60712048
20
31.2017475
11
-7.23372092
21
34.0026225
0
LINE
5
63
100
AcDbEntity
8
0
6
ByLayer
62
256
370
9
100
AcDbLine
10
-32.80060844
20
34.05864
11
-32.43819122
21
31.257765
0
ELLIPSE
5
64
100
AcDbEntity
8
0
6
ByLayer
62
256
370
9
100
AcDbEllipse
10
-32.4684274093
20
33.9977298323
30
0
11
2.06661874952e-17
21
0.344301046591
31
0
40
0.98025974026
41
0.138634993595
42
1.39295067149
0
ELLIPSE
5
65
100
AcDbEntity
8
0
6
ByLayer
62
256
370
9
100
AcDbEllipse
10
-7.63636936514
20
33.9237407143
30
0
11
2.51056230481e-17
21
0.418262550496
31
0
40
0.98025974026
41
4.90211918514
42
6.15794886729
0
ELLIPSE
5
66
100
AcDbEntity
8
0
6
ByLayer
62
256
370
9
100
AcDbEllipse
10
-7.89579913147
20
31.2148716
30
0
11
1.76940138679e-17
21
0.294784294129
31
0
40
0.98025974026
41
3.03825032773
42
4.66785323094
0
ELLIPSE
5
67
100
AcDbEntity
8
0
6
ByLayer
62
256
370
9
100
AcDbEllipse
10
-20.00069117
20
-28.9379589577
30
0
11
3.66827832974e-15
21
61.1139363953
31
0
40
0.98025974026
41
6.08023289992
42
0.202952407255
0
ELLIPSE
5
68
100
AcDbEntity
8
0
6
ByLayer
62
256
370
9
100
AcDbEllipse
10
-32.0665920436
20
31.3033595718
30
0
11
2.2917879043e-17
21
0.38181448523
31
0
40
0.98025974026
41
1.69049748642
42
3.11705770053
0
ELLIPSE
5
69
100
AcDbEntity
8
0
6
ByLayer
62
256
370
9
100
AcDbEllipse
10
-19.9952
20
62.4819195
30
0
11
2.96090467932e-15
21
49.3290105
31
0
40
0.98025974026
41
2.98193268217
42
3.30125262502
0
ELLIPSE
5
6A
100
AcDbEntity
8
0
6
ByLayer
62
256
370
9
100
AcDbEllipse
10
-7.8048026
20
15.348795
30
0
11
3.36237188204e-17
21
0.560175
31
0
40
0.98025974026
41
3.78509376239
42
4.71238898038
0
LINE
5
6B
100
AcDbEntity
8
0
6
ByLayer
62
256
370
9
100
AcDbLine
10
-8.1342728
20
17.70153
11
-7.2556856
21
15.348795
0
ELLIPSE
5
6C
100
AcDbEntity
8
0
6
ByLayer
62
256
370
9
100
AcDbEllipse
10
-8.57530750271
20
17.5684542804
30
0
11
2.81621165367e-17
21
0.469184081489
31
0
40
0.98025974026
41
4.99996874419
42
6.27939965257
0
ELLIPSE
5
6D
100
AcDbEntity
8
0
6
ByLayer
62
256
370
9
100
AcDbEllipse
10
-19.9952
20
66.3012736164
30
0
11
2.98018191628e-15
21
49.6501714718
31
0
40
0.98025974026
41
2.90470872559
42
3.3784765816
0
ELLIPSE
5
6E
100
AcDbEntity
8
0
6
ByLayer
62
256
370
9
100
AcDbEllipse
10
-32.1855974
20
15.348795
30
0
11
3.36237188204e-17
21
0.560175
31
0
40
0.98025974026
41
1.5707963268
42
2.4980915448
0
LINE
5
6F
100
AcDbEntity
8
0
6
ByLayer
62
256
370
9
100
AcDbLine
10
-31.8561272
20
17.70153
11
-32.7347144
21
15.348795
0
ELLIPSE
5
70
100
AcDbEntity
8
0
6
ByLayer
62
256
370
9
100
AcDbEllipse
10
-31.4150924973
20
17.5684542804
30
0
11
2.81621165367e-17
21
0.469184081489
31
0
40
0.98025974026
41
0.00378565460511
42
1.28321656298
0
ELLIPSE
5
71
100
AcDbEntity
8
0
6
ByLayer
62
256
370
9
100
AcDbEllipse
10
-14.7236768
20
35.47775
30
0
11
1.31243577479e-15
21
21.8653300687
31
0
40
0.98025974026
41
3.37952917962
42
3.48656971653
0
ELLIPSE
5
72
100
AcDbEntity
8
0
6
ByLayer
62
256
370
9
100
AcDbEllipse
10
-11.0272523631
20
14.0957719736
30
0
11
5.15122770013e-17
21
0.858200424628
31
0
40
0.98025974026
41
5.00154238966
42
1.54674598212
0
ELLIPSE
5
73
100
AcDbEntity
8
0
6
ByLayer
62
256
370
9
100
AcDbEllipse
10
-12.5821205
20
14.6205675
30
0
11
5.31637674387e-17
21
0.885714444143
31
0
40
0.98025974026
41
3.46334320799
42
4.10684431679
0
ELLIPSE
5
74
100
AcDbEntity
8
0
6
ByLayer
62
256
370
9
100
AcDbEllipse
10
-9.8365355
20
14.8446375
30
0
11
3.83369378994e-17
21
0.638697768755
31
0
40
0.98025974026
41
2.48054948475
42
3.40784470274
0
ELLIPSE
5
75
100
AcDbEntity
8
0
6
ByLayer
62
256
370
9
100
AcDbEllipse
10
-28.9631476368
20
14.0957719736
30
0
11
5.15122770013e-17
21
0.858200424628
31
0
40
0.98025974026
41
4.73643932507
42
1.28164291753
0
ELLIPSE
5
76
100
AcDbEntity
8
0
6
ByLayer
62
256
370
9
100
AcDbEllipse
10
-27.4082795
20
14.6205675
30
0
11
5.31637674387e-17
21
0.885714444143
31
0
40
0.98025974026
41
2.1763409904
42
2.8198420992
0
ELLIPSE
5
77
100
AcDbEntity
8
0
6
ByLayer
62
256
370
9
100
AcDbEllipse
10
-30.1538645
20
14.8446375
30
0
11
3.83369378994e-17
21
0.638697768755
31
0
40
0.98025974026
41
2.87534060444
42
3.80263582244
0
ELLIPSE
5
78
100
AcDbEntity
8
0
6
ByLayer
62
256
370
9
100
AcDbEllipse
10
-25.2667232
20
35.47775
30
0
11
1.31243577479e-15
21
21.8653300687
31
0
40
0.98025974026
41
2.79661559066
42
2.90365612757
0
ELLIPSE
5
79
100
AcDbEntity
8
0
6
ByLayer
62
256
370
9
100
AcDbEllipse
10
-19.9952
20
61.3406238261
30
0
11
3.0484140623e-15
21
50.7869268261
31
0
40
0.98025974026
41
2.8942133363
42
3.38897197089
0
LINE
5
7A
100
AcDbEntity
8
0
6
ByLayer
62
256
370
9
100
AcDbLine
10
-7.0360388
20
11.87571
11
-6.1574516
21
9.522975
0
ELLIPSE
5
7B
100
AcDbEntity
8
0
6
ByLayer
62
256
370
9
100
AcDbEllipse
10
-7.5851558
20
11.39956125
30
0
11
4.41291294945e-17
21
0.735196342994
31
0
40
0.98025974026
41
5.41688304463
42
0.309702944545
0
ELLIPSE
5
7C
100
AcDbEntity
8
0
6
ByLayer
62
256
370
9
100
AcDbEllipse
10
-6.5418335
20
9.3549225
30
0
11
2.56070613511e-17
21
0.426616569958
31
0
40
0.98025974026
41
3.54648443989
42
5.11728076667
0
LINE
5
7D
100
AcDbEntity
8
0
6
ByLayer
62
256
370
9
100
AcDbLine
10
-32.9543612
20
11.87571
11
-33.8329484
21
9.522975
0
ELLIPSE
5
7E
100
AcDbEntity
8
0
6
ByLayer
62
256
370
9
100
AcDbEllipse
10
-32.4052442
20
11.39956125
30
0
11
4.41291294945e-17
21
0.735196342994
31
0
40
0.98025974026
41
5.97348236263
42
0.866302262555
0
ELLIPSE
5
7F
100
AcDbEntity
8
0
6
ByLayer
62
256
370
9
100
AcDbEllipse
10
-33.4485665
20
9.3549225
30
0
11
2.56070613511e-17
21
0.426616569958
31
0
40
0.98025974026
41
1.16590454051
42
2.7367008673
0
ELLIPSE
5
80
100
AcDbEntity
8
0
6
ByLayer
62
256
370
9
100
AcDbEllipse
10
-19.9952
20
60.3471668729
30
0
11
3.19500951506e-15
21
53.2292238304
31
0
40
0.98025974026
41
2.87754417556
42
3.40564113163
0
ELLIPSE
5
81
100
AcDbEntity
8
0
6
ByLayer
62
256
370
9
100
AcDbEllipse
10
-19.9952
20
54.3958080326
30
0
11
2.99994269668e-15
21
49.9793883327
31
0
40
0.98025974026
41
2.8599214461
42
3.42326386109
0
ELLIPSE
5
82
100
AcDbEntity
8
0
6
ByLayer
62
256
370
9
100
AcDbEllipse
10
-19.9952
20
53.118594375
30
0
11
3.13120881515e-15
21
52.166296875
31
0
40
0.98025974026
41
2.84743594282
42
3.43574936437
0
ELLIPSE
5
83
100
AcDbEntity
8
0
6
ByLayer
62
256
370
9
100
AcDbEllipse
10
-33.7202600417
20
6.07984718479
30
0
11
1.95083146412e-17
21
0.325010752454
31
0
40
0.98025974026
41
5.94081667466
42
1.13195087192
0
ELLIPSE
5
84
100
AcDbEntity
8
0
6
ByLayer
62
256
370
9
100
AcDbEllipse
10
-34.71993386
20
3.52481880882
30
0
11
2.08629219894e-17
21
0.347578665759
31
0
40
0.98025974026
41
1.22955798488
42
2.83932988672
0
LINE
5
85
100
AcDbEntity
8
0
6
ByLayer
62
256
370
9
100
AcDbLine
10
-35.0410058
20
3.6411375
11
-34.00866584
21
6.2179425
0
ELLIPSE
5
86
100
AcDbEntity
8
0
6
ByLayer
62
256
370
9
100
AcDbEllipse
10
-6.27013995828
20
6.07984718479
30
0
11
1.95083146412e-17
21
0.325010752454
31
0
40
0.98025974026
41
5.15123443526
42
0.342368632515
0
ELLIPSE
5
87
100
AcDbEntity
8
0
6
ByLayer
62
256
370
9
100
AcDbEllipse
10
-5.27046613995
20
3.52481880882
30
0
11
2.08629219894e-17
21
0.347578665759
31
0
40
0.98025974026
41
3.44385542047
42
5.05362732229
0
LINE
5
88
100
AcDbEntity
8
0
6
ByLayer
62
256
370
9
100
AcDbLine
10
-4.9493942
20
3.6411375
11
-5.98173416
21
6.2179425
0
LINE
5
89
100
AcDbEntity
8
0
6
ByLayer
62
256
370
9
100
AcDbLine
10
-8.463743
20
22.294965
11
-8.463743
21
20.278335
0
ELLIPSE
5
8A
100
AcDbEntity
8
0
6
ByLayer
62
256
370
9
100
AcDbEllipse
10
-8.70633068797
20
20.3017378666
30
0
11
1.4920484505e-17
21
0.248576977825
31
0
40
0.98025974026
41
3.23587965583
42
4.61810197815
0
ELLIPSE
5
8B
100
AcDbEntity
8
0
6
ByLayer
62
256
370
9
100
AcDbEllipse
10
-8.70633068797
20
22.2715621334
30
0
11
1.4920484505e-17
21
0.248576977825
31
0
40
0.98025974026
41
4.80667598262
42
6.18889830494
0
LINE
5
8C
100
AcDbEntity
8
0
6
ByLayer
62
256
370
9
100
AcDbLine
10
-31.3070102
20
22.519035
11
-8.6833898
21
22.519035
0
ELLIPSE
5
8D
100
AcDbEntity
8
0
6
ByLayer
62
256
370
9
100
AcDbEllipse
10
-31.284069312
20
22.2715621334
30
0
11
1.4920484505e-17
21
0.248576977825
31
0
40
0.98025974026
41
0.0942870022351
42
1.47650932456
0
LINE
5
8E
100
AcDbEntity
8
0
6
ByLayer
62
256
370
9
100
AcDbLine
10
-31.526657
20
20.278335
11
-31.526657
21
22.294965
0
LINE
5
8F
100
AcDbEntity
8
0
6
ByLayer
62
256
370
9
100
AcDbLine
10
-8.6833898
20
20.054265
11
-31.3070102
21
20.054265
0
ELLIPSE
5
90
100
AcDbEntity
8
0
6
ByLayer
62
256
370
9
100
AcDbEllipse
10
-31.284069312
20
20.3017378666
30
0
11
1.4920484505e-17
21
0.248576977825
31
0
40
0.98025974026
41
1.66508332903
42
3.04730565136
0
MTEXT
5
91
100
AcDbEntity
8
0
6
ByLayer
62
256
370
9
100
AcDbMText
10
-20.7465358216
20
44.284705734
30
0
40
0.1098234
41
1.90665630648
71
1
72
5
1
Front Center Chest Plate
7
iso
210
0
220
0
230
1
50
0
73
2
44
1
0
MTEXT
5
92
100
AcDbEntity
8
0
6
ByLayer
62
256
370
9
100
AcDbMText
10
-29.4286386497
20
41.4402650195
30
0
40
0.1098234
41
1.73581990648
71
1
72
5
1
Front Left Chest Plate
7
iso
210
0
220
0
230
1
50
0
73
2
44
1
0
MTEXT
5
93
100
AcDbEntity
8
0
6
ByLayer
62
256
370
9
100
AcDbMText
10
-12.5018774053
20
41.5049888202
30
0
40
0.1098234
41
1.79683290648
71
1
72
5
1
Front Right Chest Plate
7
iso
210
0
220
0
230
1
50
0
73
2
44
1
0
MTEXT
5
94
100
AcDbEntity
8
0
6
ByLayer
62
256
370
9
100
AcDbMText
10
-20.8508880192
20
34.3845191155
30
0
40
0.1098234
41
1.62599645
71
1
72
5
1
Upper Front Plate #2
7
iso
210
0
220
0
230
1
50
0
73
2
44
1
0
MTEXT
5
95
100
AcDbEntity
8
0
6
ByLayer
62
256
370
9
100
AcDbMText
10
-20.6630540636
20
28.1250462859
30
0
40
0.1098234
41
1.60159125
71
1
72
5
1
Upper Front Plate #1
7
iso
210
0
220
0
230
1
50
0
73
2
44
1
0
MTEXT
5
96
100
AcDbEntity
8
0
6
ByLayer
62
256
370
9
100
AcDbMText
10
-20.5962686573
20
21.9720270757
30
0
40
0.1098234
41
1.33618475648
71
1
72
5
1
Front Waist Plate
7
iso
210
0
220
0
230
1
50
0
73
2
44
1
0
MTEXT
5
97
100
AcDbEntity
8
0
6
ByLayer
62
256
370
9
100
AcDbMText
10
-20.7632321733
20
15.1589954242
30
0
40
0.1098234
41
1.61379385
71
1
72
5
1
Lower Front Plate #1
7
iso
210
0
220
0
230
1
50
0
73
2
44
1
0
MTEXT
5
98
100
AcDbEntity
8
0
6
ByLayer
62
256
370
9
100
AcDbMText
10
-20.7632321733
20
8.82287598854
30
0
40
0.1098234
41
1.63819905
71
1
72
5
1
Lower Front Plate #2
7
iso
210
0
220
0
230
1
50
0
73
2
44
1
0
MTEXT
5
99
100
AcDbEntity
8
0
6
ByLayer
62
256
370
9
100
AcDbMText
10
-20.7699107139
20
2.75246478716
30
0
40
0.1098234
41
1.63819905
71
1
72
5
1
Lower Front Plate #3
7
iso
210
0
220
0
230
1
50
0
73
2
44
1
0
CIRCLE
5
9A
100
AcDbEntity
8
0
6
ByLayer
62
256
370
-1
100
AcDbCircle
10
-25.8707519
20
50.169273
40
0.065
0
CIRCLE
5
9B
100
AcDbEntity
8
0
6
ByLayer
62
256
370
-1
100
AcDbCircle
10
-27.2435444
20
49.5306735
40
0.065
0
CIRCLE
5
9C
100
AcDbEntity
8
0
6
ByLayer
62
256
370
-1
100
AcDbCircle
10
-27.682838
20
38.2151385
40
0.065
0
CIRCLE
5
9D
100
AcDbEntity
8
0
6
ByLayer
62
256
370
-1
100
AcDbCircle
10
-25.7060168
20
46.718595
40
0.065
0
CIRCLE
5
9E
100
AcDbEntity
8
0
6
ByLayer
62
256
370
-1
100
AcDbCircle
10
-25.7060168
20
45.03807
40
0.065
0
CIRCLE
5
9F
100
AcDbEntity
8
0
6
ByLayer
62
256
370
-1
100
AcDbCircle
10
-27.75971438
20
47.838945
40
0.065
0
CIRCLE
5
A0
100
AcDbEntity
8
0
6
ByLayer
62
256
370
-1
100
AcDbCircle
10
-28.29784904
20
46.15842
40
0.065
0
CIRCLE
5
A1
100
AcDbEntity
8
0
6
ByLayer
62
256
370
-1
100
AcDbCircle
10
-25.7060168
20
43.357545
40
0.065
0
CIRCLE
5
A2
100
AcDbEntity
8
0
6
ByLayer
62
256
370
-1
100
AcDbCircle
10
-25.8158402
20
48.511155
40
0.065
0
CIRCLE
5
A3
100
AcDbEntity
8
0
6
ByLayer
62
256
370
-1
100
AcDbCircle
10
-29.17643624
20
44.477895
40
0.065
0
CIRCLE
5
A4
100
AcDbEntity
8
0
6
ByLayer
62
256
370
-1
100
AcDbCircle
10
-30.2087762
20
42.909405
40
0.065
0
CIRCLE
5
A5
100
AcDbEntity
8
0
6
ByLayer
62
256
370
-1
100
AcDbCircle
10
-25.8158402
20
41.22888
40
0.065
0
CIRCLE
5
A6
100
AcDbEntity
8
0
6
ByLayer
62
256
370
-1
100
AcDbCircle
10
-25.9256636
20
39.548355
40
0.065
0
CIRCLE
5
A7
100
AcDbEntity
8
0
6
ByLayer
62
256
370
-1
100
AcDbCircle
10
-25.9256636
20
38.338377
40
0.065
0
CIRCLE
5
A8
100
AcDbEntity
8
0
6
ByLayer
62
256
370
-1
100
AcDbCircle
10
-34.83234134
20
39.324285
40
0.065
0
CIRCLE
5
A9
100
AcDbEntity
8
0
6
ByLayer
62
256
370
-1
100
AcDbCircle
10
-29.330189
20
38.0806965
40
0.065
0
CIRCLE
5
AA
100
AcDbEntity
8
0
6
ByLayer
62
256
370
-1
100
AcDbCircle
10
-31.6364804
20
41.45295
40
0.065
0
CIRCLE
5
AB
100
AcDbEntity
8
0
6
ByLayer
62
256
370
-1
100
AcDbCircle
10
-30.97754
20
37.912644
40
0.065
0
CIRCLE
5
AC
100
AcDbEntity
8
0
6
ByLayer
62
256
370
-1
100
AcDbCircle
10
-32.624891
20
37.710981
40
0.065
0
CIRCLE
5
AD
100
AcDbEntity
8
0
6
ByLayer
62
256
370
-1
100
AcDbCircle
10
-34.52483582
20
37.576539
40
0.065
0
CIRCLE
5
AE
100
AcDbEntity
8
0
6
ByLayer
62
256
370
-1
100
AcDbCircle
10
-33.174008
20
40.3326
40
0.065
0
CIRCLE
5
AF
100
AcDbEntity
8
0
6
ByLayer
62
256
370
-1
100
AcDbCircle
10
-21.93907418
20
49.96761
40
0.065
0
CIRCLE
5
B0
100
AcDbEntity
8
0
6
ByLayer
62
256
370
-1
100
AcDbCircle
10
-21.98300354
20
48.287085
40
0.065
0
CIRCLE
5
B1
100
AcDbEntity
8
0
6
ByLayer
62
256
370
-1
100
AcDbCircle
10
-22.05987992
20
44.926035
40
0.065
0
CIRCLE
5
B2
100
AcDbEntity
8
0
6
ByLayer
62
256
370
-1
100
AcDbCircle
10
-22.10380928
20
43.24551
40
0.065
0
CIRCLE
5
B3
100
AcDbEntity
8
0
6
ByLayer
62
256
370
-1
100
AcDbCircle
10
-22.14773864
20
41.564985
40
0.065
0
CIRCLE
5
B4
100
AcDbEntity
8
0
6
ByLayer
62
256
370
-1
100
AcDbCircle
10
-22.1367563
20
39.88446
40
0.065
0
CIRCLE
5
B5
100
AcDbEntity
8
0
6
ByLayer
62
256
370
-1
100
AcDbCircle
10
-22.21363268
20
38.629668
40
0.065
0
CIRCLE
5
B6
100
AcDbEntity
8
0
6
ByLayer
62
256
370
-1
100
AcDbCircle
10
-22.0269329
20
46.60656
40
0.065
0
CIRCLE
5
B7
100
AcDbEntity
8
0
6
ByLayer
62
256
370
-1
100
AcDbCircle
10
-20.8188755
20
49.765947
40
0.065
0
CIRCLE
5
B8
100
AcDbEntity
8
0
6
ByLayer
62
256
370
-1
100
AcDbCircle
10
-20.8188755
20
38.629668
40
0.065
0
CIRCLE
5
B9
100
AcDbEntity
8
0
6
ByLayer
62
256
370
-1
100
AcDbCircle
10
-18.06092582
20
49.96761
40
0.065
0
CIRCLE
5
BA
100
AcDbEntity
8
0
6
ByLayer
62
256
370
-1
100
AcDbCircle
10
-18.01699646
20
48.287085
40
0.065
0
CIRCLE
5
BB
100
AcDbEntity
8
0
6
ByLayer
62
256
370
-1
100
AcDbCircle
10
-17.94012008
20
44.926035
40
0.065
0
CIRCLE
5
BC
100
AcDbEntity
8
0
6
ByLayer
62
256
370
-1
100
AcDbCircle
10
-17.89619072
20
43.24551
40
0.065
0
CIRCLE
5
BD
100
AcDbEntity
8
0
6
ByLayer
62
256
370
-1
100
AcDbCircle
10
-17.85226136
20
41.564985
40
0.065
0
CIRCLE
5
BE
100
AcDbEntity
8
0
6
ByLayer
62
256
370
-1
100
AcDbCircle
10
-17.8632437
20
39.88446
40
0.065
0
CIRCLE
5
BF
100
AcDbEntity
8
0
6
ByLayer
62
256
370
-1
100
AcDbCircle
10
-17.78636732
20
38.629668
40
0.065
0
CIRCLE
5
C0
100
AcDbEntity
8
0
6
ByLayer
62
256
370
-1
100
AcDbCircle
10
-17.9730671
20
46.60656
40
0.065
0
CIRCLE
5
C1
100
AcDbEntity
8
0
6
ByLayer
62
256
370
-1
100
AcDbCircle
10
-19.1811245
20
49.765947
40
0.065
0
CIRCLE
5
C2
100
AcDbEntity
8
0
6
ByLayer
62
256
370
-1
100
AcDbCircle
10
-19.1811245
20
38.629668
40
0.065
0
ELLIPSE
5
C3
100
AcDbEntity
8
0
6
ByLayer
62
256
370
9
100
AcDbEllipse
10
57.3992054578
20
44.1159689917
30
0
11
0
21
74.7729877071
31
0
40
0.98025974026
41
1.50147206824
42
1.64829214355
0
ELLIPSE
5
C4
100
AcDbEntity
8
0
6
ByLayer
62
256
370
9
100
AcDbEllipse
10
-15.4213626407
20
38.3405315192
30
0
11
0
21
0.261899515119
31
0
40
0.98025974026
41
1.62182283483
42
2.82192326164
0
ELLIPSE
5
C5
100
AcDbEntity
8
0
6
ByLayer
62
256
370
9
100
AcDbEllipse
10
-13.9913514995
20
48.5911705296
30
0
11
0
21
1.90047447356
31
0
40
0.98025974026
41
5.00455075068
42
1.1911903193
0
ELLIPSE
5
C6
100
AcDbEntity
8
0
6
ByLayer
62
256
370
9
100
AcDbEllipse
10
-13.6350428
20
49.2954
30
0
11
0
21
0.0840337186681
31
0
40
0.98025974026
41
0
42
6.28318530718
0
ELLIPSE
5
C7
100
AcDbEntity
8
0
6
ByLayer
62
256
370
9
100
AcDbEllipse
10
-9.02246
20
39.21225
30
0
11
0
21
0.0840337186681
31
0
40
0.98025974026
41
0
42
6.28318530718
0
ELLIPSE
5
C8
100
AcDbEntity
8
0
6
ByLayer
62
256
370
9
100
AcDbEllipse
10
-5.7209673928
20
37.9989366068
30
0
11
0
21
0.835869217565
31
0
40
0.98025974026
41
2.86159243545
42
4.41723753695
0
ELLIPSE
5
C9
100
AcDbEntity
8
0
6
ByLayer
62
256
370
9
100
AcDbEllipse
10
-18.3182263572
20
-46.5985575
30
0
11
-3.5527136788e-15
21
84.7391711761
31
0
40
0.98025974026
41
6.13370232014
42
6.24927598169
0
ELLIPSE
5
CA
100
AcDbEntity
8
0
6
ByLayer
62
256
370
9
100
AcDbEllipse
10
-0.4435566575
20
50.972876989
30
0
11
0
21
12.140059108
31
0
40
0.98025974026
41
1.72247420319
42
2.72229282223
0
ELLIPSE
5
CB
100
AcDbEntity
8
0
6
ByLayer
62
256
370
9
100
AcDbEllipse
10
-5.5654816328
20
39.2105778358
30
0
11
0
21
0.730737659497
31
0
40
0.98025974026
41
4.71467730591
42
5.88610586195
0
LINE
5
CC
100
AcDbEntity
8
0
6
ByLayer
62
256
370
9
100
AcDbLine
10
-4.8491708
20
39.21225
11
-4.93702952
21
37.755795
0
CIRCLE
5
CD
100
AcDbEntity
8
0
6
ByLayer
62
256
370
-1
100
AcDbCircle
10
-14.1292481
20
50.169273
40
0.065
0
CIRCLE
5
CE
100
AcDbEntity
8
0
6
ByLayer
62
256
370
-1
100
AcDbCircle
10
-12.7564556
20
49.5306735
40
0.065
0
CIRCLE
5
CF
100
AcDbEntity
8
0
6
ByLayer
62
256
370
-1
100
AcDbCircle
10
-12.317162
20
38.2151385
40
0.065
0
CIRCLE
5
D0
100
AcDbEntity
8
0
6
ByLayer
62
256
370
-1
100
AcDbCircle
10
-14.2939832
20
46.718595
40
0.065
0
CIRCLE
5
D1
100
AcDbEntity
8
0
6
ByLayer
62
256
370
-1
100
AcDbCircle
10
-14.2939832
20
45.03807
40
0.065
0
CIRCLE
5
D2
100
AcDbEntity
8
0
6
ByLayer
62
256
370
-1
100
AcDbCircle
10
-12.24028562
20
47.838945
40
0.065
0
CIRCLE
5
D3
100
AcDbEntity
8
0
6
ByLayer
62
256
370
-1
100
AcDbCircle
10
-11.70215096
20
46.15842
40
0.065
0
CIRCLE
5
D4
100
AcDbEntity
8
0
6
ByLayer
62
256
370
-1
100
AcDbCircle
10
-14.2939832
20
43.357545
40
0.065
0
CIRCLE
5
D5
100
AcDbEntity
8
0
6
ByLayer
62
256
370
-1
100
AcDbCircle
10
-14.1841598
20
48.511155
40
0.065
0
CIRCLE
5
D6
100
AcDbEntity
8
0
6
ByLayer
62
256
370
-1
100
AcDbCircle
10
-10.82356376
20
44.477895
40
0.065
0
CIRCLE
5
D7
100
AcDbEntity
8
0
6
ByLayer
62
256
370
-1
100
AcDbCircle
10
-9.7912238
20
42.909405
40
0.065
0
CIRCLE
5
D8
100
AcDbEntity
8
0
6
ByLayer
62
256
370
-1
100
AcDbCircle
10
-14.1841598
20
41.22888
40
0.065
0
CIRCLE
5
D9
100
AcDbEntity
8
0
6
ByLayer
62
256
370
-1
100
AcDbCircle
10
-14.0743364
20
39.548355
40
0.065
0
CIRCLE
5
DA
100
AcDbEntity
8
0
6
ByLayer
62
256
370
-1
100
AcDbCircle
10
-14.0743364
20
38.338377
40
0.065
0
CIRCLE
5
DB
100
AcDbEntity
8
0
6
ByLayer
62
256
370
-1
100
AcDbCircle
10
-5.16765866
20
39.324285
40
0.065
0
CIRCLE
5
DC
100
AcDbEntity
8
0
6
ByLayer
62
256
370
-1
100
AcDbCircle
10
-10.669811
20
38.0806965
40
0.065
0
CIRCLE
5
DD
100
AcDbEntity
8
0
6
ByLayer
62
256
370
-1
100
AcDbCircle
10
-8.3635196
20
41.45295
40
0.065
0
CIRCLE
5
DE
100
AcDbEntity
8
0
6
ByLayer
62
256
370
-1
100
AcDbCircle
10
-9.02246
20
37.912644
40
0.065
0
CIRCLE
5
DF
100
AcDbEntity
8
0
6
ByLayer
62
256
370
-1
100
AcDbCircle
10
-7.375109
20
37.710981
40
0.065
0
CIRCLE
5
E0
100
AcDbEntity
8
0
6
ByLayer
62
256
370
-1
100
AcDbCircle
10
-5.47516418
20
37.576539
40
0.065
0
CIRCLE
5
E1
100
AcDbEntity
8
0
6
ByLayer
62
256
370
-1
100
AcDbCircle
10
-6.825992
20
40.3326
40
0.065
0
CIRCLE
5
E2
100
AcDbEntity
8
0
6
ByLayer
62
256
370
-1
100
AcDbCircle
10
-32.075774
20
31.235358
40
0.065
0
CIRCLE
5
E3
100
AcDbEntity
8
0
6
ByLayer
62
256
370
-1
100
AcDbCircle
10
-30.7029815
20
31.4930385
40
0.065
0
CIRCLE
5
E4
100
AcDbEntity
8
0
6
ByLayer
62
256
370
-1
100
AcDbCircle
10
-29.0556305
20
31.7843295
40
0.065
0
CIRCLE
5
E5
100
AcDbEntity
8
0
6
ByLayer
62
256
370
-1
100
AcDbCircle
10
-27.4082795
20
32.019603
40
0.065
0
CIRCLE
5
E6
100
AcDbEntity
8
0
6
ByLayer
62
256
370
-1
100
AcDbCircle
10
-25.7609285
20
32.198859
40
0.065
0
CIRCLE
5
E7
100
AcDbEntity
8
0
6
ByLayer
62
256
370
-1
100
AcDbCircle
10
-24.1135775
20
32.3445045
40
0.065
0
CIRCLE
5
E8
100
AcDbEntity
8
0
6
ByLayer
62
256
370
-1
100
AcDbCircle
10
-22.4662265
20
32.4341325
40
0.065
0
CIRCLE
5
E9
100
AcDbEntity
8
0
6
ByLayer
62
256
370
-1
100
AcDbCircle
10
-20.8188755
20
32.4789465
40
0.065
0
CIRCLE
5
EA
100
AcDbEntity
8
0
6
ByLayer
62
256
370
-1
100
AcDbCircle
10
-7.924226
20
31.235358
40
0.065
0
CIRCLE
5
EB
100
AcDbEntity
8
0
6
ByLayer
62
256
370
-1
100
AcDbCircle
10
-9.2970185
20
31.4930385
40
0.065
0
CIRCLE
5
EC
100
AcDbEntity
8
0
6
ByLayer
62
256
370
-1
100
AcDbCircle
10
-10.9443695
20
31.7843295
40
0.065
0
CIRCLE
5
ED
100
AcDbEntity
8
0
6
ByLayer
62
256
370
-1
100
AcDbCircle
10
-12.5917205
20
32.019603
40
0.065
0
CIRCLE
5
EE
100
AcDbEntity
8
0
6
ByLayer
62
256
370
-1
100
AcDbCircle
10
-14.2390715
20
32.198859
40
0.065
0
CIRCLE
5
EF
100
AcDbEntity
8
0
6
ByLayer
62
256
370
-1
100
AcDbCircle
10
-15.8864225
20
32.3445045
40
0.065
0
CIRCLE
5
F0
100
AcDbEntity
8
0
6
ByLayer
62
256
370
-1
100
AcDbCircle
10
-17.5337735
20
32.4341325
40
0.065
0
CIRCLE
5
F1
100
AcDbEntity
8
0
6
ByLayer
62
256
370
-1
100
AcDbCircle
10
-19.1811245
20
32.4789465
40
0.065
0
CIRCLE
5
F2
100
AcDbEntity
8
0
6
ByLayer
62
256
370
-1
100
AcDbCircle
10
-19.1715245
20
26.395446
40
0.065
0
CIRCLE
5
F3
100
AcDbEntity
8
0
6
ByLayer
62
256
370
-1
100
AcDbCircle
10
-17.5241735
20
26.3394285
40
0.065
0
CIRCLE
5
F4
100
AcDbEntity
8
0
6
ByLayer
62
256
370
-1
100
AcDbCircle
10
-15.8768225
20
26.2273935
40
0.065
0
CIRCLE
5
F5
100
AcDbEntity
8
0
6
ByLayer
62
256
370
-1
100
AcDbCircle
10
-14.2294715
20
26.059341
40
0.065
0
CIRCLE
5
F6
100
AcDbEntity
8
0
6
ByLayer
62
256
370
-1
100
AcDbCircle
10
-12.5821205
20
25.8240675
40
0.065
0
CIRCLE
5
F7
100
AcDbEntity
8
0
6
ByLayer
62
256
370
-1
100
AcDbCircle
10
-10.9347695
20
25.5327765
40
0.065
0
CIRCLE
5
F8
100
AcDbEntity
8
0
6
ByLayer
62
256
370
-1
100
AcDbCircle
10
-9.2874185
20
25.185468
40
0.065
0
CIRCLE
5
F9
100
AcDbEntity
8
0
6
ByLayer
62
256
370
-1
100
AcDbCircle
10
-8.45276066
20
24.983805
40
0.065
0
CIRCLE
5
FA
100
AcDbEntity
8
0
6
ByLayer
62
256
370
-1
100
AcDbCircle
10
-20.8284755
20
26.395446
40
0.065
0
CIRCLE
5
FB
100
AcDbEntity
8
0
6
ByLayer
62
256
370
-1
100
AcDbCircle
10
-22.4758265
20
26.3394285
40
0.065
0
CIRCLE
5
FC
100
AcDbEntity
8
0
6
ByLayer
62
256
370
-1
100
AcDbCircle
10
-24.1231775
20
26.2273935
40
0.065
0
CIRCLE
5
FD
100
AcDbEntity
8
0
6
ByLayer
62
256
370
-1
100
AcDbCircle
10
-25.7705285
20
26.059341
40
0.065
0
CIRCLE
5
FE
100
AcDbEntity
8
0
6
ByLayer
62
256
370
-1
100
AcDbCircle
10
-27.4178795
20
25.8240675
40
0.065
0
CIRCLE
5
FF
100
AcDbEntity
8
0
6
ByLayer
62
256
370
-1
100
AcDbCircle
10
-29.0652305
20
25.5327765
40
0.065
0
CIRCLE
5
100
100
AcDbEntity
8
0
6
ByLayer
62
256
370
-1
100
AcDbCircle
10
-30.7125815
20
25.185468
40
0.065
0
CIRCLE
5
101
100
AcDbEntity
8
0
6
ByLayer
62
256
370
-1
100
AcDbCircle
10
-31.54723934
20
24.983805
40
0.065
0
CIRCLE
5
102
100
AcDbEntity
8
0
6
ByLayer
62
256
370
-1
100
AcDbCircle
10
-30.7029815
20
21.28665
40
0.065
0
CIRCLE
5
103
100
AcDbEntity
8
0
6
ByLayer
62
256
370
-1
100
AcDbCircle
10
-29.0556305
20
21.28665
40
0.065
0
CIRCLE
5
104
100
AcDbEntity
8
0
6
ByLayer
62
256
370
-1
100
AcDbCircle
10
-25.7609285
20
21.28665
40
0.065
0
CIRCLE
5
105
100
AcDbEntity
8
0
6
ByLayer
62
256
370
-1
100
AcDbCircle
10
-24.1135775
20
21.28665
40
0.065
0
CIRCLE
5
106
100
AcDbEntity
8
0
6
ByLayer
62
256
370
-1
100
AcDbCircle
10
-22.4662265
20
21.28665
40
0.065
0
CIRCLE
5
107
100
AcDbEntity
8
0
6
ByLayer
62
256
370
-1
100
AcDbCircle
10
-20.8188755
20
21.28665
40
0.065
0
CIRCLE
5
108
100
AcDbEntity
8
0
6
ByLayer
62
256
370
-1
100
AcDbCircle
10
-19.1715245
20
21.28665
40
0.065
0
CIRCLE
5
109
100
AcDbEntity
8
0
6
ByLayer
62
256
370
-1
100
AcDbCircle
10
-17.5241735
20
21.28665
40
0.065
0
CIRCLE
5
10A
100
AcDbEntity
8
0
6
ByLayer
62
256
370
-1
100
AcDbCircle
10
-15.8768225
20
21.28665
40
0.065
0
CIRCLE
5
10B
100
AcDbEntity
8
0
6
ByLayer
62
256
370
-1
100
AcDbCircle
10
-14.2294715
20
21.28665
40
0.065
0
CIRCLE
5
10C
100
AcDbEntity
8
0
6
ByLayer
62
256
370
-1
100
AcDbCircle
10
-10.9347695
20
21.28665
40
0.065
0
CIRCLE
5
10D
100
AcDbEntity
8
0
6
ByLayer
62
256
370
-1
100
AcDbCircle
10
-9.2874185
20
21.28665
40
0.065
0
CIRCLE
5
10E
100
AcDbEntity
8
0
6
ByLayer
62
256
370
-1
100
AcDbCircle
10
-31.526657
20
17.7127335
40
0.065
0
CIRCLE
5
10F
100
AcDbEntity
8
0
6
ByLayer
62
256
370
-1
100
AcDbCircle
10
-30.7029815
20
17.5558845
40
0.065
0
CIRCLE
5
110
100
AcDbEntity
8
0
6
ByLayer
62
256
370
-1
100
AcDbCircle
10
-20.8188755
20
16.312296
40
0.065
0
CIRCLE
5
111
100
AcDbEntity
8
0
6
ByLayer
62
256
370
-1
100
AcDbCircle
10
-29.0556305
20
17.208576
40
0.065
0
CIRCLE
5
112
100
AcDbEntity
8
0
6
ByLayer
62
256
370
-1
100
AcDbCircle
10
-22.4662265
20
16.401924
40
0.065
0
CIRCLE
5
113
100
AcDbEntity
8
0
6
ByLayer
62
256
370
-1
100
AcDbCircle
10
-27.4082795
20
16.917285
40
0.065
0
CIRCLE
5
114
100
AcDbEntity
8
0
6
ByLayer
62
256
370
-1
100
AcDbCircle
10
-24.1135775
20
16.513959
40
0.065
0
CIRCLE
5
115
100
AcDbEntity
8
0
6
ByLayer
62
256
370
-1
100
AcDbCircle
10
-25.7609285
20
16.693215
40
0.065
0
CIRCLE
5
116
100
AcDbEntity
8
0
6
ByLayer
62
256
370
-1
100
AcDbCircle
10
-8.473343
20
17.7127335
40
0.065
0
CIRCLE
5
117
100
AcDbEntity
8
0
6
ByLayer
62
256
370
-1
100
AcDbCircle
10
-9.2970185
20
17.5558845
40
0.065
0
CIRCLE
5
118
100
AcDbEntity
8
0
6
ByLayer
62
256
370
-1
100
AcDbCircle
10
-19.1811245
20
16.312296
40
0.065
0
CIRCLE
5
119
100
AcDbEntity
8
0
6
ByLayer
62
256
370
-1
100
AcDbCircle
10
-10.9443695
20
17.208576
40
0.065
0
CIRCLE
5
11A
100
AcDbEntity
8
0
6
ByLayer
62
256
370
-1
100
AcDbCircle
10
-17.5337735
20
16.401924
40
0.065
0
CIRCLE
5
11B
100
AcDbEntity
8
0
6
ByLayer
62
256
370
-1
100
AcDbCircle
10
-12.5917205
20
16.917285
40
0.065
0
CIRCLE
5
11C
100
AcDbEntity
8
0
6
ByLayer
62
256
370
-1
100
AcDbCircle
10
-15.8864225
20
16.513959
40
0.065
0
CIRCLE
5
11D
100
AcDbEntity
8
0
6
ByLayer
62
256
370
-1
100
AcDbCircle
10
-14.2390715
20
16.693215
40
0.065
0
CIRCLE
5
11E
100
AcDbEntity
8
0
6
ByLayer
62
256
370
-1
100
AcDbCircle
10
-7.65104984
20
11.8196925
40
0.065
0
CIRCLE
5
11F
100
AcDbEntity
8
0
6
ByLayer
62
256
370
-1
100
AcDbCircle
10
-9.2874185
20
11.42757
40
0.065
0
CIRCLE
5
120
100
AcDbEntity
8
0
6
ByLayer
62
256
370
-1
100
AcDbCircle
10
-12.5821205
20
10.8113775
40
0.065
0
CIRCLE
5
121
100
AcDbEntity
8
0
6
ByLayer
62
256
370
-1
100
AcDbCircle
10
-14.2294715
20
10.5873075
40
0.065
0
CIRCLE
5
122
100
AcDbEntity
8
0
6
ByLayer
62
256
370
-1
100
AcDbCircle
10
-15.8768225
20
10.419255
40
0.065
0
CIRCLE
5
123
100
AcDbEntity
8
0
6
ByLayer
62
256
370
-1
100
AcDbCircle
10
-17.5241735
20
10.30722
40
0.065
0
CIRCLE
5
124
100
AcDbEntity
8
0
6
ByLayer
62
256
370
-1
100
AcDbCircle
10
-19.1715245
20
10.2512025
40
0.065
0
CIRCLE
5
125
100
AcDbEntity
8
0
6
ByLayer
62
256
370
-1
100
AcDbCircle
10
-20.8188755
20
10.2512025
40
0.065
0
CIRCLE
5
126
100
AcDbEntity
8
0
6
ByLayer
62
256
370
-1
100
AcDbCircle
10
-22.4662265
20
10.30722
40
0.065
0
CIRCLE
5
127
100
AcDbEntity
8
0
6
ByLayer
62
256
370
-1
100
AcDbCircle
10
-24.1135775
20
10.419255
40
0.065
0
CIRCLE
5
128
100
AcDbEntity
8
0
6
ByLayer
62
256
370
-1
100
AcDbCircle
10
-25.7609285
20
10.5873075
40
0.065
0
CIRCLE
5
129
100
AcDbEntity
8
0
6
ByLayer
62
256
370
-1
100
AcDbCircle
10
-27.4082795
20
10.8113775
40
0.065
0
CIRCLE
5
12A
100
AcDbEntity
8
0
6
ByLayer
62
256
370
-1
100
AcDbCircle
10
-30.7029815
20
11.42757
40
0.065
0
CIRCLE
5
12B
100
AcDbEntity
8
0
6
ByLayer
62
256
370
-1
100
AcDbCircle
10
-32.33935016
20
11.8196925
40
0.065
0
CIRCLE
5
12C
100
AcDbEntity
8
0
6
ByLayer
62
256
370
-1
100
AcDbCircle
10
-33.723125
20
6.094704
40
0.065
0
CIRCLE
5
12D
100
AcDbEntity
8
0
6
ByLayer
62
256
370
-1
100
AcDbCircle
10
-17.5241735
20
4.167702
40
0.065
0
CIRCLE
5
12E
100
AcDbEntity
8
0
6
ByLayer
62
256
370
-1
100
AcDbCircle
10
-19.1715245
20
4.1116845
40
0.065
0
CIRCLE
5
12F
100
AcDbEntity
8
0
6
ByLayer
62
256
370
-1
100
AcDbCircle
10
-20.8188755
20
4.1116845
40
0.065
0
CIRCLE
5
130
100
AcDbEntity
8
0
6
ByLayer
62
256
370
-1
100
AcDbCircle
10
-22.4662265
20
4.167702
40
0.065
0
CIRCLE
5
131
100
AcDbEntity
8
0
6
ByLayer
62
256
370
-1
100
AcDbCircle
10
-24.1135775
20
4.279737
40
0.065
0
CIRCLE
5
132
100
AcDbEntity
8
0
6
ByLayer
62
256
370
-1
100
AcDbCircle
10
-25.7609285
20
4.4477895
40
0.065
0
CIRCLE
5
133
100
AcDbEntity
8
0
6
ByLayer
62
256
370
-1
100
AcDbCircle
10
-27.4082795
20
4.6718595
40
0.065
0
CIRCLE
5
134
100
AcDbEntity
8
0
6
ByLayer
62
256
370
-1
100
AcDbCircle
10
-29.0556305
20
4.9631505
40
0.065
0
CIRCLE
5
135
100
AcDbEntity
8
0
6
ByLayer
62
256
370
-1
100
AcDbCircle
10
-30.7029815
20
5.310459
40
0.065
0
CIRCLE
5
136
100
AcDbEntity
8
0
6
ByLayer
62
256
370
-1
100
AcDbCircle
10
-32.3503325
20
5.7249885
40
0.065
0
CIRCLE
5
137
100
AcDbEntity
8
0
6
ByLayer
62
256
370
-1
100
AcDbCircle
10
-10.9347695
20
4.9631505
40
0.065
0
CIRCLE
5
138
100
AcDbEntity
8
0
6
ByLayer
62
256
370
-1
100
AcDbCircle
10
-12.5821205
20
4.6718595
40
0.065
0
CIRCLE
5
139
100
AcDbEntity
8
0
6
ByLayer
62
256
370
-1
100
AcDbCircle
10
-14.2294715
20
4.4477895
40
0.065
0
CIRCLE
5
13A
100
AcDbEntity
8
0
6
ByLayer
62
256
370
-1
100
AcDbCircle
10
-15.8768225
20
4.279737
40
0.065
0
CIRCLE
5
13B
100
AcDbEntity
8
0
6
ByLayer
62
256
370
-1
100
AcDbCircle
10
-9.2874185
20
5.310459
40
0.065
0
CIRCLE
5
13C
100
AcDbEntity
8
0
6
ByLayer
62
256
370
-1
100
AcDbCircle
10
-7.6400675
20
5.7249885
40
0.065
0
CIRCLE
5
13D
100
AcDbEntity
8
0
6
ByLayer
62
256
370
-1
100
AcDbCircle
10
-6.267275
20
6.094704
40
0.065
0
CIRCLE
5
13E
100
AcDbEntity
8
0
6
ByLayer
62
256
370
-1
100
AcDbCircle
10
-34.75546496
20
3.4842885
40
0.065
0
CIRCLE
5
13F
100
AcDbEntity
8
0
6
ByLayer
62
256
370
-1
100
AcDbCircle
10
-30.7029815
20
2.419956
40
0.065
0
CIRCLE
5
140
100
AcDbEntity
8
0
6
ByLayer
62
256
370
-1
100
AcDbCircle
10
-32.3503325
20
2.800875
40
0.065
0
CIRCLE
5
141
100
AcDbEntity
8
0
6
ByLayer
62
256
370
-1
100
AcDbCircle
10
-33.6133016
20
3.159387
40
0.065
0
CIRCLE
5
142
100
AcDbEntity
8
0
6
ByLayer
62
256
370
-1
100
AcDbCircle
10
-29.0556305
20
2.083851
40
0.065
0
CIRCLE
5
143
100
AcDbEntity
8
0
6
ByLayer
62
256
370
-1
100
AcDbCircle
10
-27.4082795
20
1.814967
40
0.065
0
CIRCLE
5
144
100
AcDbEntity
8
0
6
ByLayer
62
256
370
-1
100
AcDbCircle
10
-25.7609285
20
1.590897
40
0.065
0
CIRCLE
5
145
100
AcDbEntity
8
0
6
ByLayer
62
256
370
-1
100
AcDbCircle
10
-22.4662265
20
1.322013
40
0.065
0
CIRCLE
5
146
100
AcDbEntity
8
0
6
ByLayer
62
256
370
-1
100
AcDbCircle
10
-24.1135775
20
1.434048
40
0.065
0
CIRCLE
5
147
100
AcDbEntity
8
0
6
ByLayer
62
256
370
-1
100
AcDbCircle
10
-19.1715245
20
1.2659955
40
0.065
0
CIRCLE
5
148
100
AcDbEntity
8
0
6
ByLayer
62
256
370
-1
100
AcDbCircle
10
-20.8188755
20
1.2659955
40
0.065
0
CIRCLE
5
149
100
AcDbEntity
8
0
6
ByLayer
62
256
370
-1
100
AcDbCircle
10
-17.5241735
20
1.322013
40
0.065
0
CIRCLE
5
14A
100
AcDbEntity
8
0
6
ByLayer
62
256
370
-1
100
AcDbCircle
10
-15.8768225
20
1.434048
40
0.065
0
CIRCLE
5
14B
100
AcDbEntity
8
0
6
ByLayer
62
256
370
-1
100
AcDbCircle
10
-14.2294715
20
1.590897
40
0.065
0
CIRCLE
5
14C
100
AcDbEntity
8
0
6
ByLayer
62
256
370
-1
100
AcDbCircle
10
-12.5821205
20
1.814967
40
0.065
0
CIRCLE
5
14D
100
AcDbEntity
8
0
6
ByLayer
62
256
370
-1
100
AcDbCircle
10
-9.2874185
20
2.419956
40
0.065
0
CIRCLE
5
14E
100
AcDbEntity
8
0
6
ByLayer
62
256
370
-1
100
AcDbCircle
10
-10.9347695
20
2.083851
40
0.065
0
CIRCLE
5
14F
100
AcDbEntity
8
0
6
ByLayer
62
256
370
-1
100
AcDbCircle
10
-7.6400675
20
2.800875
40
0.065
0
CIRCLE
5
150
100
AcDbEntity
8
0
6
ByLayer
62
256
370
-1
100
AcDbCircle
10
-6.3770984
20
3.159387
40
0.065
0
CIRCLE
5
151
100
AcDbEntity
8
0
6
ByLayer
62
256
370
-1
100
AcDbCircle
10
-5.23493504
20
3.4842885
40
0.065
0
LINE
5
152
100
AcDbEntity
8
0
6
ByLayer
62
256
370
9
100
AcDbLine
10
13.959713
20
62.9471161739
11
12.7516556
21
60.3703111739
0
ELLIPSE
5
153
100
AcDbEntity
8
0
6
ByLayer
62
256
370
9
100
AcDbEllipse
10
13.1321152357
20
60.1262349239
30
0
11
2.75201041131e-17
21
0.458488081105
31
0
40
0.98025974026
41
1.00942181043
42
2.77567195194
0
ELLIPSE
5
154
100
AcDbEntity
8
0
6
ByLayer
62
256
370
9
100
AcDbEllipse
10
20
20
92.6024113278
30
0
11
2.02138407719e-15
21
33.6764898461
31
0
40
0.98025974026
41
2.9270349423
42
3.35615036489
0
LINE
5
155
100
AcDbEntity
8
0
6
ByLayer
62
256
370
9
100
AcDbLine
10
26.040287
20
62.9471161739
11
27.2483444
21
60.3703111739
0
ELLIPSE
5
156
100
AcDbEntity
8
0
6
ByLayer
62
256
370
9
100
AcDbEllipse
10
26.8678847642
20
60.1262349239
30
0
11
2.75201041131e-17
21
0.458488081105
31
0
40
0.98025974026
41
3.50751335524
42
5.27376349674
0
ELLIPSE
5
157
100
AcDbEntity
8
0
6
ByLayer
62
256
370
9
100
AcDbEllipse
10
24.9487768816
20
62.0691276024
30
0
11
8.51134932821e-17
21
1.41800052975
31
0
40
0.98025974026
41
5.38007891884
42
0.797940265125
0
ELLIPSE
5
158
100
AcDbEntity
8
0
6
ByLayer
62
256
370
9
100
AcDbEllipse
10
15.0444992368
20
62.1743033168
30
0
11
8.10179130709e-17
21
1.34976769515
31
0
40
0.98025974026
41
5.54331920162
42
0.961180547905
0
ELLIPSE
5
159
100
AcDbEntity
8
0
6
ByLayer
62
256
370
9
100
AcDbEllipse
10
19.9831223779
20
65.9475686739
30
0
11
2.98609547736e-16
21
4.97486920756
31
0
40
0.98025974026
41
2.16286829019
42
4.09292147026
0
ELLIPSE
5
15A
100
AcDbEntity
8
0
6
ByLayer
62
256
370
9
100
AcDbEllipse
10
15.057947
20
62.4989761739
30
0
11
5.04400611938e-18
21
0.0840337186681
31
0
40
0.98025974026
41
0
42
6.28318530718
0
LINE
5
15B
100
AcDbEntity
8
0
6
ByLayer
62
256
370
9
100
AcDbLine
10
13.1909492
20
57.3453661739
11
18.6821192
21
56.6731561739
0
LINE
5
15C
100
AcDbEntity
8
0
6
ByLayer
62
256
370
9
100
AcDbLine
10
12.6418322
20
57.0092611739
11
11.6534216
21
54.4324561739
0
ELLIPSE
5
15D
100
AcDbEntity
8
0
6
ByLayer
62
256
370
9
100
AcDbEllipse
10
20
20
89.9698519796
30
0
11
2.2100114357e-15
21
36.819043206
31
0
40
0.98025974026
41
2.91447385674
42
3.36871145045
0
ELLIPSE
5
15E
100
AcDbEntity
8
0
6
ByLayer
62
256
370
9
100
AcDbEllipse
10
13.2458609
20
56.6171386739
30
0
11
4.38399657212e-17
21
0.730378841468
31
0
40
0.98025974026
41
0.0767718912651
42
1.00406710927
0
ELLIPSE
5
15F
100
AcDbEntity
8
0
6
ByLayer
62
256
370
9
100
AcDbEllipse
10
11.9279801
20
54.3764386739
30
0
11
1.71447998384e-17
21
0.285634325602
31
0
40
0.98025974026
41
1.37340076695
42
2.94419709375
0
LINE
5
160
100
AcDbEntity
8
0
6
ByLayer
62
256
370
9
100
AcDbLine
10
26.8090508
20
57.3453661739
11
21.3178808
21
56.6731561739
0
LINE
5
161
100
AcDbEntity
8
0
6
ByLayer
62
256
370
9
100
AcDbLine
10
27.3581678
20
57.0092611739
11
28.3465784
21
54.4324561739
0
ELLIPSE
5
162
100
AcDbEntity
8
0
6
ByLayer
62
256
370
9
100
AcDbEllipse
10
26.7541391
20
56.6171386739
30
0
11
4.38399657212e-17
21
0.730378841468
31
0
40
0.98025974026
41
5.27911819791
42
6.20641341591
0
ELLIPSE
5
163
100
AcDbEntity
8
0
6
ByLayer
62
256
370
9
100
AcDbEllipse
10
28.0720199
20
54.3764386739
30
0
11
1.71447998384e-17
21
0.285634325602
31
0
40
0.98025974026
41
3.33898821344
42
4.90978454023
0
ELLIPSE
5
164
100
AcDbEntity
8
0
6
ByLayer
62
256
370
9
100
AcDbEllipse
10
20
20
72.7781874239
30
0
11
9.70044287968e-16
21
16.16104875
31
0
40
0.98025974026
41
3.05830749539
42
3.2248778118
0
ELLIPSE
5
165
100
AcDbEntity
8
0
6
ByLayer
62
256
370
9
100
AcDbEllipse
10
20
20
-159.022227576
30
0
11
1.26139381155e-14
21
210.14965125
31
0
40
0.98025974026
41
6.24319063923
42
0.0399946679451
0
ELLIPSE
5
166
100
AcDbEntity
8
0
6
ByLayer
62
256
370
9
100
AcDbEllipse
10
20
20
-150.031418826
30
0
11
1.18691727436e-14
21
197.741775
31
0
40
0.98025974026
41
6.2355752548
42
0.0476100523651
0
ELLIPSE
5
167
100
AcDbEntity
8
0
6
ByLayer
62
256
370
9
100
AcDbEllipse
10
11.8181567
20
50.5112311739
30
0
11
2.71083087586e-17
21
0.451627523415
31
0
40
0.98025974026
41
0.124354994545
42
1.05165021255
0
LINE
5
168
100
AcDbEntity
8
0
6
ByLayer
62
256
370
9
100
AcDbLine
10
11.4337748
20
50.7353011739
11
10.37947016
21
47.9344261739
0
ELLIPSE
5
169
100
AcDbEntity
8
0
6
ByLayer
62
256
370
9
100
AcDbEllipse
10
10.7599729766
20
47.877689183
30
0
11
2.35466527285e-17
21
0.392289926723
31
0
40
0.98025974026
41
1.42565704178
42
3.20884925242
0
ELLIPSE
5
16A
100
AcDbEntity
8
0
6
ByLayer
62
256
370
9
100
AcDbEllipse
10
28.1818433
20
50.5112311739
30
0
11
2.71083087586e-17
21
0.451627523415
31
0
40
0.98025974026
41
5.23153509463
42
6.15883031263
0
LINE
5
16B
100
AcDbEntity
8
0
6
ByLayer
62
256
370
9
100
AcDbLine
10
28.5662252
20
50.7353011739
11
29.62052984
21
47.9344261739
0
ELLIPSE
5
16C
100
AcDbEntity
8
0
6
ByLayer
62
256
370
9
100
AcDbEllipse
10
29.2400270234
20
47.877689183
30
0
11
2.35466527285e-17
21
0.392289926723
31
0
40
0.98025974026
41
3.07433605477
42
4.85752826541
0
ELLIPSE
5
16D
100
AcDbEntity
8
0
6
ByLayer
62
256
370
9
100
AcDbEllipse
10
20
20
-151.394244576
30
0
11
1.18474153027e-14
21
197.379293547
31
0
40
0.98025974026
41
6.23435120488
42
0.0488341022951
0
ELLIPSE
5
16E
100
AcDbEntity
8
0
6
ByLayer
62
256
370
9
100
AcDbEllipse
10
10.5678595308
20
45.3925243854
30
0
11
2.14556220365e-17
21
0.357453116311
31
0
40
0.98025974026
41
0.0361723937751
42
1.35330415862
0
ELLIPSE
5
16F
100
AcDbEntity
8
0
6
ByLayer
62
256
370
9
100
AcDbEllipse
10
20
20
-107.619211576
30
0
11
9.0141012665e-15
21
150.17595775
31
0
40
0.98025974026
41
6.21300136467
42
0.0701839425051
0
LINE
5
170
100
AcDbEntity
8
0
6
ByLayer
62
256
370
9
100
AcDbLine
10
10.2257174
20
45.4696561739
11
9.4569536
21
42.5567461739
0
ELLIPSE
5
171
100
AcDbEntity
8
0
6
ByLayer
62
256
370
9
100
AcDbEllipse
10
9.70091843854
20
42.4548234239
30
0
11
1.61427081695e-17
21
0.268939363821
31
0
40
0.98025974026
41
1.18210205812
42
3.04921842638
0
ELLIPSE
5
172
100
AcDbEntity
8
0
6
ByLayer
62
256
370
9
100
AcDbEllipse
10
29.4321404693
20
45.3925243854
30
0
11
2.14556220365e-17
21
0.357453116311
31
0
40
0.98025974026
41
4.92988114856
42
6.2470129134
0
LINE
5
173
100
AcDbEntity
8
0
6
ByLayer
62
256
370
9
100
AcDbLine
10
29.7742826
20
45.4696561739
11
30.5430464
21
42.5567461739
0
ELLIPSE
5
174
100
AcDbEntity
8
0
6
ByLayer
62
256
370
9
100
AcDbEllipse
10
30.2990815614
20
42.4548234239
30
0
11
1.61427081695e-17
21
0.268939363821
31
0
40
0.98025974026
41
3.23396688081
42
5.10108324906
0
ELLIPSE
5
175
100
AcDbEntity
8
0
6
ByLayer
62
256
370
9
100
AcDbEllipse
10
20
20
-134.019878852
30
0
11
1.04736840631e-14
21
174.492774026
31
0
40
0.98025974026
41
6.22215162909
42
0.0610336780851
0
ELLIPSE
5
176
100
AcDbEntity
8
0
6
ByLayer
62
256
370
9
100
AcDbEllipse
10
20
20
-82.4562789237
30
0
11
7.1722016534e-15
21
119.489699597
31
0
40
0.98025974026
41
6.15910233293
42
0.124082974245
0
LINE
5
177
100
AcDbEntity
8
0
6
ByLayer
62
256
370
9
100
AcDbLine
10
5.0640176
20
37.2911011739
11
5.2836644
21
36.2827861739
0
ELLIPSE
5
178
100
AcDbEntity
8
0
6
ByLayer
62
256
370
9
100
AcDbEllipse
10
3.95114048004
20
44.3368578405
30
0
11
4.10919636744e-16
21
6.8459681317
31
0
40
0.98025974026
41
3.34148446387
42
4.02253984386
0
ELLIPSE
5
179
100
AcDbEntity
8
0
6
ByLayer
62
256
370
9
100
AcDbEllipse
10
5.35504961
20
37.3359151739
30
0
11
1.80224387489e-17
21
0.300255890197
31
0
40
0.98025974026
41
0.244978663125
42
1.72060878337
0
ELLIPSE
5
17A
100
AcDbEntity
8
0
6
ByLayer
62
256
370
9
100
AcDbEllipse
10
5.484092105
20
36.3219984239
30
0
11
1.24963128881e-17
21
0.208190001513
31
0
40
0.98025974026
41
1.76027648468
42
3.23590660492
0
LINE
5
17B
100
AcDbEntity
8
0
6
ByLayer
62
256
370
9
100
AcDbLine
10
34.9359824
20
37.2911011739
11
34.7163356
21
36.2827861739
0
ELLIPSE
5
17C
100
AcDbEntity
8
0
6
ByLayer
62
256
370
9
100
AcDbEllipse
10
36.04885952
20
44.3368578405
30
0
11
4.10919636744e-16
21
6.8459681317
31
0
40
0.98025974026
41
2.26064546333
42
2.94170084332
0
ELLIPSE
5
17D
100
AcDbEntity
8
0
6
ByLayer
62
256
370
9
100
AcDbEllipse
10
34.64495039
20
37.3359151739
30
0
11
1.80224387489e-17
21
0.300255890197
31
0
40
0.98025974026
41
4.56257652382
42
6.03820664405
0
ELLIPSE
5
17E
100
AcDbEntity
8
0
6
ByLayer
62
256
370
9
100
AcDbEllipse
10
34.515907895
20
36.3219984239
30
0
11
1.24963128881e-17
21
0.208190001513
31
0
40
0.98025974026
41
3.04727870227
42
4.52290882251
0
ELLIPSE
5
17F
100
AcDbEntity
8
0
6
ByLayer
62
256
370
9
100
AcDbEllipse
10
30.4352567667
20
39.4719800165
30
0
11
4.0576962884e-17
21
0.676016841117
31
0
40
0.98025974026
41
5.56257492257
42
0.0030690440751
0
ELLIPSE
5
180
100
AcDbEntity
8
0
6
ByLayer
62
256
370
9
100
AcDbEllipse
10
9.56474323333
20
39.4719800165
30
0
11
4.0576962884e-17
21
0.676016841117
31
0
40
0.98025974026
41
6.2801162631
42
0.720610384615
0
ELLIPSE
5
181
100
AcDbEntity
8
0
6
ByLayer
62
256
370
9
100
AcDbEllipse
10
10.9395695
20
37.7952586739
30
0
11
5.04400611938e-18
21
0.0840337186681
31
0
40
0.98025974026
41
0
42
6.28318530718
0
LWPOLYLINE
5
182
100
AcDbEntity
8
0
6
ByLayer
62
256
370
9
100
AcDbPolyline
90
2
70
0
43
0
10
5.73515718327
20
33.906840883
10
5.73516047797
20
33.906840883
0
ELLIPSE
5
183
100
AcDbEntity
8
0
6
ByLayer
62
256
370
9
100
AcDbEllipse
10
20
20
-84.2948825761
30
0
11
7.12990957586e-15
21
118.78510875
31
0
40
0.98025974026
41
6.16026339541
42
0.122921911765
0
LINE
5
184
100
AcDbEntity
8
0
6
ByLayer
62
256
370
9
100
AcDbLine
10
5.31661142
20
33.0337711739
11
5.67902864
21
30.3449311739
0
ELLIPSE
5
185
100
AcDbEntity
8
0
6
ByLayer
62
256
370
9
100
AcDbEllipse
10
5.81240626924
20
33.092958085
30
0
11
3.05658375179e-17
21
0.509230347871
31
0
40
0.98025974026
41
0.180164207555
42
1.68728778749
0
ELLIPSE
5
186
100
AcDbEntity
8
0
6
ByLayer
62
256
370
9
100
AcDbEllipse
10
20
20
-76.9688605761
30
0
11
6.48439821971e-15
21
108.03081575
31
0
40
0.98025974026
41
6.15109423928
42
0.132091067895
0
ELLIPSE
5
187
100
AcDbEntity
8
0
6
ByLayer
62
256
370
9
100
AcDbEllipse
10
5.99465154172
20
30.4564790652
30
0
11
2.04532829341e-17
21
0.34075403226
31
0
40
0.98025974026
41
1.90430040864
42
3.31543676403
0
LINE
5
188
100
AcDbEntity
8
0
6
ByLayer
62
256
370
9
100
AcDbLine
10
34.68338858
20
33.0337711739
11
34.32097136
21
30.3449311739
0
ELLIPSE
5
189
100
AcDbEntity
8
0
6
ByLayer
62
256
370
9
100
AcDbEllipse
10
34.1875937308
20
33.092958085
30
0
11
3.05658375179e-17
21
0.509230347871
31
0
40
0.98025974026
41
4.5958975197
42
6.10302109963
0
ELLIPSE
5
18A
100
AcDbEntity
8
0
6
ByLayer
62
256
370
9
100
AcDbEllipse
10
34.0053484583
20
30.4564790652
30
0
11
2.04532829341e-17
21
0.34075403226
31
0
40
0.98025974026
41
2.96774854316
42
4.37888489855
0
LINE
5
18B
100
AcDbEntity
8
0
6
ByLayer
62
256
370
9
100
AcDbLine
10
33.2886314
20
22.0543411739
11
33.2886314
21
20.0377111739
0
ELLIPSE
5
18C
100
AcDbEntity
8
0
6
ByLayer
62
256
370
9
100
AcDbEllipse
10
33.0460437121
20
20.0611140405
30
0
11
1.4920484505e-17
21
0.248576977825
31
0
40
0.98025974026
41
3.23587965583
42
4.61810197815
0
ELLIPSE
5
18D
100
AcDbEntity
8
0
6
ByLayer
62
256
370
9
100
AcDbEllipse
10
33.0460437121
20
22.0309383073
30
0
11
1.4920484505e-17
21
0.248576977825
31
0
40
0.98025974026
41
4.80667598262
42
6.18889830494
0
LINE
5
18E
100
AcDbEntity
8
0
6
ByLayer
62
256
370
9
100
AcDbLine
10
6.9310154
20
22.2784111739
11
33.0689846
21
22.2784111739
0
ELLIPSE
5
18F
100
AcDbEntity
8
0
6
ByLayer
62
256
370
9
100
AcDbEllipse
10
6.95395628797
20
22.0309383073
30
0
11
1.4920484505e-17
21
0.248576977825
31
0
40
0.98025974026
41
0.0942870022351
42
1.47650932456
0
LINE
5
190
100
AcDbEntity
8
0
6
ByLayer
62
256
370
9
100
AcDbLine
10
6.7113686
20
20.0377111739
11
6.7113686
21
22.0543411739
0
LINE
5
191
100
AcDbEntity
8
0
6
ByLayer
62
256
370
9
100
AcDbLine
10
33.0689846
20
19.8136411739
11
6.9310154
21
19.8136411739
0
ELLIPSE
5
192
100
AcDbEntity
8
0
6
ByLayer
62
256
370
9
100
AcDbEllipse
10
6.95395628797
20
20.0611140405
30
0
11
1.4920484505e-17
21
0.248576977825
31
0
40
0.98025974026
41
1.66508332903
42
3.04730565136
0
ELLIPSE
5
193
100
AcDbEntity
8
0
6
ByLayer
62
256
370
9
100
AcDbEllipse
10
20
20
62.2412956739
30
0
11
2.96090467932e-15
21
49.3290105
31
0
40
0.98025974026
41
2.98193268217
42
3.30125262502
0
ELLIPSE
5
194
100
AcDbEntity
8
0
6
ByLayer
62
256
370
9
100
AcDbEllipse
10
28.9679476368
20
13.8551481475
30
0
11
5.15122770013e-17
21
0.858200424628
31
0
40
0.98025974026
41
5.00154238966
42
1.54674598212
0
ELLIPSE
5
195
100
AcDbEntity
8
0
6
ByLayer
62
256
370
9
100
AcDbEllipse
10
27.4130795
20
14.3799436739
30
0
11
5.31637674387e-17
21
0.885714444143
31
0
40
0.98025974026
41
3.46334320799
42
4.10684431679
0
ELLIPSE
5
196
100
AcDbEntity
8
0
6
ByLayer
62
256
370
9
100
AcDbEllipse
10
30.1586645
20
14.6040136739
30
0
11
3.83369378994e-17
21
0.638697768755
31
0
40
0.98025974026
41
2.48054948475
42
3.40784470274
0
ELLIPSE
5
197
100
AcDbEntity
8
0
6
ByLayer
62
256
370
9
100
AcDbEllipse
10
11.0320523631
20
13.8551481475
30
0
11
5.15122770013e-17
21
0.858200424628
31
0
40
0.98025974026
41
4.73643932507
42
1.28164291753
0
ELLIPSE
5
198
100
AcDbEntity
8
0
6
ByLayer
62
256
370
9
100
AcDbEllipse
10
12.5869205
20
14.3799436739
30
0
11
5.31637674387e-17
21
0.885714444143
31
0
40
0.98025974026
41
2.1763409904
42
2.8198420992
0
ELLIPSE
5
199
100
AcDbEntity
8
0
6
ByLayer
62
256
370
9
100
AcDbEllipse
10
9.8413355
20
14.6040136739
30
0
11
3.83369378994e-17
21
0.638697768755
31
0
40
0.98025974026
41
2.87534060444
42
3.80263582244
0
ELLIPSE
5
19A
100
AcDbEntity
8
0
6
ByLayer
62
256
370
9
100
AcDbEllipse
10
20
20
61.1
30
0
11
3.0484140623e-15
21
50.7869268261
31
0
40
0.98025974026
41
2.8942133363
42
3.38897197089
0
ELLIPSE
5
19B
100
AcDbEntity
8
0
6
ByLayer
62
256
370
9
100
AcDbEllipse
10
20
20
60.1065430468
30
0
11
3.19500951506e-15
21
53.2292238304
31
0
40
0.98025974026
41
2.87754417556
42
3.40564113163
0
ELLIPSE
5
19C
100
AcDbEntity
8
0
6
ByLayer
62
256
370
9
100
AcDbEllipse
10
20
20
66.0606497903
30
0
11
2.98018191628e-15
21
49.6501714718
31
0
40
0.98025974026
41
2.90470872559
42
3.3784765816
0
ELLIPSE
5
19D
100
AcDbEntity
8
0
6
ByLayer
62
256
370
9
100
AcDbEllipse
10
12.4770971
20
31.4092636739
30
0
11
8.51218161284e-16
21
14.1813918932
31
0
40
0.98025974026
41
2.73981289047
42
2.85732453588
0
ELLIPSE
5
19E
100
AcDbEntity
8
0
6
ByLayer
62
256
370
9
100
AcDbEllipse
10
6.8761037
20
18.0770986739
30
0
11
1.96058286967e-17
21
0.32663534777
31
0
40
0.98025974026
41
5.7427658069
42
1.03037682653
0
ELLIPSE
5
19F
100
AcDbEntity
8
0
6
ByLayer
62
256
370
9
100
AcDbEllipse
10
19.084805
20
50.1564536739
30
0
11
2.24610608293e-15
21
37.4203841558
31
0
40
0.98025974026
41
2.77517115726
42
2.88221169417
0
LINE
5
1A0
100
AcDbEntity
8
0
6
ByLayer
62
256
370
9
100
AcDbLine
10
6.6015452
20
18.2451511739
11
5.70099332
21
15.8924161739
0
ELLIPSE
5
1A1
100
AcDbEntity
8
0
6
ByLayer
62
256
370
9
100
AcDbEllipse
10
6.19619701456
20
15.6963549239
30
0
11
3.25260783769e-17
21
0.54188818471
31
0
40
0.98025974026
41
1.20058626995
42
2.64389597167
0
ELLIPSE
5
1A2
100
AcDbEntity
8
0
6
ByLayer
62
256
370
9
100
AcDbEllipse
10
20.915195
20
50.1564536739
30
0
11
2.24610608293e-15
21
37.4203841558
31
0
40
0.98025974026
41
3.40097361302
42
3.50801414993
0
ELLIPSE
5
1A3
100
AcDbEntity
8
0
6
ByLayer
62
256
370
9
100
AcDbEllipse
10
27.5229029
20
31.4092636739
30
0
11
8.51218161284e-16
21
14.1813918932
31
0
40
0.98025974026
41
3.42586077131
42
3.54337241672
0
ELLIPSE
5
1A4
100
AcDbEntity
8
0
6
ByLayer
62
256
370
9
100
AcDbEllipse
10
33.1238963
20
18.0770986739
30
0
11
1.96058286967e-17
21
0.32663534777
31
0
40
0.98025974026
41
5.25280848066
42
0.540419500265
0
LINE
5
1A5
100
AcDbEntity
8
0
6
ByLayer
62
256
370
9
100
AcDbLine
10
33.3984548
20
18.2451511739
11
34.29900668
21
15.8924161739
0
ELLIPSE
5
1A6
100
AcDbEntity
8
0
6
ByLayer
62
256
370
9
100
AcDbEllipse
10
33.8038029854
20
15.6963549239
30
0
11
3.25260783769e-17
21
0.54188818471
31
0
40
0.98025974026
41
3.63928933552
42
5.08259903724
0
ELLIPSE
5
1A7
100
AcDbEntity
8
0
6
ByLayer
62
256
370
9
100
AcDbEllipse
10
12.7244031266
20
26.740308785
30
0
11
9.42555181077e-16
21
15.7030770862
31
0
40
0.98025974026
41
2.68535459239
42
2.8166166274
0
ELLIPSE
5
1A8
100
AcDbEntity
8
0
6
ByLayer
62
256
370
9
100
AcDbEllipse
10
5.77542917995
20
12.3732723405
30
0
11
1.91750939423e-17
21
0.319459257511
31
0
40
0.98025974026
41
5.72004244606
42
1.05310018738
0
LINE
5
1A9
100
AcDbEntity
8
0
6
ByLayer
62
256
370
9
100
AcDbLine
10
5.5033112
20
12.5313661739
11
4.47097124
21
9.8425261739
0
ELLIPSE
5
1AA
100
AcDbEntity
8
0
6
ByLayer
62
256
370
9
100
AcDbEllipse
10
20.56559051
20
46.7636604239
30
0
11
2.44297941438e-15
21
40.7003163678
31
0
40
0.98025974026
41
2.72936347278
42
2.77813429113
0
ELLIPSE
5
1AB
100
AcDbEntity
8
0
6
ByLayer
62
256
370
9
100
AcDbEllipse
10
4.738569102
20
9.72341666334
30
0
11
1.7877442727e-17
21
0.297840239895
31
0
40
0.98025974026
41
1.15937686995
42
2.57068491388
0
ELLIPSE
5
1AC
100
AcDbEntity
8
0
6
ByLayer
62
256
370
9
100
AcDbEllipse
10
27.2755968733
20
26.740308785
30
0
11
9.42555181077e-16
21
15.7030770862
31
0
40
0.98025974026
41
3.46656867979
42
3.59783071479
0
ELLIPSE
5
1AD
100
AcDbEntity
8
0
6
ByLayer
62
256
370
9
100
AcDbEllipse
10
34.22457082
20
12.3732723405
30
0
11
1.91750939423e-17
21
0.319459257511
31
0
40
0.98025974026
41
5.23008511981
42
0.563142861115
0
LINE
5
1AE
100
AcDbEntity
8
0
6
ByLayer
62
256
370
9
100
AcDbLine
10
34.4966888
20
12.5313661739
11
35.52902876
21
9.8425261739
0
ELLIPSE
5
1AF
100
AcDbEntity
8
0
6
ByLayer
62
256
370
9
100
AcDbEllipse
10
19.43440949
20
46.7636604239
30
0
11
2.44297941438e-15
21
40.7003163678
31
0
40
0.98025974026
41
3.50505101606
42
3.55382183441
0
ELLIPSE
5
1B0
100
AcDbEntity
8
0
6
ByLayer
62
256
370
9
100
AcDbEllipse
10
35.261430898
20
9.72341666334
30
0
11
1.7877442727e-17
21
0.297840239895
31
0
40
0.98025974026
41
3.71250039331
42
5.12380843724
0
ELLIPSE
5
1B1
100
AcDbEntity
8
0
6
ByLayer
62
256
370
9
100
AcDbEllipse
10
20
20
-62.4704645761
30
0
11
5.45679332736e-15
21
90.91080075
31
0
40
0.98025974026
41
6.1260292468
42
0.157156060365
0
ELLIPSE
5
1B2
100
AcDbEntity
8
0
6
ByLayer
62
256
370
9
100
AcDbEllipse
10
6.1073399
20
26.9278636739
30
0
11
2.37755595865e-17
21
0.39610354115
31
0
40
0.98025974026
41
0.141897054605
42
1.4288992722
0
LINE
5
1B3
100
AcDbEntity
8
0
6
ByLayer
62
256
370
9
100
AcDbLine
10
6.0524282
20
24.4070761739
11
5.722958
21
26.9838811739
0
ELLIPSE
5
1B4
100
AcDbEntity
8
0
6
ByLayer
62
256
370
9
100
AcDbEllipse
10
33.8926601
20
26.9278636739
30
0
11
2.37755595865e-17
21
0.39610354115
31
0
40
0.98025974026
41
4.85428603499
42
6.14128825257
0
LINE
5
1B5
100
AcDbEntity
8
0
6
ByLayer
62
256
370
9
100
AcDbLine
10
33.9475718
20
24.4070761739
11
34.277042
21
26.9838811739
0
ELLIPSE
5
1B6
100
AcDbEntity
8
0
6
ByLayer
62
256
370
9
100
AcDbEllipse
10
33.4187617683
20
24.4220846362
30
0
11
3.23928047919e-17
21
0.539667831546
31
0
40
0.98025974026
41
3.41811678449
42
4.68457483859
0
ELLIPSE
5
1B7
100
AcDbEntity
8
0
6
ByLayer
62
256
370
9
100
AcDbEllipse
10
20
20
-79.4082893261
30
0
11
6.25647743997e-15
21
104.2336295
31
0
40
0.98025974026
41
6.15004897962
42
0.133136327555
0
ELLIPSE
5
1B8
100
AcDbEntity
8
0
6
ByLayer
62
256
370
9
100
AcDbEllipse
10
6.58123823165
20
24.4220846362
30
0
11
3.23928047919e-17
21
0.539667831546
31
0
40
0.98025974026
41
1.5986104686
42
2.8650685227
0
MTEXT
5
1B9
100
AcDbEntity
8
0
6
ByLayer
62
256
370
9
100
AcDbMText
10
19.2319678267
20
55.2827945352
30
0
40
0.1098234
41
1.56498345
71
1
72
5
1
Upper Back Plate #6
7
iso
210
0
220
0
230
1
50
0
73
2
44
1
0
MTEXT
5
1BA
100
AcDbEntity
8
0
6
ByLayer
62
256
370
9
100
AcDbMText
10
19.2306321187
20
49.737668074
30
0
40
0.1098234
41
1.56498345
71
1
72
5
1
Upper Back Plate #5
7
iso
210
0
220
0
230
1
50
0
73
2
44
1
0
MTEXT
5
1BB
100
AcDbEntity
8
0
6
ByLayer
62
256
370
9
100
AcDbMText
10
19.2904050574
20
44.6331744351
30
0
40
0.1098234
41
1.57718605
71
1
72
5
1
Upper Back Plate #4
7
iso
210
0
220
0
230
1
50
0
73
2
44
1
0
MTEXT
5
1BC
100
AcDbEntity
8
0
6
ByLayer
62
256
370
9
100
AcDbMText
10
19.3112754969
20
39.2892027335
30
0
40
0.1098234
41
1.56498345
71
1
72
5
1
Upper Back Plate #3
7
iso
210
0
220
0
230
1
50
0
73
2
44
1
0
MTEXT
5
1BD
100
AcDbEntity
8
0
6
ByLayer
62
256
370
9
100
AcDbMText
10
19.1651824203
20
33.3065093146
30
0
40
0.1098234
41
1.56498345
71
1
72
5
1
Upper Back Plate #2
7
iso
210
0
220
0
230
1
50
0
73
2
44
1
0
MTEXT
5
1BE
100
AcDbEntity
8
0
6
ByLayer
62
256
370
9
100
AcDbMText
10
19.2069232994
20
27.1747808285
30
0
40
0.1098234
41
1.54057825
71
1
72
5
1
Upper Back Plate #1
7
iso
210
0
220
0
230
1
50
0
73
2
44
1
0
MTEXT
5
1BF
100
AcDbEntity
8
0
6
ByLayer
62
256
370
9
100
AcDbMText
10
19.3481744337
20
21.8205895795
30
0
40
0.1098234
41
1.27517175648
71
1
72
5
1
Back Waist Plate
7
iso
210
0
220
0
230
1
50
0
73
2
44
1
0
MTEXT
5
1C0
100
AcDbEntity
8
0
6
ByLayer
62
256
370
9
100
AcDbMText
10
19.1878894586
20
14.6609108776
30
0
40
0.1098234
41
1.55278085
71
1
72
5
1
Lower Back Plate #1
7
iso
210
0
220
0
230
1
50
0
73
2
44
1
0
MTEXT
5
1C1
100
AcDbEntity
8
0
6
ByLayer
62
256
370
9
100
AcDbMText
10
19.3112754969
20
8.6092695784
30
0
40
0.1098234
41
1.57718605
71
1
72
5
1
Lower Back Plate #2
7
iso
210
0
220
0
230
1
50
0
73
2
44
1
0
MTEXT
5
1C2
100
AcDbEntity
8
0
6
ByLayer
62
256
370
9
100
AcDbMText
10
19.2306321187
20
2.6350924491
30
0
40
0.1098234
41
1.57718605
71
1
72
5
1
Lower Back Plate #3
7
iso
210
0
220
0
230
1
50
0
73
2
44
1
0
CIRCLE
5
1C3
100
AcDbEntity
8
0
6
ByLayer
62
256
370
-1
100
AcDbCircle
10
9.2922185
20
21.0460261739
40
0.065
0
CIRCLE
5
1C4
100
AcDbEntity
8
0
6
ByLayer
62
256
370
-1
100
AcDbCircle
10
10.9395695
20
21.0460261739
40
0.065
0
CIRCLE
5
1C5
100
AcDbEntity
8
0
6
ByLayer
62
256
370
-1
100
AcDbCircle
10
14.2342715
20
21.0460261739
40
0.065
0
CIRCLE
5
1C6
100
AcDbEntity
8
0
6
ByLayer
62
256
370
-1
100
AcDbCircle
10
15.8816225
20
21.0460261739
40
0.065
0
CIRCLE
5
1C7
100
AcDbEntity
8
0
6
ByLayer
62
256
370
-1
100
AcDbCircle
10
17.5289735
20
21.0460261739
40
0.065
0
CIRCLE
5
1C8
100
AcDbEntity
8
0
6
ByLayer
62
256
370
-1
100
AcDbCircle
10
19.1763245
20
21.0460261739
40
0.065
0
CIRCLE
5
1C9
100
AcDbEntity
8
0
6
ByLayer
62
256
370
-1
100
AcDbCircle
10
20.8236755
20
21.0460261739
40
0.065
0
CIRCLE
5
1CA
100
AcDbEntity
8
0
6
ByLayer
62
256
370
-1
100
AcDbCircle
10
22.4710265
20
21.0460261739
40
0.065
0
CIRCLE
5
1CB
100
AcDbEntity
8
0
6
ByLayer
62
256
370
-1
100
AcDbCircle
10
24.1183775
20
21.0460261739
40
0.065
0
CIRCLE
5
1CC
100
AcDbEntity
8
0
6
ByLayer
62
256
370
-1
100
AcDbCircle
10
25.7657285
20
21.0460261739
40
0.065
0
CIRCLE
5
1CD
100
AcDbEntity
8
0
6
ByLayer
62
256
370
-1
100
AcDbCircle
10
29.0604305
20
21.0460261739
40
0.065
0
CIRCLE
5
1CE
100
AcDbEntity
8
0
6
ByLayer
62
256
370
-1
100
AcDbCircle
10
30.7077815
20
21.0460261739
40
0.065
0
CIRCLE
5
1CF
100
AcDbEntity
8
0
6
ByLayer
62
256
370
-1
100
AcDbCircle
10
8.468543
20
17.4721096739
40
0.065
0
CIRCLE
5
1D0
100
AcDbEntity
8
0
6
ByLayer
62
256
370
-1
100
AcDbCircle
10
9.2922185
20
17.3152606739
40
0.065
0
CIRCLE
5
1D1
100
AcDbEntity
8
0
6
ByLayer
62
256
370
-1
100
AcDbCircle
10
19.1763245
20
16.0716721739
40
0.065
0
CIRCLE
5
1D2
100
AcDbEntity
8
0
6
ByLayer
62
256
370
-1
100
AcDbCircle
10
10.9395695
20
16.9679521739
40
0.065
0
CIRCLE
5
1D3
100
AcDbEntity
8
0
6
ByLayer
62
256
370
-1
100
AcDbCircle
10
17.5289735
20
16.1613001739
40
0.065
0
CIRCLE
5
1D4
100
AcDbEntity
8
0
6
ByLayer
62
256
370
-1
100
AcDbCircle
10
12.5869205
20
16.6766611739
40
0.065
0
CIRCLE
5
1D5
100
AcDbEntity
8
0
6
ByLayer
62
256
370
-1
100
AcDbCircle
10
15.8816225
20
16.2733351739
40
0.065
0
CIRCLE
5
1D6
100
AcDbEntity
8
0
6
ByLayer
62
256
370
-1
100
AcDbCircle
10
14.2342715
20
16.4525911739
40
0.065
0
ELLIPSE
5
1D7
100
AcDbEntity
8
0
6
ByLayer
62
256
370
9
100
AcDbEllipse
10
27.5229029
20
31.4092636739
30
0
11
0
21
14.1813918932
31
0
40
0.98025974026
41
3.4258607713
42
3.54337241671
0
CIRCLE
5
1D8
100
AcDbEntity
8
0
6
ByLayer
62
256
370
-1
100
AcDbCircle
10
31.531457
20
17.4721096739
40
0.065
0
CIRCLE
5
1D9
100
AcDbEntity
8
0
6
ByLayer
62
256
370
-1
100
AcDbCircle
10
30.7077815
20
17.3152606739
40
0.065
0
CIRCLE
5
1DA
100
AcDbEntity
8
0
6
ByLayer
62
256
370
-1
100
AcDbCircle
10
20.8236755
20
16.0716721739
40
0.065
0
CIRCLE
5
1DB
100
AcDbEntity
8
0
6
ByLayer
62
256
370
-1
100
AcDbCircle
10
29.0604305
20
16.9679521739
40
0.065
0
CIRCLE
5
1DC
100
AcDbEntity
8
0
6
ByLayer
62
256
370
-1
100
AcDbCircle
10
22.4710265
20
16.1613001739
40
0.065
0
CIRCLE
5
1DD
100
AcDbEntity
8
0
6
ByLayer
62
256
370
-1
100
AcDbCircle
10
27.4130795
20
16.6766611739
40
0.065
0
CIRCLE
5
1DE
100
AcDbEntity
8
0
6
ByLayer
62
256
370
-1
100
AcDbCircle
10
24.1183775
20
16.2733351739
40
0.065
0
CIRCLE
5
1DF
100
AcDbEntity
8
0
6
ByLayer
62
256
370
-1
100
AcDbCircle
10
25.7657285
20
16.4525911739
40
0.065
0
CIRCLE
5
1E0
100
AcDbEntity
8
0
6
ByLayer
62
256
370
-1
100
AcDbCircle
10
32.34415016
20
11.5790686739
40
0.065
0
CIRCLE
5
1E1
100
AcDbEntity
8
0
6
ByLayer
62
256
370
-1
100
AcDbCircle
10
30.7077815
20
11.1869461739
40
0.065
0
CIRCLE
5
1E2
100
AcDbEntity
8
0
6
ByLayer
62
256
370
-1
100
AcDbCircle
10
27.4130795
20
10.5707536739
40
0.065
0
CIRCLE
5
1E3
100
AcDbEntity
8
0
6
ByLayer
62
256
370
-1
100
AcDbCircle
10
25.7657285
20
10.3466836739
40
0.065
0
CIRCLE
5
1E4
100
AcDbEntity
8
0
6
ByLayer
62
256
370
-1
100
AcDbCircle
10
24.1183775
20
10.1786311739
40
0.065
0
CIRCLE
5
1E5
100
AcDbEntity
8
0
6
ByLayer
62
256
370
-1
100
AcDbCircle
10
22.4710265
20
10.0665961739
40
0.065
0
CIRCLE
5
1E6
100
AcDbEntity
8
0
6
ByLayer
62
256
370
-1
100
AcDbCircle
10
20.8236755
20
10.0105786739
40
0.065
0
CIRCLE
5
1E7
100
AcDbEntity
8
0
6
ByLayer
62
256
370
-1
100
AcDbCircle
10
19.1763245
20
10.0105786739
40
0.065
0
CIRCLE
5
1E8
100
AcDbEntity
8
0
6
ByLayer
62
256
370
-1
100
AcDbCircle
10
17.5289735
20
10.0665961739
40
0.065
0
CIRCLE
5
1E9
100
AcDbEntity
8
0
6
ByLayer
62
256
370
-1
100
AcDbCircle
10
15.8816225
20
10.1786311739
40
0.065
0
CIRCLE
5
1EA
100
AcDbEntity
8
0
6
ByLayer
62
256
370
-1
100
AcDbCircle
10
14.2342715
20
10.3466836739
40
0.065
0
CIRCLE
5
1EB
100
AcDbEntity
8
0
6
ByLayer
62
256
370
-1
100
AcDbCircle
10
12.5869205
20
10.5707536739
40
0.065
0
CIRCLE
5
1EC
100
AcDbEntity
8
0
6
ByLayer
62
256
370
-1
100
AcDbCircle
10
9.2922185
20
11.1869461739
40
0.065
0
CIRCLE
5
1ED
100
AcDbEntity
8
0
6
ByLayer
62
256
370
-1
100
AcDbCircle
10
7.65584984
20
11.5790686739
40
0.065
0
ELLIPSE
5
1EE
100
AcDbEntity
8
0
6
ByLayer
62
256
370
9
100
AcDbEllipse
10
20.0048
20
54.3958080326
30
0
11
2.99994269668e-15
21
49.9793883327
31
0
40
0.98025974026
41
2.8599214461
42
3.42326386109
0
ELLIPSE
5
1EF
100
AcDbEntity
8
0
6
ByLayer
62
256
370
9
100
AcDbEllipse
10
20.0048
20
53.118594375
30
0
11
3.13120881515e-15
21
52.166296875
31
0
40
0.98025974026
41
2.84743594282
42
3.43574936437
0
ELLIPSE
5
1F0
100
AcDbEntity
8
0
6
ByLayer
62
256
370
9
100
AcDbEllipse
10
6.2797399583
20
6.07984718479
30
0
11
1.95083146412e-17
21
0.325010752454
31
0
40
0.98025974026
41
5.94081667466
42
1.13195087192
0
ELLIPSE
5
1F1
100
AcDbEntity
8
0
6
ByLayer
62
256
370
9
100
AcDbEllipse
10
5.28006614
20
3.52481880882
30
0
11
2.08629219894e-17
21
0.347578665759
31
0
40
0.98025974026
41
1.22955798488
42
2.83932988672
0
LINE
5
1F2
100
AcDbEntity
8
0
6
ByLayer
62
256
370
9
100
AcDbLine
10
4.9589942
20
3.6411375
11
5.99133416
21
6.2179425
0
ELLIPSE
5
1F3
100
AcDbEntity
8
0
6
ByLayer
62
256
370
9
100
AcDbEllipse
10
33.7298600417
20
6.07984718479
30
0
11
1.95083146412e-17
21
0.325010752454
31
0
40
0.98025974026
41
5.15123443526
42
0.342368632515
0
ELLIPSE
5
1F4
100
AcDbEntity
8
0
6
ByLayer
62
256
370
9
100
AcDbEllipse
10
34.72953386
20
3.52481880882
30
0
11
2.08629219894e-17
21
0.347578665759
31
0
40
0.98025974026
41
3.44385542047
42
5.05362732229
0
LINE
5
1F5
100
AcDbEntity
8
0
6
ByLayer
62
256
370
9
100
AcDbLine
10
35.0506058
20
3.6411375
11
34.01826584
21
6.2179425
0
CIRCLE
5
1F6
100
AcDbEntity
8
0
6
ByLayer
62
256
370
-1
100
AcDbCircle
10
6.276875
20
6.094704
40
0.065
0
CIRCLE
5
1F7
100
AcDbEntity
8
0
6
ByLayer
62
256
370
-1
100
AcDbCircle
10
22.4758265
20
4.167702
40
0.065
0
CIRCLE
5
1F8
100
AcDbEntity
8
0
6
ByLayer
62
256
370
-1
100
AcDbCircle
10
20.8284755
20
4.1116845
40
0.065
0
CIRCLE
5
1F9
100
AcDbEntity
8
0
6
ByLayer
62
256
370
-1
100
AcDbCircle
10
19.1811245
20
4.1116845
40
0.065
0
CIRCLE
5
1FA
100
AcDbEntity
8
0
6
ByLayer
62
256
370
-1
100
AcDbCircle
10
17.5337735
20
4.167702
40
0.065
0
CIRCLE
5
1FB
100
AcDbEntity
8
0
6
ByLayer
62
256
370
-1
100
AcDbCircle
10
15.8864225
20
4.279737
40
0.065
0
CIRCLE
5
1FC
100
AcDbEntity
8
0
6
ByLayer
62
256
370
-1
100
AcDbCircle
10
14.2390715
20
4.4477895
40
0.065
0
CIRCLE
5
1FD
100
AcDbEntity
8
0
6
ByLayer
62
256
370
-1
100
AcDbCircle
10
12.5917205
20
4.6718595
40
0.065
0
CIRCLE
5
1FE
100
AcDbEntity
8
0
6
ByLayer
62
256
370
-1
100
AcDbCircle
10
10.9443695
20
4.9631505
40
0.065
0
CIRCLE
5
1FF
100
AcDbEntity
8
0
6
ByLayer
62
256
370
-1
100
AcDbCircle
10
9.2970185
20
5.310459
40
0.065
0
CIRCLE
5
200
100
AcDbEntity
8
0
6
ByLayer
62
256
370
-1
100
AcDbCircle
10
7.6496675
20
5.7249885
40
0.065
0
CIRCLE
5
201
100
AcDbEntity
8
0
6
ByLayer
62
256
370
-1
100
AcDbCircle
10
29.0652305
20
4.9631505
40
0.065
0
CIRCLE
5
202
100
AcDbEntity
8
0
6
ByLayer
62
256
370
-1
100
AcDbCircle
10
27.4178795
20
4.6718595
40
0.065
0
CIRCLE
5
203
100
AcDbEntity
8
0
6
ByLayer
62
256
370
-1
100
AcDbCircle
10
25.7705285
20
4.4477895
40
0.065
0
CIRCLE
5
204
100
AcDbEntity
8
0
6
ByLayer
62
256
370
-1
100
AcDbCircle
10
24.1231775
20
4.279737
40
0.065
0
CIRCLE
5
205
100
AcDbEntity
8
0
6
ByLayer
62
256
370
-1
100
AcDbCircle
10
30.7125815
20
5.310459
40
0.065
0
CIRCLE
5
206
100
AcDbEntity
8
0
6
ByLayer
62
256
370
-1
100
AcDbCircle
10
32.3599325
20
5.7249885
40
0.065
0
CIRCLE
5
207
100
AcDbEntity
8
0
6
ByLayer
62
256
370
-1
100
AcDbCircle
10
33.732725
20
6.094704
40
0.065
0
CIRCLE
5
208
100
AcDbEntity
8
0
6
ByLayer
62
256
370
-1
100
AcDbCircle
10
5.24453504
20
3.4842885
40
0.065
0
CIRCLE
5
209
100
AcDbEntity
8
0
6
ByLayer
62
256
370
-1
100
AcDbCircle
10
9.2970185
20
2.419956
40
0.065
0
CIRCLE
5
20A
100
AcDbEntity
8
0
6
ByLayer
62
256
370
-1
100
AcDbCircle
10
7.6496675
20
2.800875
40
0.065
0
CIRCLE
5
20B
100
AcDbEntity
8
0
6
ByLayer
62
256
370
-1
100
AcDbCircle
10
6.3866984
20
3.159387
40
0.065
0
CIRCLE
5
20C
100
AcDbEntity
8
0
6
ByLayer
62
256
370
-1
100
AcDbCircle
10
10.9443695
20
2.083851
40
0.065
0
CIRCLE
5
20D
100
AcDbEntity
8
0
6
ByLayer
62
256
370
-1
100
AcDbCircle
10
12.5917205
20
1.814967
40
0.065
0
CIRCLE
5
20E
100
AcDbEntity
8
0
6
ByLayer
62
256
370
-1
100
AcDbCircle
10
14.2390715
20
1.590897
40
0.065
0
CIRCLE
5
20F
100
AcDbEntity
8
0
6
ByLayer
62
256
370
-1
100
AcDbCircle
10
17.5337735
20
1.322013
40
0.065
0
CIRCLE
5
210
100
AcDbEntity
8
0
6
ByLayer
62
256
370
-1
100
AcDbCircle
10
15.8864225
20
1.434048
40
0.065
0
CIRCLE
5
211
100
AcDbEntity
8
0
6
ByLayer
62
256
370
-1
100
AcDbCircle
10
20.8284755
20
1.2659955
40
0.065
0
CIRCLE
5
212
100
AcDbEntity
8
0
6
ByLayer
62
256
370
-1
100
AcDbCircle
10
19.1811245
20
1.2659955
40
0.065
0
CIRCLE
5
213
100
AcDbEntity
8
0
6
ByLayer
62
256
370
-1
100
AcDbCircle
10
22.4758265
20
1.322013
40
0.065
0
CIRCLE
5
214
100
AcDbEntity
8
0
6
ByLayer
62
256
370
-1
100
AcDbCircle
10
24.1231775
20
1.434048
40
0.065
0
CIRCLE
5
215
100
AcDbEntity
8
0
6
ByLayer
62
256
370
-1
100
AcDbCircle
10
25.7705285
20
1.590897
40
0.065
0
CIRCLE
5
216
100
AcDbEntity
8
0
6
ByLayer
62
256
370
-1
100
AcDbCircle
10
27.4178795
20
1.814967
40
0.065
0
CIRCLE
5
217
100
AcDbEntity
8
0
6
ByLayer
62
256
370
-1
100
AcDbCircle
10
30.7125815
20
2.419956
40
0.065
0
CIRCLE
5
218
100
AcDbEntity
8
0
6
ByLayer
62
256
370
-1
100
AcDbCircle
10
29.0652305
20
2.083851
40
0.065
0
CIRCLE
5
219
100
AcDbEntity
8
0
6
ByLayer
62
256
370
-1
100
AcDbCircle
10
32.3599325
20
2.800875
40
0.065
0
CIRCLE
5
21A
100
AcDbEntity
8
0
6
ByLayer
62
256
370
-1
100
AcDbCircle
10
33.6229016
20
3.159387
40
0.065
0
CIRCLE
5
21B
100
AcDbEntity
8
0
6
ByLayer
62
256
370
-1
100
AcDbCircle
10
34.76506496
20
3.4842885
40
0.065
0
CIRCLE
5
21C
100
AcDbEntity
8
0
6
ByLayer
62
256
370
-1
100
AcDbCircle
10
8.468543
20
24.4742971739
40
0.065
0
CIRCLE
5
21D
100
AcDbEntity
8
0
6
ByLayer
62
256
370
-1
100
AcDbCircle
10
9.2922185
20
24.5751286739
40
0.065
0
CIRCLE
5
21E
100
AcDbEntity
8
0
6
ByLayer
62
256
370
-1
100
AcDbCircle
10
10.9395695
20
24.7431811739
40
0.065
0
CIRCLE
5
21F
100
AcDbEntity
8
0
6
ByLayer
62
256
370
-1
100
AcDbCircle
10
12.5869205
20
24.8888266739
40
0.065
0
CIRCLE
5
220
100
AcDbEntity
8
0
6
ByLayer
62
256
370
-1
100
AcDbCircle
10
14.2342715
20
25.0008616739
40
0.065
0
CIRCLE
5
221
100
AcDbEntity
8
0
6
ByLayer
62
256
370
-1
100
AcDbCircle
10
15.8816225
20
25.0792861739
40
0.065
0
CIRCLE
5
222
100
AcDbEntity
8
0
6
ByLayer
62
256
370
-1
100
AcDbCircle
10
17.5289735
20
25.1353036739
40
0.065
0
CIRCLE
5
223
100
AcDbEntity
8
0
6
ByLayer
62
256
370
-1
100
AcDbCircle
10
19.1763245
20
25.1689141739
40
0.065
0
CIRCLE
5
224
100
AcDbEntity
8
0
6
ByLayer
62
256
370
-1
100
AcDbCircle
10
31.531457
20
24.4742971739
40
0.065
0
CIRCLE
5
225
100
AcDbEntity
8
0
6
ByLayer
62
256
370
-1
100
AcDbCircle
10
30.7077815
20
24.5751286739
40
0.065
0
CIRCLE
5
226
100
AcDbEntity
8
0
6
ByLayer
62
256
370
-1
100
AcDbCircle
10
29.0604305
20
24.7431811739
40
0.065
0
CIRCLE
5
227
100
AcDbEntity
8
0
6
ByLayer
62
256
370
-1
100
AcDbCircle
10
27.4130795
20
24.8888266739
40
0.065
0
CIRCLE
5
228
100
AcDbEntity
8
0
6
ByLayer
62
256
370
-1
100
AcDbCircle
10
25.7657285
20
25.0008616739
40
0.065
0
CIRCLE
5
229
100
AcDbEntity
8
0
6
ByLayer
62
256
370
-1
100
AcDbCircle
10
24.1183775
20
25.0792861739
40
0.065
0
CIRCLE
5
22A
100
AcDbEntity
8
0
6
ByLayer
62
256
370
-1
100
AcDbCircle
10
22.4710265
20
25.1353036739
40
0.065
0
CIRCLE
5
22B
100
AcDbEntity
8
0
6
ByLayer
62
256
370
-1
100
AcDbCircle
10
20.8236755
20
25.1689141739
40
0.065
0
CIRCLE
5
22C
100
AcDbEntity
8
0
6
ByLayer
62
256
370
-1
100
AcDbCircle
10
10.9395695
20
30.9835306739
40
0.065
0
CIRCLE
5
22D
100
AcDbEntity
8
0
6
ByLayer
62
256
370
-1
100
AcDbCircle
10
9.2922185
20
30.8154781739
40
0.065
0
CIRCLE
5
22E
100
AcDbEntity
8
0
6
ByLayer
62
256
370
-1
100
AcDbCircle
10
7.919426
20
30.6474256739
40
0.065
0
CIRCLE
5
22F
100
AcDbEntity
8
0
6
ByLayer
62
256
370
-1
100
AcDbCircle
10
12.5869205
20
31.1067691739
40
0.065
0
CIRCLE
5
230
100
AcDbEntity
8
0
6
ByLayer
62
256
370
-1
100
AcDbCircle
10
15.8816225
20
31.2860251739
40
0.065
0
CIRCLE
5
231
100
AcDbEntity
8
0
6
ByLayer
62
256
370
-1
100
AcDbCircle
10
14.2342715
20
31.2076006739
40
0.065
0
CIRCLE
5
232
100
AcDbEntity
8
0
6
ByLayer
62
256
370
-1
100
AcDbCircle
10
19.1763245
20
31.3868566739
40
0.065
0
CIRCLE
5
233
100
AcDbEntity
8
0
6
ByLayer
62
256
370
-1
100
AcDbCircle
10
17.5289735
20
31.3084321739
40
0.065
0
CIRCLE
5
234
100
AcDbEntity
8
0
6
ByLayer
62
256
370
-1
100
AcDbCircle
10
29.0604305
20
30.9835306739
40
0.065
0
CIRCLE
5
235
100
AcDbEntity
8
0
6
ByLayer
62
256
370
-1
100
AcDbCircle
10
30.7077815
20
30.8154781739
40
0.065
0
CIRCLE
5
236
100
AcDbEntity
8
0
6
ByLayer
62
256
370
-1
100
AcDbCircle
10
32.080574
20
30.6474256739
40
0.065
0
CIRCLE
5
237
100
AcDbEntity
8
0
6
ByLayer
62
256
370
-1
100
AcDbCircle
10
27.4130795
20
31.1067691739
40
0.065
0
CIRCLE
5
238
100
AcDbEntity
8
0
6
ByLayer
62
256
370
-1
100
AcDbCircle
10
24.1183775
20
31.2860251739
40
0.065
0
CIRCLE
5
239
100
AcDbEntity
8
0
6
ByLayer
62
256
370
-1
100
AcDbCircle
10
25.7657285
20
31.2076006739
40
0.065
0
CIRCLE
5
23A
100
AcDbEntity
8
0
6
ByLayer
62
256
370
-1
100
AcDbCircle
10
20.8236755
20
31.3868566739
40
0.065
0
CIRCLE
5
23B
100
AcDbEntity
8
0
6
ByLayer
62
256
370
-1
100
AcDbCircle
10
22.4710265
20
31.3084321739
40
0.065
0
CIRCLE
5
23C
100
AcDbEntity
8
0
6
ByLayer
62
256
370
-1
100
AcDbCircle
10
10.9395695
20
36.9886066739
40
0.065
0
CIRCLE
5
23D
100
AcDbEntity
8
0
6
ByLayer
62
256
370
-1
100
AcDbCircle
10
9.2922185
20
36.8429611739
40
0.065
0
CIRCLE
5
23E
100
AcDbEntity
8
0
6
ByLayer
62
256
370
-1
100
AcDbCircle
10
7.6448675
20
36.6749086739
40
0.065
0
CIRCLE
5
23F
100
AcDbEntity
8
0
6
ByLayer
62
256
370
-1
100
AcDbCircle
10
12.5869205
20
37.1006416739
40
0.065
0
CIRCLE
5
240
100
AcDbEntity
8
0
6
ByLayer
62
256
370
-1
100
AcDbCircle
10
14.2342715
20
37.2238801739
40
0.065
0
CIRCLE
5
241
100
AcDbEntity
8
0
6
ByLayer
62
256
370
-1
100
AcDbCircle
10
15.8816225
20
37.2686941739
40
0.065
0
CIRCLE
5
242
100
AcDbEntity
8
0
6
ByLayer
62
256
370
-1
100
AcDbCircle
10
19.1763245
20
37.3359151739
40
0.065
0
CIRCLE
5
243
100
AcDbEntity
8
0
6
ByLayer
62
256
370
-1
100
AcDbCircle
10
17.5289735
20
37.3359151739
40
0.065
0
ELLIPSE
5
244
100
AcDbEntity
8
0
6
ByLayer
62
256
370
9
100
AcDbEllipse
10
29.0604305
20
37.7952586739
30
0
11
0
21
0.0840337186681
31
0
40
0.98025974026
41
0
42
6.28318530718
0
CIRCLE
5
245
100
AcDbEntity
8
0
6
ByLayer
62
256
370
-1
100
AcDbCircle
10
29.0604305
20
36.9886066739
40
0.065
0
CIRCLE
5
246
100
AcDbEntity
8
0
6
ByLayer
62
256
370
-1
100
AcDbCircle
10
30.7077815
20
36.8429611739
40
0.065
0
CIRCLE
5
247
100
AcDbEntity
8
0
6
ByLayer
62
256
370
-1
100
AcDbCircle
10
32.3551325
20
36.6749086739
40
0.065
0
CIRCLE
5
248
100
AcDbEntity
8
0
6
ByLayer
62
256
370
-1
100
AcDbCircle
10
27.4130795
20
37.1006416739
40
0.065
0
CIRCLE
5
249
100
AcDbEntity
8
0
6
ByLayer
62
256
370
-1
100
AcDbCircle
10
25.7657285
20
37.2238801739
40
0.065
0
CIRCLE
5
24A
100
AcDbEntity
8
0
6
ByLayer
62
256
370
-1
100
AcDbCircle
10
24.1183775
20
37.2686941739
40
0.065
0
CIRCLE
5
24B
100
AcDbEntity
8
0
6
ByLayer
62
256
370
-1
100
AcDbCircle
10
20.8236755
20
37.3359151739
40
0.065
0
CIRCLE
5
24C
100
AcDbEntity
8
0
6
ByLayer
62
256
370
-1
100
AcDbCircle
10
22.4710265
20
37.3359151739
40
0.065
0
CIRCLE
5
24D
100
AcDbEntity
8
0
6
ByLayer
62
256
370
-1
100
AcDbCircle
10
9.74249444
20
42.5007286739
40
0.065
0
CIRCLE
5
24E
100
AcDbEntity
8
0
6
ByLayer
62
256
370
-1
100
AcDbCircle
10
10.9395695
20
42.5903566739
40
0.065
0
CIRCLE
5
24F
100
AcDbEntity
8
0
6
ByLayer
62
256
370
-1
100
AcDbCircle
10
12.5869205
20
42.6799846739
40
0.065
0
CIRCLE
5
250
100
AcDbEntity
8
0
6
ByLayer
62
256
370
-1
100
AcDbCircle
10
14.2342715
20
42.7584091739
40
0.065
0
CIRCLE
5
251
100
AcDbEntity
8
0
6
ByLayer
62
256
370
-1
100
AcDbCircle
10
15.8816225
20
42.8144266739
40
0.065
0
CIRCLE
5
252
100
AcDbEntity
8
0
6
ByLayer
62
256
370
-1
100
AcDbCircle
10
17.5289735
20
42.8480371739
40
0.065
0
CIRCLE
5
253
100
AcDbEntity
8
0
6
ByLayer
62
256
370
-1
100
AcDbCircle
10
19.1763245
20
42.8704441739
40
0.065
0
CIRCLE
5
254
100
AcDbEntity
8
0
6
ByLayer
62
256
370
-1
100
AcDbCircle
10
30.25750556
20
42.5007286739
40
0.065
0
CIRCLE
5
255
100
AcDbEntity
8
0
6
ByLayer
62
256
370
-1
100
AcDbCircle
10
29.0604305
20
42.5903566739
40
0.065
0
CIRCLE
5
256
100
AcDbEntity
8
0
6
ByLayer
62
256
370
-1
100
AcDbCircle
10
27.4130795
20
42.6799846739
40
0.065
0
CIRCLE
5
257
100
AcDbEntity
8
0
6
ByLayer
62
256
370
-1
100
AcDbCircle
10
25.7657285
20
42.7584091739
40
0.065
0
CIRCLE
5
258
100
AcDbEntity
8
0
6
ByLayer
62
256
370
-1
100
AcDbCircle
10
24.1183775
20
42.8144266739
40
0.065
0
CIRCLE
5
259
100
AcDbEntity
8
0
6
ByLayer
62
256
370
-1
100
AcDbCircle
10
22.4710265
20
42.8480371739
40
0.065
0
CIRCLE
5
25A
100
AcDbEntity
8
0
6
ByLayer
62
256
370
-1
100
AcDbCircle
10
20.8236755
20
42.8704441739
40
0.065
0
CIRCLE
5
25B
100
AcDbEntity
8
0
6
ByLayer
62
256
370
-1
100
AcDbCircle
10
10.9395695
20
47.8111876739
40
0.065
0
CIRCLE
5
25C
100
AcDbEntity
8
0
6
ByLayer
62
256
370
-1
100
AcDbCircle
10
12.5869205
20
47.8784086739
40
0.065
0
CIRCLE
5
25D
100
AcDbEntity
8
0
6
ByLayer
62
256
370
-1
100
AcDbCircle
10
14.2342715
20
47.9344261739
40
0.065
0
CIRCLE
5
25E
100
AcDbEntity
8
0
6
ByLayer
62
256
370
-1
100
AcDbCircle
10
15.8816225
20
47.9792401739
40
0.065
0
CIRCLE
5
25F
100
AcDbEntity
8
0
6
ByLayer
62
256
370
-1
100
AcDbCircle
10
17.5289735
20
48.0016471739
40
0.065
0
CIRCLE
5
260
100
AcDbEntity
8
0
6
ByLayer
62
256
370
-1
100
AcDbCircle
10
19.1763245
20
48.0240541739
40
0.065
0
CIRCLE
5
261
100
AcDbEntity
8
0
6
ByLayer
62
256
370
-1
100
AcDbCircle
10
29.0604305
20
47.8111876739
40
0.065
0
CIRCLE
5
262
100
AcDbEntity
8
0
6
ByLayer
62
256
370
-1
100
AcDbCircle
10
27.4130795
20
47.8784086739
40
0.065
0
CIRCLE
5
263
100
AcDbEntity
8
0
6
ByLayer
62
256
370
-1
100
AcDbCircle
10
25.7657285
20
47.9344261739
40
0.065
0
CIRCLE
5
264
100
AcDbEntity
8
0
6
ByLayer
62
256
370
-1
100
AcDbCircle
10
24.1183775
20
47.9792401739
40
0.065
0
CIRCLE
5
265
100
AcDbEntity
8
0
6
ByLayer
62
256
370
-1
100
AcDbCircle
10
22.4710265
20
48.0016471739
40
0.065
0
CIRCLE
5
266
100
AcDbEntity
8
0
6
ByLayer
62
256
370
-1
100
AcDbCircle
10
20.8236755
20
48.0240541739
40
0.065
0
CIRCLE
5
267
100
AcDbEntity
8
0
6
ByLayer
62
256
370
-1
100
AcDbCircle
10
12.5869205
20
54.2419966739
40
0.065
0
CIRCLE
5
268
100
AcDbEntity
8
0
6
ByLayer
62
256
370
-1
100
AcDbCircle
10
14.2342715
20
53.9395021739
40
0.065
0
CIRCLE
5
269
100
AcDbEntity
8
0
6
ByLayer
62
256
370
-1
100
AcDbCircle
10
15.8816225
20
53.7042286739
40
0.065
0
CIRCLE
5
26A
100
AcDbEntity
8
0
6
ByLayer
62
256
370
-1
100
AcDbCircle
10
19.1763245
20
53.4689551739
40
0.065
0
CIRCLE
5
26B
100
AcDbEntity
8
0
6
ByLayer
62
256
370
-1
100
AcDbCircle
10
17.5289735
20
53.5921936739
40
0.065
0
CIRCLE
5
26C
100
AcDbEntity
8
0
6
ByLayer
62
256
370
-1
100
AcDbCircle
10
27.4130795
20
54.2419966739
40
0.065
0
CIRCLE
5
26D
100
AcDbEntity
8
0
6
ByLayer
62
256
370
-1
100
AcDbCircle
10
25.7657285
20
53.9395021739
40
0.065
0
CIRCLE
5
26E
100
AcDbEntity
8
0
6
ByLayer
62
256
370
-1
100
AcDbCircle
10
24.1183775
20
53.7042286739
40
0.065
0
CIRCLE
5
26F
100
AcDbEntity
8
0
6
ByLayer
62
256
370
-1
100
AcDbCircle
10
20.8236755
20
53.4689551739
40
0.065
0
CIRCLE
5
270
100
AcDbEntity
8
0
6
ByLayer
62
256
370
-1
100
AcDbCircle
10
22.4710265
20
53.5921936739
40
0.065
0
CIRCLE
5
271
100
AcDbEntity
8
0
6
ByLayer
62
256
370
-1
100
AcDbCircle
10
19.1763245
20
59.2499611739
40
0.065
0
CIRCLE
5
272
100
AcDbEntity
8
0
6
ByLayer
62
256
370
-1
100
AcDbCircle
10
17.5289735
20
59.3395891739
40
0.065
0
CIRCLE
5
273
100
AcDbEntity
8
0
6
ByLayer
62
256
370
-1
100
AcDbCircle
10
15.8816225
20
59.5076416739
40
0.065
0
CIRCLE
5
274
100
AcDbEntity
8
0
6
ByLayer
62
256
370
-1
100
AcDbCircle
10
14.2342715
20
59.7541186739
40
0.065
0
CIRCLE
5
275
100
AcDbEntity
8
0
6
ByLayer
62
256
370
-1
100
AcDbCircle
10
13.00424942
20
60.0117991739
40
0.065
0
CIRCLE
5
276
100
AcDbEntity
8
0
6
ByLayer
62
256
370
-1
100
AcDbCircle
10
13.5753311
20
61.3786261739
40
0.065
0
CIRCLE
5
277
100
AcDbEntity
8
0
6
ByLayer
62
256
370
-1
100
AcDbCircle
10
14.1793598
20
62.7230461739
40
0.065
0
CIRCLE
5
278
100
AcDbEntity
8
0
6
ByLayer
62
256
370
-1
100
AcDbCircle
10
17.5289735
20
61.2889981739
40
0.065
0
CIRCLE
5
279
100
AcDbEntity
8
0
6
ByLayer
62
256
370
-1
100
AcDbCircle
10
15.32152316
20
63.1487791739
40
0.065
0
CIRCLE
5
27A
100
AcDbEntity
8
0
6
ByLayer
62
256
370
-1
100
AcDbCircle
10
16.30993376
20
62.2188886739
40
0.065
0
CIRCLE
5
27B
100
AcDbEntity
8
0
6
ByLayer
62
256
370
-1
100
AcDbCircle
10
19.1763245
20
60.7288231739
40
0.065
0
ELLIPSE
5
27C
100
AcDbEntity
8
0
6
ByLayer
62
256
370
9
100
AcDbEllipse
10
24.942053
20
62.4989761739
30
0
11
0
21
0.0840337186681
31
0
40
0.98025974026
41
0
42
6.28318530718
0
CIRCLE
5
27D
100
AcDbEntity
8
0
6
ByLayer
62
256
370
-1
100
AcDbCircle
10
20.8236755
20
59.2499611739
40
0.065
0
CIRCLE
5
27E
100
AcDbEntity
8
0
6
ByLayer
62
256
370
-1
100
AcDbCircle
10
22.4710265
20
59.3395891739
40
0.065
0
CIRCLE
5
27F
100
AcDbEntity
8
0
6
ByLayer
62
256
370
-1
100
AcDbCircle
10
24.1183775
20
59.5076416739
40
0.065
0
CIRCLE
5
280
100
AcDbEntity
8
0
6
ByLayer
62
256
370
-1
100
AcDbCircle
10
25.7657285
20
59.7541186739
40
0.065
0
CIRCLE
5
281
100
AcDbEntity
8
0
6
ByLayer
62
256
370
-1
100
AcDbCircle
10
26.99575058
20
60.0117991739
40
0.065
0
CIRCLE
5
282
100
AcDbEntity
8
0
6
ByLayer
62
256
370
-1
100
AcDbCircle
10
26.4246689
20
61.3786261739
40
0.065
0
CIRCLE
5
283
100
AcDbEntity
8
0
6
ByLayer
62
256
370
-1
100
AcDbCircle
10
25.8206402
20
62.7230461739
40
0.065
0
CIRCLE
5
284
100
AcDbEntity
8
0
6
ByLayer
62
256
370
-1
100
AcDbCircle
10
22.4710265
20
61.2889981739
40
0.065
0
CIRCLE
5
285
100
AcDbEntity
8
0
6
ByLayer
62
256
370
-1
100
AcDbCircle
10
24.67847684
20
63.1487791739
40
0.065
0
CIRCLE
5
286
100
AcDbEntity
8
0
6
ByLayer
62
256
370
-1
100
AcDbCircle
10
23.69006624
20
62.2188886739
40
0.065
0
CIRCLE
5
287
100
AcDbEntity
8
0
6
ByLayer
62
256
370
-1
100
AcDbCircle
10
20.8236755
20
60.7288231739
40
0.065
0
ELLIPSE
5
288
100
AcDbEntity
8
0
6
ByLayer
62
256
370
9
100
AcDbEllipse
10
-12.5821205
20
21.28665
30
0
11
0
21
0.0840337186681
31
0
40
0.98025974026
41
0
42
6.28318530718
0
ELLIPSE
5
289
100
AcDbEntity
8
0
6
ByLayer
62
256
370
9
100
AcDbEllipse
10
-27.41
20
21.29
30
0
11
0
21
0.0840337186681
31
0
40
0.98025974026
41
0
42
6.28318530718
0
ELLIPSE
5
28A
100
AcDbEntity
8
0
6
ByLayer
62
256
370
9
100
AcDbEllipse
10
-29.0556305
20
11.091465
30
0
11
0
21
0.0840337186681
31
0
40
0.98025974026
41
0
42
6.28318530718
0
ELLIPSE
5
28B
100
AcDbEntity
8
0
6
ByLayer
62
256
370
9
100
AcDbEllipse
10
-10.9347695
20
11.091465
30
0
11
0
21
0.0840337186681
31
0
40
0.98025974026
41
0
42
6.28318530718
0
ELLIPSE
5
28C
100
AcDbEntity
8
0
6
ByLayer
62
256
370
9
100
AcDbEllipse
10
12.5869205
20
21.0460261739
30
0
11
0
21
0.0840337186681
31
0
40
0.98025974026
41
0
42
6.28318530718
0
ELLIPSE
5
28D
100
AcDbEntity
8
0
6
ByLayer
62
256
370
9
100
AcDbEllipse
10
27.4130795
20
21.0460261739
30
0
11
0
21
0.0840337186681
31
0
40
0.98025974026
41
0
42
6.28318530718
0
ELLIPSE
5
28E
100
AcDbEntity
8
0
6
ByLayer
62
256
370
9
100
AcDbEllipse
10
10.9395695
20
10.8508411739
30
0
11
0
21
0.0840337186681
31
0
40
0.98025974026
41
0
42
6.28318530718
0
ELLIPSE
5
28F
100
AcDbEntity
8
0
6
ByLayer
62
256
370
9
100
AcDbEllipse
10
29.0604305
20
10.8508411739
30
0
11
0
21
0.0840337186681
31
0
40
0.98025974026
41
0
42
6.28318530718
0
MTEXT
5
290
100
AcDbEntity
8
0
6
ByLayer
62
256
370
9
100
AcDbMText
10
-29.4
20
41.1
30
0
40
0.109823
41
0.96095125
71
1
72
5
1
Height: 196cm\PWeight: 118kg
7
iso
210
0
220
0
230
1
50
0
73
2
44
1
0
MTEXT
5
291
100
AcDbEntity
8
0
6
ByLayer
62
256
370
9
100
AcDbMText
10
-20.5
20
43.7
30
0
40
0.109823
41
0.96095125
71
1
72
5
1
Height: 196cm\PWeight: 118kg
7
iso
210
0
220
0
230
1
50
0
73
2
44
1
0
MTEXT
5
292
100
AcDbEntity
8
0
6
ByLayer
62
256
370
9
100
AcDbMText
10
-12
20
41
30
0
40
0.109823
41
0.96095125
71
1
72
5
1
Height: 196cm\PWeight: 118kg
7
iso
210
0
220
0
230
1
50
0
73
2
44
1
0
MTEXT
5
293
100
AcDbEntity
8
0
6
ByLayer
62
256
370
9
100
AcDbMText
10
-20.5
20
33.9
30
0
40
0.109823
41
0.96095125
71
1
72
5
1
Height: 196cm\PWeight: 118kg
7
iso
210
0
220
0
230
1
50
0
73
2
44
1
0
MTEXT
5
294
100
AcDbEntity
8
0
6
ByLayer
62
256
370
9
100
AcDbMText
10
-20.5
20
27.5
30
0
40
0.109823
41
0.96095125
71
1
72
5
1
Height: 196cm\PWeight: 118kg
7
iso
210
0
220
0
230
1
50
0
73
2
44
1
0
MTEXT
5
295
100
AcDbEntity
8
0
6
ByLayer
62
256
370
9
100
AcDbMText
10
-20.5
20
21.5
30
0
40
0.109823
41
0.96095125
71
1
72
5
1
Height: 196cm\PWeight: 118kg
7
iso
210
0
220
0
230
1
50
0
73
2
44
1
0
MTEXT
5
296
100
AcDbEntity
8
0
6
ByLayer
62
256
370
9
100
AcDbMText
10
-20.5
20
14.3
30
0
40
0.109823
41
0.96095125
71
1
72
5
1
Height: 196cm\PWeight: 118kg
7
iso
210
0
220
0
230
1
50
0
73
2
44
1
0
MTEXT
5
297
100
AcDbEntity
8
0
6
ByLayer
62
256
370
9
100
AcDbMText
10
-20.5
20
8.3
30
0
40
0.109823
41
0.96095125
71
1
72
5
1
Height: 196cm\PWeight: 118kg
7
iso
210
0
220
0
230
1
50
0
73
2
44
1
0
MTEXT
5
298
100
AcDbEntity
8
0
6
ByLayer
62
256
370
9
100
AcDbMText
10
-20.5
20
2.3
30
0
40
0.109823
41
0.96095125
71
1
72
5
1
Height: 196cm\PWeight: 118kg
7
iso
210
0
220
0
230
1
50
0
73
2
44
1
0
MTEXT
5
299
100
AcDbEntity
8
0
6
ByLayer
62
256
370
9
100
AcDbMText
10
19.6
20
2.2
30
0
40
0.109823
41
0.96095125
71
1
72
5
1
Height: 196cm\PWeight: 118kg
7
iso
210
0
220
0
230
1
50
0
73
2
44
1
0
MTEXT
5
29A
100
AcDbEntity
8
0
6
ByLayer
62
256
370
9
100
AcDbMText
10
19.6
20
8
30
0
40
0.109823
41
0.96095125
71
1
72
5
1
Height: 196cm\PWeight: 118kg
7
iso
210
0
220
0
230
1
50
0
73
2
44
1
0
MTEXT
5
29B
100
AcDbEntity
8
0
6
ByLayer
62
256
370
9
100
AcDbMText
10
19.5
20
14
30
0
40
0.109823
41
0.96095125
71
1
72
5
1
Height: 196cm\PWeight: 118kg
7
iso
210
0
220
0
230
1
50
0
73
2
44
1
0
MTEXT
5
29C
100
AcDbEntity
8
0
6
ByLayer
62
256
370
9
100
AcDbMText
10
19.5
20
21.4
30
0
40
0.109823
41
0.96095125
71
1
72
5
1
Height: 196cm\PWeight: 118kg
7
iso
210
0
220
0
230
1
50
0
73
2
44
1
0
MTEXT
5
29D
100
AcDbEntity
8
0
6
ByLayer
62
256
370
9
100
AcDbMText
10
19.5
20
26.7
30
0
40
0.109823
41
0.96095125
71
1
72
5
1
Height: 196cm\PWeight: 118kg
7
iso
210
0
220
0
230
1
50
0
73
2
44
1
0
MTEXT
5
29E
100
AcDbEntity
8
0
6
ByLayer
62
256
370
9
100
AcDbMText
10
19.5
20
32.7
30
0
40
0.109823
41
0.96095125
71
1
72
5
1
Height: 196cm\PWeight: 118kg
7
iso
210
0
220
0
230
1
50
0
73
2
44
1
0
MTEXT
5
29F
100
AcDbEntity
8
0
6
ByLayer
62
256
370
9
100
AcDbMText
10
19.6
20
38.7
30
0
40
0.109823
41
0.96095125
71
1
72
5
1
Height: 196cm\PWeight: 118kg
7
iso
210
0
220
0
230
1
50
0
73
2
44
1
0
MTEXT
5
2A0
100
AcDbEntity
8
0
6
ByLayer
62
256
370
9
100
AcDbMText
10
19.6
20
44.1
30
0
40
0.109823
41
0.96095125
71
1
72
5
1
Height: 196cm\PWeight: 118kg
7
iso
210
0
220
0
230
1
50
0
73
2
44
1
0
MTEXT
5
2A1
100
AcDbEntity
8
0
6
ByLayer
62
256
370
9
100
AcDbMText
10
19.5
20
49.3
30
0
40
0.109823
41
0.96095125
71
1
72
5
1
Height: 196cm\PWeight: 118kg
7
iso
210
0
220
0
230
1
50
0
73
2
44
1
0
MTEXT
5
2A2
100
AcDbEntity
8
0
6
ByLayer
62
256
370
9
100
AcDbMText
10
19.5
20
54.8
30
0
40
0.109823
41
0.96095125
71
1
72
5
1
Height: 196cm\PWeight: 118kg
7
iso
210
0
220
0
230
1
50
0
73
2
44
1
0
MTEXT
5
2A3
100
AcDbEntity
8
0
6
ByLayer
62
256
370
9
100
AcDbMText
10
19.3
20
60.3
30
0
40
0.1098234
41
1.56498345
71
1
72
5
1
Upper Back Plate #7
7
iso
210
0
220
0
230
1
50
0
73
2
44
1
0
MTEXT
5
2A4
100
AcDbEntity
8
0
6
ByLayer
62
256
370
9
100
AcDbMText
10
19.5887245031
20
59.9162136254
30
0
40
0.109823
41
0.96095125
71
1
72
5
1
Height: 196cm\PWeight: 118kg
7
iso
210
0
220
0
230
1
50
0
73
2
44
1
0
ENDSEC
0
SECTION
2
OBJECTS
0
DICTIONARY
5
C
330
0
100
AcDbDictionary
281
1
3
ACAD_GROUP
350
D
0
DICTIONARY
5
D
330
C
100
AcDbDictionary
281
1
0
ENDSEC
0
EOF
