999
dxfrw 0.5.10
0
SECTION
2
HEADER
9
$ACADVER
1
AC1021
9
$HANDSEED
5
20000
9
$DWGCODEPAGE
3
ANSI_1252
9
$INSBASE
10
0
20
0
30
0
9
$EXTMIN
10
-34.85846
20
-4.44356
30
0
9
$EXTMAX
10
35.2484232296
20
58.2044043982
30
0
9
$LIMMIN
10
0
20
0
9
$LIMMAX
10
420
20
297
9
$ORTHOMODE
70
0
9
$LTSCALE
40
1
9
$TEXTSTYLE
7
STANDARD
9
$CLAYER
8
0
9
$DIMASZ
40
0.1
9
$DIMLFAC
40
1
9
$DIMSCALE
40
1
9
$DIMEXO
40
0.025
9
$DIMEXE
40
0.05
9
$DIMTXT
40
0.1
9
$DIMTSZ
40
0
9
$DIMAUNIT
70
0
9
$DIMADEC
70
2
9
$DIMLUNIT
70
2
9
$DIMSTYLE
2
Standard
9
$DIMGAP
40
0.025
9
$DIMTIH
70
0
9
$LUNITS
70
2
9
$LUPREC
70
4
9
$AUNITS
70
0
9
$AUPREC
70
2
9
$SPLINESEGS
70
8
9
$GRIDMODE
70
1
9
$SNAPSTYLE
70
0
9
$GRIDUNIT
10
0
20
0
9
$PINSBASE
10
32.6801011507
20
-11.3471050112
30
0
9
$PLIMMIN
10
0
20
0
9
$PLIMMAX
10
17.0078740157
20
10.9842519685
9
$INSUNITS
70
1
9
$PSVPSCALE
40
1
0
ENDSEC
0
SECTION
2
CLASSES
0
ENDSEC
0
SECTION
2
TABLES
0
TABLE
2
VPORT
5
8
330
0
100
AcDbSymbolTable
70
1
0
VPORT
5
31
330
2
100
AcDbSymbolTableRecord
100
AcDbViewportTableRecord
2
*ACTIVE
70
0
10
0
20
0
11
1
21
1
12
28.5835828805
22
49.693013347
13
0
23
0
14
10
24
10
15
10
25
10
16
0
26
0
36
1
17
0
27
0
37
0
40
138.372821718
41
1.04087591241
42
50
43
0
44
0
50
0
51
0
71
0
72
100
73
1
74
3
75
0
76
1
77
0
78
0
281
0
65
1
110
0
120
0
130
0
111
1
121
0
131
0
112
0
122
1
132
0
79
0
146
0
348
10020
60
7
61
5
292
1
282
1
141
0
142
0
63
250
421
3358443
0
ENDTAB
0
TABLE
2
LTYPE
5
5
330
0
100
AcDbSymbolTable
70
4
0
LTYPE
5
14
330
5
100
AcDbSymbolTableRecord
100
AcDbLinetypeTableRecord
2
ByBlock
70
0
3

72
65
73
0
40
0
0
LTYPE
5
15
330
5
100
AcDbSymbolTableRecord
100
AcDbLinetypeTableRecord
2
ByLayer
70
0
3

72
65
73
0
40
0
0
LTYPE
5
16
330
5
100
AcDbSymbolTableRecord
100
AcDbLinetypeTableRecord
2
Continuous
70
0
3
Solid line
72
65
73
0
40
0
0
LTYPE
5
32
330
5
100
AcDbSymbolTableRecord
100
AcDbLinetypeTableRecord
2
DOT
70
0
3
Dot . . . . . . . . . . . . . . . . . . . . . .
72
65
73
2
40
6.35
49
0
74
0
49
-6.35
74
0
0
LTYPE
5
33
330
5
100
AcDbSymbolTableRecord
100
AcDbLinetypeTableRecord
2
DOT2
70
0
3
Dot (.5x) .....................................
72
65
73
2
40
3.175
49
0
74
0
49
-3.175
74
0
0
LTYPE
5
34
330
5
100
AcDbSymbolTableRecord
100
AcDbLinetypeTableRecord
2
DOTX2
70
0
3
Dot (2x) .  .  .  .  .  .  .  .  .  .  .  .  .
72
65
73
2
40
12.7
49
0
74
0
49
-12.7
74
0
0
LTYPE
5
35
330
5
100
AcDbSymbolTableRecord
100
AcDbLinetypeTableRecord
2
DASHED
70
0
3
Dot . . . . . . . . . . . . . . . . . . . . . .
72
65
73
2
40
19.05
49
12.7
74
0
49
-6.35
74
0
0
LTYPE
5
36
330
5
100
AcDbSymbolTableRecord
100
AcDbLinetypeTableRecord
2
DASHED2
70
0
3
Dashed (.5x) _ _ _ _ _ _ _ _ _ _ _ _ _ _ _ _ _
72
65
73
2
40
9.525
49
6.35
74
0
49
-3.175
74
0
0
LTYPE
5
37
330
5
100
AcDbSymbolTableRecord
100
AcDbLinetypeTableRecord
2
DASHEDX2
70
0
3
Dashed (2x) ____  ____  ____  ____  ____  ___
72
65
73
2
40
38.1
49
25.4
74
0
49
-12.7
74
0
0
LTYPE
5
38
330
5
100
AcDbSymbolTableRecord
100
AcDbLinetypeTableRecord
2
DASHDOT
70
0
3
Dash dot __ . __ . __ . __ . __ . __ . __ . __
72
65
73
4
40
25.4
49
12.7
74
0
49
-6.35
74
0
49
0
74
0
49
-6.35
74
0
0
LTYPE
5
39
330
5
100
AcDbSymbolTableRecord
100
AcDbLinetypeTableRecord
2
DASHDOT2
70
0
3
Dash dot (.5x) _._._._._._._._._._._._._._._.
72
65
73
4
40
12.7
49
6.35
74
0
49
-3.175
74
0
49
0
74
0
49
-3.175
74
0
0
LTYPE
5
3A
330
5
100
AcDbSymbolTableRecord
100
AcDbLinetypeTableRecord
2
DASHDOTX2
70
0
3
Dash dot (2x) ____  .  ____  .  ____  .  ___
72
65
73
4
40
50.8
49
25.4
74
0
49
-12.7
74
0
49
0
74
0
49
-12.7
74
0
0
LTYPE
5
3B
330
5
100
AcDbSymbolTableRecord
100
AcDbLinetypeTableRecord
2
DIVIDE
70
0
3
Divide ____ . . ____ . . ____ . . ____ . . ____
72
65
73
6
40
31.75
49
12.7
74
0
49
-6.35
74
0
49
0
74
0
49
-6.35
74
0
49
0
74
0
49
-6.35
74
0
0
LTYPE
5
3C
330
5
100
AcDbSymbolTableRecord
100
AcDbLinetypeTableRecord
2
DIVIDE2
70
0
3
Divide (.5x) __..__..__..__..__..__..__..__.._
72
65
73
6
40
15.875
49
6.35
74
0
49
-3.175
74
0
49
0
74
0
49
-3.175
74
0
49
0
74
0
49
-3.175
74
0
0
LTYPE
5
3D
330
5
100
AcDbSymbolTableRecord
100
AcDbLinetypeTableRecord
2
DIVIDEX2
70
0
3
Divide (2x) ________  .  .  ________  .  .  _
72
65
73
6
40
63.5
49
25.4
74
0
49
-12.7
74
0
49
0
74
0
49
-12.7
74
0
49
0
74
0
49
-12.7
74
0
0
LTYPE
5
3E
330
5
100
AcDbSymbolTableRecord
100
AcDbLinetypeTableRecord
2
BORDER
70
0
3
Border __ __ . __ __ . __ __ . __ __ . __ __ .
72
65
73
6
40
44.45
49
12.7
74
0
49
-6.35
74
0
49
12.7
74
0
49
-6.35
74
0
49
0
74
0
49
-6.35
74
0
0
LTYPE
5
3F
330
5
100
AcDbSymbolTableRecord
100
AcDbLinetypeTableRecord
2
BORDER2
70
0
3
Border (.5x) __.__.__.__.__.__.__.__.__.__.__.
72
65
73
6
40
22.225
49
6.35
74
0
49
-3.175
74
0
49
6.35
74
0
49
-3.175
74
0
49
0
74
0
49
-3.175
74
0
0
LTYPE
5
40
330
5
100
AcDbSymbolTableRecord
100
AcDbLinetypeTableRecord
2
BORDERX2
70
0
3
Border (2x) ____  ____  .  ____  ____  .  ___
72
65
73
6
40
88.9
49
25.4
74
0
49
-12.7
74
0
49
25.4
74
0
49
-12.7
74
0
49
0
74
0
49
-12.7
74
0
0
LTYPE
5
41
330
5
100
AcDbSymbolTableRecord
100
AcDbLinetypeTableRecord
2
CENTER
70
0
3
Center ____ _ ____ _ ____ _ ____ _ ____ _ ____
72
65
73
4
40
50.8
49
31.75
74
0
49
-6.35
74
0
49
6.35
74
0
49
-6.35
74
0
0
LTYPE
5
42
330
5
100
AcDbSymbolTableRecord
100
AcDbLinetypeTableRecord
2
CENTER2
70
0
3
Center (.5x) ___ _ ___ _ ___ _ ___ _ ___ _ ___
72
65
73
4
40
28.575
49
19.05
74
0
49
-3.175
74
0
49
3.175
74
0
49
-3.175
74
0
0
LTYPE
5
43
330
5
100
AcDbSymbolTableRecord
100
AcDbLinetypeTableRecord
2
CENTERX2
70
0
3
Center (2x) ________  __  ________  __  _____
72
65
73
4
40
101.6
49
63.5
74
0
49
-12.7
74
0
49
12.7
74
0
49
-12.7
74
0
0
ENDTAB
0
TABLE
2
LAYER
5
2
330
0
100
AcDbSymbolTable
70
1
0
LAYER
5
10
330
2
100
AcDbSymbolTableRecord
100
AcDbLayerTableRecord
2
0
70
0
62
7
6
CONTINUOUS
370
-3
390
F
0
ENDTAB
0
TABLE
2
STYLE
5
3
330
0
100
AcDbSymbolTable
70
3
0
STYLE
5
44
330
2
100
AcDbSymbolTableRecord
100
AcDbTextStyleTableRecord
2
iso
70
0
40
0
41
1
50
0
71
0
42
1
3
iso
4

0
STYLE
5
45
330
2
100
AcDbSymbolTableRecord
100
AcDbTextStyleTableRecord
2
Standard
70
0
40
0
41
1
50
0
71
0
42
1
3
txt
4

0
ENDTAB
0
TABLE
2
VIEW
5
6
330
0
100
AcDbSymbolTable
70
0
0
ENDTAB
0
TABLE
2
UCS
5
7
330
0
100
AcDbSymbolTable
70
0
0
ENDTAB
0
TABLE
2
APPID
5
9
330
0
100
AcDbSymbolTable
70
1
0
APPID
5
12
330
9
100
AcDbSymbolTableRecord
100
AcDbRegAppTableRecord
2
ACAD
70
0
0
ENDTAB
0
TABLE
2
DIMSTYLE
5
A
330
0
100
AcDbSymbolTable
70
1
100
AcDbDimStyleTable
71
1
0
DIMSTYLE
105
46
330
A
100
AcDbSymbolTableRecord
100
AcDbDimStyleTableRecord
2
Standard
70
0
40
1
41
0.1
42
0.025
43
0.38
44
0.05
45
0
46
0
47
0
48
0
140
0.1
141
0.09
142
0
143
25.4
144
1
145
0
146
1
147
0.025
148
0
71
0
72
0
73
0
74
1
75
0
76
0
77
0
78
0
79
0
170
0
171
2
172
0
173
0
174
0
175
0
176
0
177
0
178
0
179
0
271
4
272
4
273
2
274
2
275
0
276
0
277
2
278
46
279
0
280
0
281
0
282
0
283
1
284
0
285
0
286
0
288
0
289
3
340
Standard
341

371
-2
372
-2
0
ENDTAB
0
TABLE
2
BLOCK_RECORD
5
1
330
0
100
AcDbSymbolTable
70
2
0
BLOCK_RECORD
5
1F
330
1
100
AcDbSymbolTableRecord
100
AcDbBlockTableRecord
2
*Model_Space
70
0
280
1
281
0
0
BLOCK_RECORD
5
1E
330
1
100
AcDbSymbolTableRecord
100
AcDbBlockTableRecord
2
*Paper_Space
70
0
280
1
281
0
0
ENDTAB
0
ENDSEC
0
SECTION
2
BLOCKS
0
BLOCK
5
20
330
1F
100
AcDbEntity
8
0
100
AcDbBlockBegin
2
*Model_Space
70
0
10
0
20
0
30
0
3
*Model_Space
1

0
ENDBLK
5
21
330
1F
100
AcDbEntity
8
0
100
AcDbBlockEnd
0
BLOCK
5
1C
330
1B
100
AcDbEntity
8
0
100
AcDbBlockBegin
2
*Paper_Space
70
0
10
0
20
0
30
0
3
*Paper_Space
1

0
ENDBLK
5
1D
330
1F
100
AcDbEntity
8
0
100
AcDbBlockEnd
0
ENDSEC
0
SECTION
2
ENTITIES
0
ELLIPSE
5
47
100
AcDbEntity
8
0
6
ByLayer
62
256
370
9
100
AcDbEllipse
10
-31.804221
20
25.151455
30
0
11
0.257859097574
21
0
31
0
40
0.945945945946
41
1.72450385585
42
2.98788512454
0
LINE
5
48
100
AcDbEntity
8
0
6
ByLayer
62
256
370
9
100
AcDbLine
10
-32.05904
20
25.1888
11
-31.62836
21
22.5407
0
ELLIPSE
5
49
100
AcDbEntity
8
0
6
ByLayer
62
256
370
9
100
AcDbEllipse
10
-31.373541
20
22.578045
30
0
11
0.257859097574
21
0
31
0
40
0.945945945946
41
3.29530018264
42
4.55868145133
0
ELLIPSE
5
4A
100
AcDbEntity
8
0
6
ByLayer
62
256
370
9
100
AcDbEllipse
10
-20
20
-21.4372659956
30
0
11
47.6622812221
21
0
31
0
40
0.945945945946
41
1.32899079819
42
1.8126018554
0
ELLIPSE
5
4B
100
AcDbEntity
8
0
6
ByLayer
62
256
370
9
100
AcDbEllipse
10
-8.62645900004
20
22.578045
30
0
11
0.257859097574
21
0
31
0
40
0.945945945946
41
4.86609650944
42
6.12947777813
0
LINE
5
4C
100
AcDbEntity
8
0
6
ByLayer
62
256
370
9
100
AcDbLine
10
-7.94096
20
25.1888
11
-8.37164
21
22.5407
0
ELLIPSE
5
4D
100
AcDbEntity
8
0
6
ByLayer
62
256
370
9
100
AcDbEllipse
10
-19.9773318462
20
-21.7766736123
30
0
11
51.2570437567
21
0
31
0
40
0.945945945946
41
1.3380788613
42
1.80442288314
0
ELLIPSE
5
4E
100
AcDbEntity
8
0
6
ByLayer
62
256
370
9
100
AcDbEllipse
10
-8.20313645
20
25.1565475
30
0
11
0.264384178904
21
0
31
0
40
0.945945945946
41
0.129322119886
42
1.39270338856
0
LINE
5
4F
100
AcDbEntity
8
0
6
ByLayer
62
256
370
9
100
AcDbLine
10
-17.52359
20
34.9664
11
-17.792765
21
45.5588
0
LINE
5
50
100
AcDbEntity
8
0
6
ByLayer
62
256
370
9
100
AcDbLine
10
-22.26107
20
34.7627
11
-17.73893
21
34.7627
0
ELLIPSE
5
51
100
AcDbEntity
8
0
6
ByLayer
62
256
370
9
100
AcDbEllipse
10
-20
20
53.0000369408
30
0
11
8.01038826973
21
0
31
0
40
0.945945945946
41
4.46108831916
42
4.96368964161
0
ELLIPSE
5
52
100
AcDbEntity
8
0
6
ByLayer
62
256
370
9
100
AcDbEllipse
10
-22.0367575
20
45.4909
30
0
11
0.184972826129
21
0
31
0
40
0.945945945946
41
1.32581766367
42
2.74307020792
0
ELLIPSE
5
53
100
AcDbEntity
8
0
6
ByLayer
62
256
370
9
100
AcDbEllipse
10
-17.9577432259
20
45.5013040323
30
0
11
0.17581865615
21
0
31
0
40
0.945945945946
41
0.352990387827
42
1.86130704777
0
ELLIPSE
5
54
100
AcDbEntity
8
0
6
ByLayer
62
256
370
9
100
AcDbEllipse
10
-22.2556865
20
34.9714925
30
0
11
0.220789142678
21
0
31
0
40
0.945945945946
41
3.16597806276
42
4.68800357122
0
ELLIPSE
5
55
100
AcDbEntity
8
0
6
ByLayer
62
256
370
9
100
AcDbEllipse
10
-17.7443135
20
34.9714925
30
0
11
0.220789142678
21
0
31
0
40
0.945945945946
41
4.73677438955
42
6.25879989801
0
ELLIPSE
5
56
100
AcDbEntity
8
0
6
ByLayer
62
256
370
9
100
AcDbEllipse
10
-95.8862798606
20
40.0354263561
30
0
11
71.8597544198
21
0
31
0
40
0.945945945946
41
6.20568949042
42
0.0693242585542
0
ELLIPSE
5
57
100
AcDbEntity
8
0
6
ByLayer
62
256
370
9
100
AcDbEllipse
10
-24.4935660385
20
34.7850286538
30
0
11
0.251695637907
21
0
31
0
40
0.945945945946
41
5.03205837233
42
6.23215879914
0
ELLIPSE
5
58
100
AcDbEntity
8
0
6
ByLayer
62
256
370
9
100
AcDbEllipse
10
-25.8955377456
20
44.1037913905
30
0
11
1.82643001355
21
0
31
0
40
0.945945945946
41
0.379606007492
42
2.84943088329
0
ELLIPSE
5
59
100
AcDbEntity
8
0
6
ByLayer
62
256
370
9
100
AcDbEllipse
10
-26.24486
20
44.744
30
0
11
0.080759677681
21
0
31
0
40
0.945945945946
41
0
42
6.28318530718
0
ELLIPSE
5
5A
100
AcDbEntity
8
0
6
ByLayer
62
256
370
9
100
AcDbEllipse
10
-30.767
20
35.5775
30
0
11
0.080759677681
21
0
31
0
40
0.945945945946
41
0
42
6.28318530718
0
ELLIPSE
5
5B
100
AcDbEntity
8
0
6
ByLayer
62
256
370
9
100
AcDbEllipse
10
-34.003757458
20
34.4744878244
30
0
11
0.803302884413
21
0
31
0
40
0.945945945946
41
3.43674409702
42
4.99238919852
0
ELLIPSE
5
5C
100
AcDbEntity
8
0
6
ByLayer
62
256
370
9
100
AcDbEllipse
10
-21.6535035714
20
-42.432325
30
0
11
81.4376450264
21
0
31
0
40
0.945945945946
41
1.60470565228
42
1.72027931383
0
ELLIPSE
5
5D
100
AcDbEntity
8
0
6
ByLayer
62
256
370
9
100
AcDbEllipse
10
-39.1776895515
20
46.2689790809
30
0
11
11.6670697921
21
0
31
0
40
0.945945945946
41
5.13168881174
42
6.13150743078
0
ELLIPSE
5
5E
100
AcDbEntity
8
0
6
ByLayer
62
256
370
9
100
AcDbEllipse
10
-34.1561944776
20
35.5759798507
30
0
11
0.702267361075
21
0
31
0
40
0.945945945946
41
1.96787577202
42
3.13930432806
0
LINE
5
5F
100
AcDbEntity
8
0
6
ByLayer
62
256
370
9
100
AcDbLine
10
-34.85846
20
35.5775
11
-34.772324
21
34.25345
0
ELLIPSE
5
60
100
AcDbEntity
8
0
6
ByLayer
62
256
370
9
100
AcDbEllipse
10
-20.053835
20
-25.6897110464
30
0
11
61.3147193821
21
0
31
0
40
0.945945945946
41
1.37014411027
42
1.77144854332
0
LINE
5
61
100
AcDbEntity
8
0
6
ByLayer
62
256
370
9
100
AcDbLine
10
-7.854824
20
28.295225
11
-7.488746
21
30.841475
0
LINE
5
62
100
AcDbEntity
8
0
6
ByLayer
62
256
370
9
100
AcDbLine
10
-32.554322
20
30.8924
11
-32.199011
21
28.34615
0
ELLIPSE
5
63
100
AcDbEntity
8
0
6
ByLayer
62
256
370
9
100
AcDbEllipse
10
-32.2286543228
20
30.8370271203
30
0
11
0.3308867201
21
0
31
0
40
0.945945945946
41
1.70943132039
42
2.96374699828
0
ELLIPSE
5
64
100
AcDbEntity
8
0
6
ByLayer
62
256
370
9
100
AcDbEllipse
10
-7.88349937759
20
30.7697642857
30
0
11
0.40196660697
21
0
31
0
40
0.945945945946
41
0.18973020476
42
1.44555988691
0
ELLIPSE
5
65
100
AcDbEntity
8
0
6
ByLayer
62
256
370
9
100
AcDbEllipse
10
-8.13784228575
20
28.307156
30
0
11
0.28329919176
21
0
31
0
40
0.945945945946
41
4.60904665452
42
6.23864955773
0
ELLIPSE
5
66
100
AcDbEntity
8
0
6
ByLayer
62
256
370
9
100
AcDbEllipse
10
-20.0053835
20
-26.3772354161
30
0
11
58.7328739383
21
0
31
0
40
0.945945945946
41
1.36784391954
42
1.77374873405
0
ELLIPSE
5
67
100
AcDbEntity
8
0
6
ByLayer
62
256
370
9
100
AcDbEllipse
10
-31.834698082
20
28.3875996107
30
0
11
0.366938596195
21
0
31
0
40
0.945945945946
41
3.26129381321
42
4.68785402732
0
ELLIPSE
5
68
100
AcDbEntity
8
0
6
ByLayer
62
256
370
9
100
AcDbEllipse
10
-20
20
56.731745
30
0
11
47.407101
21
0
31
0
40
0.945945945946
41
4.55272900896
42
4.87204895181
0
ELLIPSE
5
69
100
AcDbEntity
8
0
6
ByLayer
62
256
370
9
100
AcDbEllipse
10
-8.04863
20
13.88345
30
0
11
0.53835
21
0
31
0
40
0.945945945946
41
5.35589008918
42
3.5527136788e-15
0
LINE
5
6A
100
AcDbEntity
8
0
6
ByLayer
62
256
370
9
100
AcDbLine
10
-8.37164
20
16.0223
11
-7.51028
21
13.88345
0
ELLIPSE
5
6B
100
AcDbEntity
8
0
6
ByLayer
62
256
370
9
100
AcDbEllipse
10
-8.80402696344
20
15.9013220731
30
0
11
0.45090418221
21
0
31
0
40
0.945945945946
41
0.287579763809
42
1.56701067219
0
ELLIPSE
5
6C
100
AcDbEntity
8
0
6
ByLayer
62
256
370
9
100
AcDbEllipse
10
-20
20
60.2038851058
30
0
11
47.7157492067
21
0
31
0
40
0.945945945946
41
4.47550505238
42
4.94927290839
0
ELLIPSE
5
6D
100
AcDbEntity
8
0
6
ByLayer
62
256
370
9
100
AcDbEllipse
10
-31.95137
20
13.88345
30
0
11
0.53835
21
0
31
0
40
0.945945945946
41
3.14159265359
42
4.06888787159
0
LINE
5
6E
100
AcDbEntity
8
0
6
ByLayer
62
256
370
9
100
AcDbLine
10
-31.62836
20
16.0223
11
-32.48972
21
13.88345
0
ELLIPSE
5
6F
100
AcDbEntity
8
0
6
ByLayer
62
256
370
9
100
AcDbEllipse
10
-31.1959730366
20
15.9013220731
30
0
11
0.45090418221
21
0
31
0
40
0.945945945946
41
1.5745819814
42
2.85401288977
0
ELLIPSE
5
70
100
AcDbEntity
8
0
6
ByLayer
62
256
370
9
100
AcDbEllipse
10
-14.83184
20
32.1825
30
0
11
21.013434092
21
0
31
0
40
0.945945945946
41
4.95032550641
42
5.05736604332
0
ELLIPSE
5
71
100
AcDbEntity
8
0
6
ByLayer
62
256
370
9
100
AcDbEllipse
10
-11.2078944737
20
12.7443381578
30
0
11
0.824764044448
21
0
31
0
40
0.945945945946
41
0.289153409279
42
3.11754230891
0
ELLIPSE
5
72
100
AcDbEntity
8
0
6
ByLayer
62
256
370
9
100
AcDbEllipse
10
-12.732275
20
13.221425
30
0
11
0.851206089176
21
0
31
0
40
0.945945945946
41
5.03413953478
42
5.67764064358
0
ELLIPSE
5
73
100
AcDbEntity
8
0
6
ByLayer
62
256
370
9
100
AcDbEllipse
10
-10.040525
20
13.425125
30
0
11
0.613813440102
21
0
31
0
40
0.945945945946
41
4.05134581154
42
4.97864102953
0
ELLIPSE
5
74
100
AcDbEntity
8
0
6
ByLayer
62
256
370
9
100
AcDbEllipse
10
-28.7921055263
20
12.7443381578
30
0
11
0.824764044448
21
0
31
0
40
0.945945945946
41
0.0240503446854
42
2.85243924432
0
ELLIPSE
5
75
100
AcDbEntity
8
0
6
ByLayer
62
256
370
9
100
AcDbEllipse
10
-27.267725
20
13.221425
30
0
11
0.851206089176
21
0
31
0
40
0.945945945946
41
3.74713731719
42
4.39063842599
0
ELLIPSE
5
76
100
AcDbEntity
8
0
6
ByLayer
62
256
370
9
100
AcDbEllipse
10
-29.959475
20
13.425125
30
0
11
0.613813440102
21
0
31
0
40
0.945945945946
41
4.44613693123
42
5.37343214923
0
ELLIPSE
5
77
100
AcDbEntity
8
0
6
ByLayer
62
256
370
9
100
AcDbEllipse
10
-25.16816
20
32.1825
30
0
11
21.013434092
21
0
31
0
40
0.945945945946
41
4.36741191745
42
4.47445245436
0
ELLIPSE
5
78
100
AcDbEntity
8
0
6
ByLayer
62
256
370
9
100
AcDbEllipse
10
-20
20
55.6942034783
30
0
11
48.8082153913
21
0
31
0
40
0.945945945946
41
4.46500966309
42
4.95976829768
0
LINE
5
79
100
AcDbEntity
8
0
6
ByLayer
62
256
370
9
100
AcDbLine
10
-7.29494
20
10.7261
11
-6.43358
21
8.58725
0
ELLIPSE
5
7A
100
AcDbEntity
8
0
6
ByLayer
62
256
370
9
100
AcDbEllipse
10
-7.83329
20
10.2932375
30
0
11
0.706552329631
21
0
31
0
40
0.945945945946
41
0.704494064242
42
1.88049927134
0
ELLIPSE
5
7B
100
AcDbEntity
8
0
6
ByLayer
62
256
370
9
100
AcDbEllipse
10
-6.810425
20
8.434475
30
0
11
0.409995145154
21
0
31
0
40
0.945945945946
41
5.11728076668
42
0.404891786284
0
LINE
5
7C
100
AcDbEntity
8
0
6
ByLayer
62
256
370
9
100
AcDbLine
10
-32.70506
20
10.7261
11
-33.56642
21
8.58725
0
ELLIPSE
5
7D
100
AcDbEntity
8
0
6
ByLayer
62
256
370
9
100
AcDbEllipse
10
-32.16671
20
10.2932375
30
0
11
0.706552329631
21
0
31
0
40
0.945945945946
41
1.26109338225
42
2.43709858935
0
ELLIPSE
5
7E
100
AcDbEntity
8
0
6
ByLayer
62
256
370
9
100
AcDbEllipse
10
-33.189575
20
8.434475
30
0
11
0.409995145154
21
0
31
0
40
0.945945945946
41
2.7367008673
42
4.30749719409
0
ELLIPSE
5
7F
100
AcDbEntity
8
0
6
ByLayer
62
256
370
9
100
AcDbEllipse
10
-20
20
54.7910607935
30
0
11
51.1553579669
21
0
31
0
40
0.945945945946
41
4.44834050235
42
4.97643745842
0
ELLIPSE
5
80
100
AcDbEntity
8
0
6
ByLayer
62
256
370
9
100
AcDbEllipse
10
-20
20
49.3807345751
30
0
11
48.0321394366
21
0
31
0
40
0.945945945946
41
4.43071777289
42
4.99406018788
0
ELLIPSE
5
81
100
AcDbEntity
8
0
6
ByLayer
62
256
370
9
100
AcDbEllipse
10
-20
20
48.21963125
30
0
11
50.13384375
21
0
31
0
40
0.945945945946
41
4.41823226961
42
5.00654569116
0
ELLIPSE
5
82
100
AcDbEntity
8
0
6
ByLayer
62
256
370
9
100
AcDbEllipse
10
-33.4559412174
20
5.45713380435
30
0
11
0.312347995865
21
0
31
0
40
0.945945945946
41
1.22842769428
42
2.70274719871
0
ELLIPSE
5
83
100
AcDbEntity
8
0
6
ByLayer
62
256
370
9
100
AcDbEllipse
10
-34.4360135882
20
3.13438073529
30
0
11
0.33403663982
21
0
31
0
40
0.945945945946
41
2.80035431167
42
4.41012621351
0
LINE
5
84
100
AcDbEntity
8
0
6
ByLayer
62
256
370
9
100
AcDbLine
10
-34.75079
20
3.240125
11
-33.738692
21
5.582675
0
ELLIPSE
5
85
100
AcDbEntity
8
0
6
ByLayer
62
256
370
9
100
AcDbEllipse
10
-6.54405878263
20
5.45713380435
30
0
11
0.312347995865
21
0
31
0
40
0.945945945946
41
0.438845454876
42
1.91316495931
0
ELLIPSE
5
86
100
AcDbEntity
8
0
6
ByLayer
62
256
370
9
100
AcDbEllipse
10
-5.56398641172
20
3.13438073529
30
0
11
0.33403663982
21
0
31
0
40
0.945945945946
41
5.01465174726
42
0.34123834191
0
LINE
5
87
100
AcDbEntity
8
0
6
ByLayer
62
256
370
9
100
AcDbLine
10
-5.24921
20
3.240125
11
-6.261308
21
5.582675
0
LINE
5
88
100
AcDbEntity
8
0
6
ByLayer
62
256
370
9
100
AcDbLine
10
-8.69465
20
20.19815
11
-8.69465
21
18.36485
0
ELLIPSE
5
89
100
AcDbEntity
8
0
6
ByLayer
62
256
370
9
100
AcDbEllipse
10
-8.93248106664
20
18.3861253333
30
0
11
0.238892160507
21
0
31
0
40
0.945945945946
41
4.80667598262
42
6.18889830494
0
ELLIPSE
5
8A
100
AcDbEntity
8
0
6
ByLayer
62
256
370
9
100
AcDbEllipse
10
-8.93248106664
20
20.1768746667
30
0
11
0.238892160507
21
0
31
0
40
0.945945945946
41
0.094287002234
42
1.47650932456
0
LINE
5
8B
100
AcDbEntity
8
0
6
ByLayer
62
256
370
9
100
AcDbLine
10
-31.09001
20
20.40185
11
-8.90999
21
20.40185
0
ELLIPSE
5
8C
100
AcDbEntity
8
0
6
ByLayer
62
256
370
9
100
AcDbEllipse
10
-31.0675189333
20
20.1768746667
30
0
11
0.238892160507
21
0
31
0
40
0.945945945946
41
1.66508332903
42
3.04730565135
0
LINE
5
8D
100
AcDbEntity
8
0
6
ByLayer
62
256
370
9
100
AcDbLine
10
-31.30535
20
18.36485
11
-31.30535
21
20.19815
0
LINE
5
8E
100
AcDbEntity
8
0
6
ByLayer
62
256
370
9
100
AcDbLine
10
-8.90999
20
18.16115
11
-31.09001
21
18.16115
0
ELLIPSE
5
8F
100
AcDbEntity
8
0
6
ByLayer
62
256
370
9
100
AcDbEllipse
10
-31.0675189333
20
18.3861253333
30
0
11
0.238892160507
21
0
31
0
40
0.945945945946
41
3.23587965582
42
4.61810197815
0
MTEXT
5
90
100
AcDbEntity
8
0
6
ByLayer
62
256
370
9
100
AcDbMText
10
-29.2484692644
20
37.6029681995
30
0
40
0.10767
41
1.70178422204
71
1
72
5
1
Front Left Chest Plate
7
iso
210
0
220
0
230
1
50
0
73
2
44
1
0
MTEXT
5
91
100
AcDbEntity
8
0
6
ByLayer
62
256
370
9
100
AcDbMText
10
-12.6536052993
20
37.6618080184
30
0
40
0.10767
41
1.76160088871
71
1
72
5
1
Front Right Chest Plate
7
iso
210
0
220
0
230
1
50
0
73
2
44
1
0
MTEXT
5
92
100
AcDbEntity
8
0
6
ByLayer
62
256
370
9
100
AcDbMText
10
-20.8389098227
20
31.1886537414
30
0
40
0.10767
41
1.59411416667
71
1
72
5
1
Upper Front Plate #2
7
iso
210
0
220
0
230
1
50
0
73
2
44
1
0
MTEXT
5
93
100
AcDbEntity
8
0
6
ByLayer
62
256
370
9
100
AcDbMText
10
-20.6547588859
20
25.4982238963
30
0
40
0.10767
41
1.5701875
71
1
72
5
1
Upper Front Plate #1
7
iso
210
0
220
0
230
1
50
0
73
2
44
1
0
MTEXT
5
94
100
AcDbEntity
8
0
6
ByLayer
62
256
370
9
100
AcDbMText
10
-20.5892829974
20
19.9045700688
30
0
40
0.10767
41
1.30998505537
71
1
72
5
1
Front Waist Plate
7
iso
210
0
220
0
230
1
50
0
73
2
44
1
0
MTEXT
5
95
100
AcDbEntity
8
0
6
ByLayer
62
256
370
9
100
AcDbMText
10
-20.7529727189
20
13.7109049311
30
0
40
0.10767
41
1.58215083333
71
1
72
5
1
Lower Front Plate #1
7
iso
210
0
220
0
230
1
50
0
73
2
44
1
0
MTEXT
5
96
100
AcDbEntity
8
0
6
ByLayer
62
256
370
9
100
AcDbMText
10
-20.7529727189
20
7.95079635322
30
0
40
0.10767
41
1.6060775
71
1
72
5
1
Lower Front Plate #2
7
iso
210
0
220
0
230
1
50
0
73
2
44
1
0
MTEXT
5
97
100
AcDbEntity
8
0
6
ByLayer
62
256
370
9
100
AcDbMText
10
-20.7595203077
20
2.4322407156
30
0
40
0.10767
41
1.6060775
71
1
72
5
1
Lower Front Plate #3
7
iso
210
0
220
0
230
1
50
0
73
2
44
1
0
LINE
5
98
100
AcDbEntity
8
0
6
ByLayer
62
256
370
9
100
AcDbLine
10
14.07815
20
57.6799
11
12.89378
21
55.33735
0
ELLIPSE
5
99
100
AcDbEntity
8
0
6
ByLayer
62
256
370
9
100
AcDbEllipse
10
13.2667796429
20
55.1154625
30
0
11
0.440624909114
21
0
31
0
40
0.945945945946
41
2.58021813722
42
4.34646827873
0
ELLIPSE
5
9A
100
AcDbEntity
8
0
6
ByLayer
62
256
370
9
100
AcDbEllipse
10
20
20
84.6392592308
30
0
11
32.3644188131
21
0
31
0
40
0.945945945946
41
4.49783126909
42
4.92694669168
0
LINE
5
9B
100
AcDbEntity
8
0
6
ByLayer
62
256
370
9
100
AcDbLine
10
25.92185
20
57.6799
11
27.10622
21
55.33735
0
ELLIPSE
5
9C
100
AcDbEntity
8
0
6
ByLayer
62
256
370
9
100
AcDbEllipse
10
26.7332203571
20
55.1154625
30
0
11
0.440624909114
21
0
31
0
40
0.945945945946
41
5.07830968203
42
0.56137451636
0
ELLIPSE
5
9D
100
AcDbEntity
8
0
6
ByLayer
62
256
370
9
100
AcDbEllipse
10
24.8517420408
20
56.8817285714
30
0
11
1.36275375586
21
0
31
0
40
0.945945945946
41
0.667689938453
42
2.36873659192
0
ELLIPSE
5
9E
100
AcDbEntity
8
0
6
ByLayer
62
256
370
9
100
AcDbEllipse
10
15.1416659184
20
56.9773428572
30
0
11
1.29717934339
21
0
31
0
40
0.945945945946
41
0.830930221236
42
2.5319768747
0
ELLIPSE
5
9F
100
AcDbEntity
8
0
6
ByLayer
62
256
370
9
100
AcDbEllipse
10
19.9834533117
20
60.4075840909
30
0
11
4.78104313454
21
0
31
0
40
0.945945945946
41
3.73366461698
42
5.66371779705
0
ELLIPSE
5
A0
100
AcDbEntity
8
0
6
ByLayer
62
256
370
9
100
AcDbEllipse
10
15.15485
20
57.2725
30
0
11
0.080759677681
21
0
31
0
40
0.945945945946
41
0
42
6.28318530718
0
LINE
5
A1
100
AcDbEntity
8
0
6
ByLayer
62
256
370
9
100
AcDbLine
10
13.32446
20
52.5874
11
18.70796
21
51.9763
0
LINE
5
A2
100
AcDbEntity
8
0
6
ByLayer
62
256
370
9
100
AcDbLine
10
12.78611
20
52.28185
11
11.81708
21
49.9393
0
ELLIPSE
5
A3
100
AcDbEntity
8
0
6
ByLayer
62
256
370
9
100
AcDbEllipse
10
20
20
82.2460234597
30
0
11
35.3845350291
21
0
31
0
40
0.945945945946
41
4.48527018353
42
4.93950777724
0
ELLIPSE
5
A4
100
AcDbEntity
8
0
6
ByLayer
62
256
370
9
100
AcDbEllipse
10
13.378295
20
51.925375
30
0
11
0.701922522969
21
0
31
0
40
0.945945945946
41
1.64756821806
42
2.57486343606
0
ELLIPSE
5
A5
100
AcDbEntity
8
0
6
ByLayer
62
256
370
9
100
AcDbEllipse
10
12.086255
20
49.888375
30
0
11
0.274505715514
21
0
31
0
40
0.945945945946
41
2.94419709374
42
4.51499342054
0
LINE
5
A6
100
AcDbEntity
8
0
6
ByLayer
62
256
370
9
100
AcDbLine
10
26.67554
20
52.5874
11
21.29204
21
51.9763
0
LINE
5
A7
100
AcDbEntity
8
0
6
ByLayer
62
256
370
9
100
AcDbLine
10
27.21389
20
52.28185
11
28.18292
21
49.9393
0
ELLIPSE
5
A8
100
AcDbEntity
8
0
6
ByLayer
62
256
370
9
100
AcDbEllipse
10
26.621705
20
51.925375
30
0
11
0.701922522969
21
0
31
0
40
0.945945945946
41
0.566729217523
42
1.49402443553
0
ELLIPSE
5
A9
100
AcDbEntity
8
0
6
ByLayer
62
256
370
9
100
AcDbEllipse
10
27.913745
20
49.888375
30
0
11
0.274505715514
21
0
31
0
40
0.945945945946
41
4.90978454023
42
0.197395559849
0
ELLIPSE
5
AA
100
AcDbEntity
8
0
6
ByLayer
62
256
370
9
100
AcDbEllipse
10
20
20
66.6172375
30
0
11
15.5313975
21
0
31
0
40
0.945945945946
41
4.62910382218
42
4.79567413859
0
ELLIPSE
5
AB
100
AcDbEntity
8
0
6
ByLayer
62
256
370
9
100
AcDbEllipse
10
20
20
-144.1104125
30
0
11
201.9620025
21
0
31
0
40
0.945945945946
41
1.53080165885
42
1.61079099474
0
ELLIPSE
5
AC
100
AcDbEntity
8
0
6
ByLayer
62
256
370
9
100
AcDbEllipse
10
20
20
-135.93695
30
0
11
190.03755
21
0
31
0
40
0.945945945946
41
1.52318627442
42
1.61840637916
0
ELLIPSE
5
AD
100
AcDbEntity
8
0
6
ByLayer
62
256
370
9
100
AcDbEllipse
10
11.978585
20
46.37455
30
0
11
0.434031645879
21
0
31
0
40
0.945945945946
41
1.69515132134
42
2.62244653934
0
LINE
5
AE
100
AcDbEntity
8
0
6
ByLayer
62
256
370
9
100
AcDbLine
10
11.60174
20
46.57825
11
10.568108
21
44.032
0
ELLIPSE
5
AF
100
AcDbEntity
8
0
6
ByLayer
62
256
370
9
100
AcDbEllipse
10
10.9411499771
20
43.9804209174
30
0
11
0.377005903604
21
0
31
0
40
0.945945945946
41
2.99645336857
42
4.77964557921
0
ELLIPSE
5
B0
100
AcDbEntity
8
0
6
ByLayer
62
256
370
9
100
AcDbEllipse
10
28.021415
20
46.37455
30
0
11
0.434031645879
21
0
31
0
40
0.945945945946
41
0.519146114246
42
1.44644133225
0
LINE
5
B1
100
AcDbEntity
8
0
6
ByLayer
62
256
370
9
100
AcDbLine
10
28.39826
20
46.57825
11
29.431892
21
44.032
0
ELLIPSE
5
B2
100
AcDbEntity
8
0
6
ByLayer
62
256
370
9
100
AcDbEllipse
10
29.0588500229
20
43.9804209174
30
0
11
0.377005903604
21
0
31
0
40
0.945945945946
41
4.64513238156
42
0.145139285022
0
ELLIPSE
5
B3
100
AcDbEntity
8
0
6
ByLayer
62
256
370
9
100
AcDbEllipse
10
20
20
-137.1758825
30
0
11
189.689191201
21
0
31
0
40
0.945945945946
41
1.5219622245
42
1.61963042909
0
ELLIPSE
5
B4
100
AcDbEntity
8
0
6
ByLayer
62
256
370
9
100
AcDbEllipse
10
10.7528034616
20
41.7211801923
30
0
11
0.34352637152
21
0
31
0
40
0.945945945946
41
1.60696872057
42
2.92410048541
0
ELLIPSE
5
B5
100
AcDbEntity
8
0
6
ByLayer
62
256
370
9
100
AcDbEllipse
10
20
20
-97.3803979545
30
0
11
144.324946409
21
0
31
0
40
0.945945945946
41
1.50061238429
42
1.6409802693
0
LINE
5
B6
100
AcDbEntity
8
0
6
ByLayer
62
256
370
9
100
AcDbLine
10
10.41737
20
41.7913
11
9.66368
21
39.1432
0
ELLIPSE
5
B7
100
AcDbEntity
8
0
6
ByLayer
62
256
370
9
100
AcDbEllipse
10
9.90286121425
20
39.0505429545
30
0
11
0.258461206789
21
0
31
0
40
0.945945945946
41
2.75289838491
42
4.62001475317
0
ELLIPSE
5
B8
100
AcDbEntity
8
0
6
ByLayer
62
256
370
9
100
AcDbEllipse
10
29.2471965385
20
41.7211801923
30
0
11
0.34352637152
21
0
31
0
40
0.945945945946
41
0.217492168174
42
1.53462393302
0
LINE
5
B9
100
AcDbEntity
8
0
6
ByLayer
62
256
370
9
100
AcDbLine
10
29.58263
20
41.7913
11
30.33632
21
39.1432
0
ELLIPSE
5
BA
100
AcDbEntity
8
0
6
ByLayer
62
256
370
9
100
AcDbEllipse
10
30.0971387857
20
39.0505429545
30
0
11
0.258461206789
21
0
31
0
40
0.945945945946
41
4.8047632076
42
0.388694268678
0
ELLIPSE
5
BB
100
AcDbEntity
8
0
6
ByLayer
62
256
370
9
100
AcDbEllipse
10
20
20
-121.381004569
30
0
11
167.694354259
21
0
31
0
40
0.945945945946
41
1.50976264871
42
1.63183000488
0
ELLIPSE
5
BC
100
AcDbEntity
8
0
6
ByLayer
62
256
370
9
100
AcDbEllipse
10
20
20
-74.5050046342
30
0
11
114.834256756
21
0
31
0
40
0.945945945946
41
1.44671335255
42
1.69487930104
0
LINE
5
BD
100
AcDbEntity
8
0
6
ByLayer
62
256
370
9
100
AcDbLine
10
5.35688
20
34.35625
11
5.57222
21
33.4396
0
ELLIPSE
5
BE
100
AcDbEntity
8
0
6
ByLayer
62
256
370
9
100
AcDbEllipse
10
4.26582400004
20
40.7614833333
30
0
11
6.57924210059
21
0
31
0
40
0.945945945946
41
4.91228079066
42
5.59333617065
0
ELLIPSE
5
BF
100
AcDbEntity
8
0
6
ByLayer
62
256
370
9
100
AcDbEllipse
10
5.6422055
20
34.39699
30
0
11
0.288557608761
21
0
31
0
40
0.945945945946
41
1.81577498992
42
3.29140511016
0
ELLIPSE
5
C0
100
AcDbEntity
8
0
6
ByLayer
62
256
370
9
100
AcDbEllipse
10
5.76871775
20
33.4752475
30
0
11
0.200078702753
21
0
31
0
40
0.945945945946
41
3.33107281147
42
4.80670293171
0
LINE
5
C1
100
AcDbEntity
8
0
6
ByLayer
62
256
370
9
100
AcDbLine
10
34.64312
20
34.35625
11
34.42778
21
33.4396
0
ELLIPSE
5
C2
100
AcDbEntity
8
0
6
ByLayer
62
256
370
9
100
AcDbEllipse
10
35.734176
20
40.7614833333
30
0
11
6.57924210059
21
0
31
0
40
0.945945945946
41
3.83144179012
42
4.51249717011
0
ELLIPSE
5
C3
100
AcDbEntity
8
0
6
ByLayer
62
256
370
9
100
AcDbEllipse
10
34.3577945
20
34.39699
30
0
11
0.288557608761
21
0
31
0
40
0.945945945946
41
6.13337285061
42
1.32581766367
0
ELLIPSE
5
C4
100
AcDbEntity
8
0
6
ByLayer
62
256
370
9
100
AcDbEllipse
10
34.23128225
20
33.4752475
30
0
11
0.200078702753
21
0
31
0
40
0.945945945946
41
4.61807502906
42
6.0937051493
0
ELLIPSE
5
C5
100
AcDbEntity
8
0
6
ByLayer
62
256
370
9
100
AcDbEllipse
10
30.2306438889
20
36.3388671296
30
0
11
0.649678522632
21
0
31
0
40
0.945945945946
41
0.850185942181
42
1.57386537087
0
ELLIPSE
5
C6
100
AcDbEntity
8
0
6
ByLayer
62
256
370
9
100
AcDbEllipse
10
9.76935611111
20
36.3388671296
30
0
11
0.649678522632
21
0
31
0
40
0.945945945946
41
1.56772728272
42
2.29140671141
0
ELLIPSE
5
C7
100
AcDbEntity
8
0
6
ByLayer
62
256
370
9
100
AcDbEllipse
10
28.882775
20
34.814575
30
0
11
0.080759677681
21
0
31
0
40
0.945945945946
41
0
42
6.28318530718
0
ELLIPSE
5
C8
100
AcDbEntity
8
0
6
ByLayer
62
256
370
9
100
AcDbEllipse
10
11.117225
20
34.814575
30
0
11
0.080759677681
21
0
31
0
40
0.945945945946
41
0
42
6.28318530718
0
LWPOLYLINE
5
C9
100
AcDbEntity
8
0
6
ByLayer
62
256
370
9
100
AcDbPolyline
90
2
70
0
43
0
10
6.0148599836
20
31.2796497355
10
6.0148632137
20
31.2796497355
0
ELLIPSE
5
CA
100
AcDbEntity
8
0
6
ByLayer
62
256
370
9
100
AcDbEllipse
10
20
20
-76.1764625
30
0
11
114.1571175
21
0
31
0
40
0.945945945946
41
1.44787441503
42
1.69371823856
0
LINE
5
CB
100
AcDbEntity
8
0
6
ByLayer
62
256
370
9
100
AcDbLine
10
5.604521
20
30.48595
11
5.959832
21
28.04155
0
ELLIPSE
5
CC
100
AcDbEntity
8
0
6
ByLayer
62
256
370
9
100
AcDbEllipse
10
6.09059438161
20
30.5397562828
30
0
11
0.489390204447
21
0
31
0
40
0.945945945946
41
1.75096053435
42
3.25808411428
0
ELLIPSE
5
CD
100
AcDbEntity
8
0
6
ByLayer
62
256
370
9
100
AcDbEllipse
10
20
20
-69.5164425
30
0
11
103.821822929
21
0
31
0
40
0.945945945946
41
1.4387052589
42
1.70288739469
0
ELLIPSE
5
CE
100
AcDbEntity
8
0
6
ByLayer
62
256
370
9
100
AcDbEllipse
10
6.26926621737
20
28.1429571739
30
0
11
0.327477901133
21
0
31
0
40
0.945945945946
41
3.47509673543
42
4.88623309082
0
LINE
5
CF
100
AcDbEntity
8
0
6
ByLayer
62
256
370
9
100
AcDbLine
10
34.395479
20
30.48595
11
34.040168
21
28.04155
0
ELLIPSE
5
D0
100
AcDbEntity
8
0
6
ByLayer
62
256
370
9
100
AcDbEllipse
10
33.9094056184
20
30.5397562828
30
0
11
0.489390204447
21
0
31
0
40
0.945945945946
41
6.16669384649
42
1.39063211925
0
ELLIPSE
5
D1
100
AcDbEntity
8
0
6
ByLayer
62
256
370
9
100
AcDbEllipse
10
33.7307337826
20
28.1429571739
30
0
11
0.327477901133
21
0
31
0
40
0.945945945946
41
4.53854486995
42
5.94968122534
0
LINE
5
D2
100
AcDbEntity
8
0
6
ByLayer
62
256
370
9
100
AcDbLine
10
33.02807
20
20.50465
11
33.02807
21
18.67135
0
ELLIPSE
5
D3
100
AcDbEntity
8
0
6
ByLayer
62
256
370
9
100
AcDbEllipse
10
32.7902389334
20
18.6926253333
30
0
11
0.238892160507
21
0
31
0
40
0.945945945946
41
4.80667598262
42
6.18889830494
0
ELLIPSE
5
D4
100
AcDbEntity
8
0
6
ByLayer
62
256
370
9
100
AcDbEllipse
10
32.7902389334
20
20.4833746667
30
0
11
0.238892160507
21
0
31
0
40
0.945945945946
41
0.094287002234
42
1.47650932456
0
LINE
5
D5
100
AcDbEntity
8
0
6
ByLayer
62
256
370
9
100
AcDbLine
10
7.18727
20
20.70835
11
32.81273
21
20.70835
0
ELLIPSE
5
D6
100
AcDbEntity
8
0
6
ByLayer
62
256
370
9
100
AcDbEllipse
10
7.20976106664
20
20.4833746667
30
0
11
0.238892160507
21
0
31
0
40
0.945945945946
41
1.66508332903
42
3.04730565135
0
LINE
5
D7
100
AcDbEntity
8
0
6
ByLayer
62
256
370
9
100
AcDbLine
10
6.97193
20
18.67135
11
6.97193
21
20.50465
0
LINE
5
D8
100
AcDbEntity
8
0
6
ByLayer
62
256
370
9
100
AcDbLine
10
32.81273
20
18.46765
11
7.18727
21
18.46765
0
ELLIPSE
5
D9
100
AcDbEntity
8
0
6
ByLayer
62
256
370
9
100
AcDbEllipse
10
7.20976106664
20
18.6926253333
30
0
11
0.238892160507
21
0
31
0
40
0.945945945946
41
3.23587965582
42
4.61810197815
0
ELLIPSE
5
DA
100
AcDbEntity
8
0
6
ByLayer
62
256
370
9
100
AcDbEllipse
10
9.502175
20
19.588
30
0
11
0.080759677681
21
0
31
0
40
0.945945945946
41
0
42
6.28318530718
0
ELLIPSE
5
DB
100
AcDbEntity
8
0
6
ByLayer
62
256
370
9
100
AcDbEllipse
10
20
20
57.038245
30
0
11
47.407101
21
0
31
0
40
0.945945945946
41
4.55272900896
42
4.87204895181
0
ELLIPSE
5
DC
100
AcDbEntity
8
0
6
ByLayer
62
256
370
9
100
AcDbEllipse
10
28.7921055263
20
13.0508381578
30
0
11
0.824764044448
21
0
31
0
40
0.945945945946
41
0.289153409279
42
3.11754230891
0
ELLIPSE
5
DD
100
AcDbEntity
8
0
6
ByLayer
62
256
370
9
100
AcDbEllipse
10
27.267725
20
13.527925
30
0
11
0.851206089176
21
0
31
0
40
0.945945945946
41
5.03413953478
42
5.67764064358
0
ELLIPSE
5
DE
100
AcDbEntity
8
0
6
ByLayer
62
256
370
9
100
AcDbEllipse
10
29.959475
20
13.731625
30
0
11
0.613813440102
21
0
31
0
40
0.945945945946
41
4.05134581154
42
4.97864102953
0
ELLIPSE
5
DF
100
AcDbEntity
8
0
6
ByLayer
62
256
370
9
100
AcDbEllipse
10
11.2078944737
20
13.0508381578
30
0
11
0.824764044448
21
0
31
0
40
0.945945945946
41
0.0240503446854
42
2.85243924432
0
ELLIPSE
5
E0
100
AcDbEntity
8
0
6
ByLayer
62
256
370
9
100
AcDbEllipse
10
12.732275
20
13.527925
30
0
11
0.851206089176
21
0
31
0
40
0.945945945946
41
3.74713731719
42
4.39063842599
0
ELLIPSE
5
E1
100
AcDbEntity
8
0
6
ByLayer
62
256
370
9
100
AcDbEllipse
10
10.040525
20
13.731625
30
0
11
0.613813440102
21
0
31
0
40
0.945945945946
41
4.44613693123
42
5.37343214923
0
ELLIPSE
5
E2
100
AcDbEntity
8
0
6
ByLayer
62
256
370
9
100
AcDbEllipse
10
20
20
56.0007034783
30
0
11
48.8082153913
21
0
31
0
40
0.945945945946
41
4.46500966309
42
4.95976829768
0
ELLIPSE
5
E3
100
AcDbEntity
8
0
6
ByLayer
62
256
370
9
100
AcDbEllipse
10
20
20
55.0975607935
30
0
11
51.1553579669
21
0
31
0
40
0.945945945946
41
4.44834050235
42
4.97643745842
0
ELLIPSE
5
E4
100
AcDbEntity
8
0
6
ByLayer
62
256
370
9
100
AcDbEllipse
10
20
20
49.6872345751
30
0
11
48.0321394366
21
0
31
0
40
0.945945945946
41
4.43071777289
42
4.99406018788
0
ELLIPSE
5
E5
100
AcDbEntity
8
0
6
ByLayer
62
256
370
9
100
AcDbEllipse
10
20
20
48.52613125
30
0
11
50.13384375
21
0
31
0
40
0.945945945946
41
4.41823226961
42
5.00654569116
0
ELLIPSE
5
E6
100
AcDbEntity
8
0
6
ByLayer
62
256
370
9
100
AcDbEllipse
10
6.54405878263
20
5.76363380435
30
0
11
0.312347995865
21
0
31
0
40
0.945945945946
41
1.22842769428
42
2.70274719871
0
ELLIPSE
5
E7
100
AcDbEntity
8
0
6
ByLayer
62
256
370
9
100
AcDbEllipse
10
5.56398641172
20
3.44088073529
30
0
11
0.33403663982
21
0
31
0
40
0.945945945946
41
2.80035431167
42
4.41012621351
0
LINE
5
E8
100
AcDbEntity
8
0
6
ByLayer
62
256
370
9
100
AcDbLine
10
5.24921
20
3.546625
11
6.261308
21
5.889175
0
ELLIPSE
5
E9
100
AcDbEntity
8
0
6
ByLayer
62
256
370
9
100
AcDbEllipse
10
33.4559412174
20
5.76363380435
30
0
11
0.312347995865
21
0
31
0
40
0.945945945946
41
0.438845454876
42
1.91316495931
0
ELLIPSE
5
EA
100
AcDbEntity
8
0
6
ByLayer
62
256
370
9
100
AcDbEllipse
10
34.4360135883
20
3.44088073529
30
0
11
0.33403663982
21
0
31
0
40
0.945945945946
41
5.01465174726
42
0.34123834191
0
LINE
5
EB
100
AcDbEntity
8
0
6
ByLayer
62
256
370
9
100
AcDbLine
10
34.75079
20
3.546625
11
33.738692
21
5.889175
0
ELLIPSE
5
EC
100
AcDbEntity
8
0
6
ByLayer
62
256
370
9
100
AcDbEllipse
10
20
20
60.5103851058
30
0
11
47.7157492067
21
0
31
0
40
0.945945945946
41
4.47550505238
42
4.94927290839
0
ELLIPSE
5
ED
100
AcDbEntity
8
0
6
ByLayer
62
256
370
9
100
AcDbEllipse
10
12.624605
20
29.009125
30
0
11
13.6288701311
21
0
31
0
40
0.945945945946
41
4.31060921726
42
4.42812086267
0
ELLIPSE
5
EE
100
AcDbEntity
8
0
6
ByLayer
62
256
370
9
100
AcDbEllipse
10
7.133435
20
16.888975
30
0
11
0.313909295259
21
0
31
0
40
0.945945945946
41
1.03037682652
42
2.60117315332
0
ELLIPSE
5
EF
100
AcDbEntity
8
0
6
ByLayer
62
256
370
9
100
AcDbEllipse
10
19.10275
20
46.052025
30
0
11
35.9624471108
21
0
31
0
40
0.945945945946
41
4.34596748405
42
4.45300802096
0
LINE
5
F0
100
AcDbEntity
8
0
6
ByLayer
62
256
370
9
100
AcDbLine
10
6.86426
20
17.04175
11
5.981366
21
14.9029
0
ELLIPSE
5
F1
100
AcDbEntity
8
0
6
ByLayer
62
256
370
9
100
AcDbEllipse
10
6.4668598182
20
14.7246625
30
0
11
0.520775658033
21
0
31
0
40
0.945945945946
41
2.77138259674
42
4.21469229846
0
ELLIPSE
5
F2
100
AcDbEntity
8
0
6
ByLayer
62
256
370
9
100
AcDbEllipse
10
20.89725
20
46.052025
30
0
11
35.9624471108
21
0
31
0
40
0.945945945946
41
4.97176993981
42
5.07881047672
0
ELLIPSE
5
F3
100
AcDbEntity
8
0
6
ByLayer
62
256
370
9
100
AcDbEllipse
10
27.375395
20
29.009125
30
0
11
13.6288701311
21
0
31
0
40
0.945945945946
41
4.9966570981
42
5.11416874351
0
ELLIPSE
5
F4
100
AcDbEntity
8
0
6
ByLayer
62
256
370
9
100
AcDbEllipse
10
32.866565
20
16.888975
30
0
11
0.313909295259
21
0
31
0
40
0.945945945946
41
0.540419500271
42
2.11121582706
0
LINE
5
F5
100
AcDbEntity
8
0
6
ByLayer
62
256
370
9
100
AcDbLine
10
33.13574
20
17.04175
11
34.018634
21
14.9029
0
ELLIPSE
5
F6
100
AcDbEntity
8
0
6
ByLayer
62
256
370
9
100
AcDbEllipse
10
33.5331401818
20
14.7246625
30
0
11
0.520775658033
21
0
31
0
40
0.945945945946
41
5.21008566231
42
0.37021005686
0
ELLIPSE
5
F7
100
AcDbEntity
8
0
6
ByLayer
62
256
370
9
100
AcDbEllipse
10
12.8670618889
20
24.7646205555
30
0
11
15.091268888
21
0
31
0
40
0.945945945946
41
4.25615091918
42
4.38741295419
0
ELLIPSE
5
F8
100
AcDbEntity
8
0
6
ByLayer
62
256
370
9
100
AcDbEllipse
10
6.05434233328
20
11.7036783333
30
0
11
0.307012792933
21
0
31
0
40
0.945945945946
41
1.00765346568
42
2.62389651417
0
LINE
5
F9
100
AcDbEntity
8
0
6
ByLayer
62
256
370
9
100
AcDbLine
10
5.78756
20
11.8474
11
4.775462
21
9.403
0
ELLIPSE
5
FA
100
AcDbEntity
8
0
6
ByLayer
62
256
370
9
100
AcDbEllipse
10
20.5545005
20
42.9676675
30
0
11
39.1145897561
21
0
31
0
40
0.945945945946
41
4.30015979957
42
4.34893061792
0
ELLIPSE
5
FB
100
AcDbEntity
8
0
6
ByLayer
62
256
370
9
100
AcDbEllipse
10
5.0378128451
20
9.29471862676
30
0
11
0.286236074704
21
0
31
0
40
0.945945945946
41
2.73017319674
42
4.14148124067
0
ELLIPSE
5
FC
100
AcDbEntity
8
0
6
ByLayer
62
256
370
9
100
AcDbEllipse
10
27.1329381111
20
24.7646205555
30
0
11
15.091268888
21
0
31
0
40
0.945945945946
41
5.03736500658
42
5.16862704158
0
ELLIPSE
5
FD
100
AcDbEntity
8
0
6
ByLayer
62
256
370
9
100
AcDbEllipse
10
33.9456576667
20
11.7036783333
30
0
11
0.307012792933
21
0
31
0
40
0.945945945946
41
0.517696139429
42
2.13393918791
0
LINE
5
FE
100
AcDbEntity
8
0
6
ByLayer
62
256
370
9
100
AcDbLine
10
34.21244
20
11.8474
11
35.224538
21
9.403
0
ELLIPSE
5
FF
100
AcDbEntity
8
0
6
ByLayer
62
256
370
9
100
AcDbEllipse
10
19.4454995
20
42.9676675
30
0
11
39.1145897561
21
0
31
0
40
0.945945945946
41
5.07584734285
42
5.1246181612
0
ELLIPSE
5
100
100
AcDbEntity
8
0
6
ByLayer
62
256
370
9
100
AcDbEllipse
10
34.9621871549
20
9.29471862676
30
0
11
0.286236074704
21
0
31
0
40
0.945945945946
41
5.2832967201
42
0.411419456852
0
ELLIPSE
5
101
100
AcDbEntity
8
0
6
ByLayer
62
256
370
9
100
AcDbEllipse
10
20
20
-56.3360825
30
0
11
87.3688215
21
0
31
0
40
0.945945945946
41
1.41364026642
42
1.72795238716
0
ELLIPSE
5
102
100
AcDbEntity
8
0
6
ByLayer
62
256
370
9
100
AcDbEllipse
10
6.379745
20
24.935125
30
0
11
0.380670935651
21
0
31
0
40
0.945945945946
41
1.7126933814
42
2.99969559899
0
LINE
5
103
100
AcDbEntity
8
0
6
ByLayer
62
256
370
9
100
AcDbLine
10
6.32591
20
22.6435
11
6.0029
21
24.98605
0
ELLIPSE
5
104
100
AcDbEntity
8
0
6
ByLayer
62
256
370
9
100
AcDbEllipse
10
33.620255
20
24.935125
30
0
11
0.380670935651
21
0
31
0
40
0.945945945946
41
0.141897054604
42
1.42889927219
0
LINE
5
105
100
AcDbEntity
8
0
6
ByLayer
62
256
370
9
100
AcDbLine
10
33.67409
20
22.6435
11
33.9971
21
24.98605
0
ELLIPSE
5
106
100
AcDbEntity
8
0
6
ByLayer
62
256
370
9
100
AcDbEllipse
10
33.1556487925
20
22.6571440566
30
0
11
0.518641812135
21
0
31
0
40
0.945945945946
41
4.98891311128
42
6.25537116538
0
ELLIPSE
5
107
100
AcDbEntity
8
0
6
ByLayer
62
256
370
9
100
AcDbEllipse
10
20
20
-71.734105
30
0
11
100.172579
21
0
31
0
40
0.945945945946
41
1.43765999924
42
1.70393265435
0
ELLIPSE
5
108
100
AcDbEntity
8
0
6
ByLayer
62
256
370
9
100
AcDbEllipse
10
6.8443512075
20
22.6571440566
30
0
11
0.518641812135
21
0
31
0
40
0.945945945946
41
3.16940679539
42
4.43586484949
0
ELLIPSE
5
109
100
AcDbEntity
8
0
6
ByLayer
62
256
370
9
100
AcDbEllipse
10
31.30535
20
22.70461
30
0
11
0.080759677681
21
0
31
0
40
0.945945945946
41
0
42
6.28318530718
0
MTEXT
5
10A
100
AcDbEntity
8
0
6
ByLayer
62
256
370
9
100
AcDbMText
10
19.2470272811
20
50.7123348739
30
0
40
0.10767
41
1.5342975
71
1
72
5
1
Upper Back Plate #6
7
iso
210
0
220
0
230
1
50
0
73
2
44
1
0
MTEXT
5
10B
100
AcDbEntity
8
0
6
ByLayer
62
256
370
9
100
AcDbMText
10
19.2457177634
20
45.6713108183
30
0
40
0.10767
41
1.5342975
71
1
72
5
1
Upper Back Plate #5
7
iso
210
0
220
0
230
1
50
0
73
2
44
1
0
MTEXT
5
10C
100
AcDbEntity
8
0
6
ByLayer
62
256
370
9
100
AcDbMText
10
19.3043186837
20
41.0308620556
30
0
40
0.10767
41
1.54626083333
71
1
72
5
1
Upper Back Plate #4
7
iso
210
0
220
0
230
1
50
0
73
2
44
1
0
MTEXT
5
10D
100
AcDbEntity
8
0
6
ByLayer
62
256
370
9
100
AcDbMText
10
19.3247798989
20
36.1727059633
30
0
40
0.10767
41
1.5342975
71
1
72
5
1
Upper Back Plate #3
7
iso
210
0
220
0
230
1
50
0
73
2
44
1
0
MTEXT
5
10E
100
AcDbEntity
8
0
6
ByLayer
62
256
370
9
100
AcDbMText
10
19.1815513925
20
30.7338937643
30
0
40
0.10767
41
1.5342975
71
1
72
5
1
Upper Back Plate #2
7
iso
210
0
220
0
230
1
50
0
73
2
44
1
0
MTEXT
5
10F
100
AcDbEntity
8
0
6
ByLayer
62
256
370
9
100
AcDbMText
10
19.2224738229
20
25.1595951405
30
0
40
0.10767
41
1.51037083333
71
1
72
5
1
Upper Back Plate #1
7
iso
210
0
220
0
230
1
50
0
73
2
44
1
0
MTEXT
5
110
100
AcDbEntity
8
0
6
ByLayer
62
256
370
9
100
AcDbMText
10
19.3609553272
20
20.2921485505
30
0
40
0.10767
41
1.25016838871
71
1
72
5
1
Back Waist Plate
7
iso
210
0
220
0
230
1
50
0
73
2
44
1
0
MTEXT
5
111
100
AcDbEntity
8
0
6
ByLayer
62
256
370
9
100
AcDbMText
10
19.2038131947
20
13.7833497306
30
0
40
0.10767
41
1.52233416667
71
1
72
5
1
Lower Back Plate #1
7
iso
210
0
220
0
230
1
50
0
73
2
44
1
0
MTEXT
5
112
100
AcDbEntity
8
0
6
ByLayer
62
256
370
9
100
AcDbMText
10
19.3247798989
20
8.28185764045
30
0
40
0.10767
41
1.54626083333
71
1
72
5
1
Lower Back Plate #2
7
iso
210
0
220
0
230
1
50
0
73
2
44
1
0
MTEXT
5
113
100
AcDbEntity
8
0
6
ByLayer
62
256
370
9
100
AcDbMText
10
19.2457177634
20
2.85078752291
30
0
40
0.10767
41
1.54626083333
71
1
72
5
1
Lower Back Plate #3
7
iso
210
0
220
0
230
1
50
0
73
2
44
1
0
CIRCLE
5
114
100
AcDbEntity
8
0
6
ByLayer
62
256
370
-1
100
AcDbCircle
10
-27.10622
20
44.957885
40
0.065
0
CIRCLE
5
115
100
AcDbEntity
8
0
6
ByLayer
62
256
370
-1
100
AcDbCircle
10
-27.612269
20
43.41995
40
0.065
0
CIRCLE
5
116
100
AcDbEntity
8
0
6
ByLayer
62
256
370
-1
100
AcDbCircle
10
-28.139852
20
41.8922
40
0.065
0
CIRCLE
5
117
100
AcDbEntity
8
0
6
ByLayer
62
256
370
-1
100
AcDbCircle
10
-29.001212
20
40.36445
40
0.065
0
CIRCLE
5
118
100
AcDbEntity
8
0
6
ByLayer
62
256
370
-1
100
AcDbCircle
10
-30.01331
20
38.93855
40
0.065
0
CIRCLE
5
119
100
AcDbEntity
8
0
6
ByLayer
62
256
370
-1
100
AcDbCircle
10
-31.41302
20
37.6145
40
0.065
0
CIRCLE
5
11A
100
AcDbEntity
8
0
6
ByLayer
62
256
370
-1
100
AcDbCircle
10
-32.9204
20
36.596
40
0.065
0
CIRCLE
5
11B
100
AcDbEntity
8
0
6
ByLayer
62
256
370
-1
100
AcDbCircle
10
-34.546217
20
35.67935
40
0.065
0
CIRCLE
5
11C
100
AcDbEntity
8
0
6
ByLayer
62
256
370
-1
100
AcDbCircle
10
-25.760345
20
45.53843
40
0.065
0
CIRCLE
5
11D
100
AcDbEntity
8
0
6
ByLayer
62
256
370
-1
100
AcDbCircle
10
-25.70651
20
44.03105
40
0.065
0
CIRCLE
5
11E
100
AcDbEntity
8
0
6
ByLayer
62
256
370
-1
100
AcDbCircle
10
-27.5369
20
34.671035
40
0.065
0
CIRCLE
5
11F
100
AcDbEntity
8
0
6
ByLayer
62
256
370
-1
100
AcDbCircle
10
-25.81418
20
34.78307
40
0.065
0
CIRCLE
5
120
100
AcDbEntity
8
0
6
ByLayer
62
256
370
-1
100
AcDbCircle
10
-25.81418
20
35.88305
40
0.065
0
CIRCLE
5
121
100
AcDbEntity
8
0
6
ByLayer
62
256
370
-1
100
AcDbCircle
10
-25.70651
20
37.4108
40
0.065
0
CIRCLE
5
122
100
AcDbEntity
8
0
6
ByLayer
62
256
370
-1
100
AcDbCircle
10
-25.59884
20
39.34595
40
0.065
0
CIRCLE
5
123
100
AcDbEntity
8
0
6
ByLayer
62
256
370
-1
100
AcDbCircle
10
-25.59884
20
42.40145
40
0.065
0
CIRCLE
5
124
100
AcDbEntity
8
0
6
ByLayer
62
256
370
-1
100
AcDbCircle
10
-25.59884
20
40.8737
40
0.065
0
CIRCLE
5
125
100
AcDbEntity
8
0
6
ByLayer
62
256
370
-1
100
AcDbCircle
10
-29.15195
20
34.548815
40
0.065
0
CIRCLE
5
126
100
AcDbEntity
8
0
6
ByLayer
62
256
370
-1
100
AcDbCircle
10
-30.767
20
34.39604
40
0.065
0
CIRCLE
5
127
100
AcDbEntity
8
0
6
ByLayer
62
256
370
-1
100
AcDbCircle
10
-32.38205
20
34.21271
40
0.065
0
CIRCLE
5
128
100
AcDbEntity
8
0
6
ByLayer
62
256
370
-1
100
AcDbCircle
10
-34.244741
20
34.09049
40
0.065
0
ELLIPSE
5
129
100
AcDbEntity
8
0
6
ByLayer
62
256
370
9
100
AcDbEllipse
10
55.8862798606
20
40.0354263561
30
0
11
-71.8597544198
21
0
31
0
40
0.945945945946
41
6.21386104863
42
0.0774958167596
0
ELLIPSE
5
12A
100
AcDbEntity
8
0
6
ByLayer
62
256
370
9
100
AcDbEllipse
10
-15.5064339615
20
34.7850286538
30
0
11
-0.251695637907
21
0
31
0
40
0.945945945946
41
0.0510265080396
42
1.25112693485
0
ELLIPSE
5
12B
100
AcDbEntity
8
0
6
ByLayer
62
256
370
9
100
AcDbEllipse
10
-14.1044622544
20
44.1037913905
30
0
11
-1.82643001355
21
0
31
0
40
0.945945945946
41
3.43375442389
42
5.90357929969
0
ELLIPSE
5
12C
100
AcDbEntity
8
0
6
ByLayer
62
256
370
9
100
AcDbEllipse
10
-13.75514
20
44.744
30
0
11
-0.080759677681
21
0
31
0
40
0.945945945946
41
0
42
6.28318530718
0
ELLIPSE
5
12D
100
AcDbEntity
8
0
6
ByLayer
62
256
370
9
100
AcDbEllipse
10
-9.233
20
35.5775
30
0
11
-0.080759677681
21
0
31
0
40
0.945945945946
41
0
42
6.28318530718
0
ELLIPSE
5
12E
100
AcDbEntity
8
0
6
ByLayer
62
256
370
9
100
AcDbEllipse
10
-5.996242542
20
34.4744878244
30
0
11
-0.803302884413
21
0
31
0
40
0.945945945946
41
1.29079610866
42
2.84644121016
0
ELLIPSE
5
12F
100
AcDbEntity
8
0
6
ByLayer
62
256
370
9
100
AcDbEllipse
10
-18.3464964286
20
-42.432325
30
0
11
-81.4376450264
21
0
31
0
40
0.945945945946
41
4.56290599335
42
4.6784796549
0
ELLIPSE
5
130
100
AcDbEntity
8
0
6
ByLayer
62
256
370
9
100
AcDbEllipse
10
-0.8223104485
20
46.2689790809
30
0
11
-11.6670697921
21
0
31
0
40
0.945945945946
41
0.1516778764
42
1.15149649544
0
ELLIPSE
5
131
100
AcDbEntity
8
0
6
ByLayer
62
256
370
9
100
AcDbEllipse
10
-5.8438055224
20
35.5759798507
30
0
11
-0.702267361075
21
0
31
0
40
0.945945945946
41
3.14388097912
42
4.31530953516
0
LINE
5
132
100
AcDbEntity
8
0
6
ByLayer
62
256
370
9
100
AcDbLine
10
-5.14154
20
35.5775
11
-5.227676
21
34.25345
0
CIRCLE
5
133
100
AcDbEntity
8
0
6
ByLayer
62
256
370
-1
100
AcDbCircle
10
-12.89378
20
44.957885
40
0.065
0
CIRCLE
5
134
100
AcDbEntity
8
0
6
ByLayer
62
256
370
-1
100
AcDbCircle
10
-12.387731
20
43.41995
40
0.065
0
CIRCLE
5
135
100
AcDbEntity
8
0
6
ByLayer
62
256
370
-1
100
AcDbCircle
10
-11.860148
20
41.8922
40
0.065
0
CIRCLE
5
136
100
AcDbEntity
8
0
6
ByLayer
62
256
370
-1
100
AcDbCircle
10
-10.998788
20
40.36445
40
0.065
0
CIRCLE
5
137
100
AcDbEntity
8
0
6
ByLayer
62
256
370
-1
100
AcDbCircle
10
-9.98669
20
38.93855
40
0.065
0
CIRCLE
5
138
100
AcDbEntity
8
0
6
ByLayer
62
256
370
-1
100
AcDbCircle
10
-8.58698
20
37.6145
40
0.065
0
CIRCLE
5
139
100
AcDbEntity
8
0
6
ByLayer
62
256
370
-1
100
AcDbCircle
10
-7.0796
20
36.596
40
0.065
0
CIRCLE
5
13A
100
AcDbEntity
8
0
6
ByLayer
62
256
370
-1
100
AcDbCircle
10
-5.453783
20
35.67935
40
0.065
0
CIRCLE
5
13B
100
AcDbEntity
8
0
6
ByLayer
62
256
370
-1
100
AcDbCircle
10
-14.239655
20
45.53843
40
0.065
0
CIRCLE
5
13C
100
AcDbEntity
8
0
6
ByLayer
62
256
370
-1
100
AcDbCircle
10
-14.29349
20
44.03105
40
0.065
0
CIRCLE
5
13D
100
AcDbEntity
8
0
6
ByLayer
62
256
370
-1
100
AcDbCircle
10
-12.4631
20
34.671035
40
0.065
0
CIRCLE
5
13E
100
AcDbEntity
8
0
6
ByLayer
62
256
370
-1
100
AcDbCircle
10
-14.18582
20
34.78307
40
0.065
0
CIRCLE
5
13F
100
AcDbEntity
8
0
6
ByLayer
62
256
370
-1
100
AcDbCircle
10
-14.18582
20
35.88305
40
0.065
0
CIRCLE
5
140
100
AcDbEntity
8
0
6
ByLayer
62
256
370
-1
100
AcDbCircle
10
-14.29349
20
37.4108
40
0.065
0
CIRCLE
5
141
100
AcDbEntity
8
0
6
ByLayer
62
256
370
-1
100
AcDbCircle
10
-14.40116
20
39.34595
40
0.065
0
CIRCLE
5
142
100
AcDbEntity
8
0
6
ByLayer
62
256
370
-1
100
AcDbCircle
10
-14.40116
20
42.40145
40
0.065
0
CIRCLE
5
143
100
AcDbEntity
8
0
6
ByLayer
62
256
370
-1
100
AcDbCircle
10
-14.40116
20
40.8737
40
0.065
0
CIRCLE
5
144
100
AcDbEntity
8
0
6
ByLayer
62
256
370
-1
100
AcDbCircle
10
-10.84805
20
34.548815
40
0.065
0
CIRCLE
5
145
100
AcDbEntity
8
0
6
ByLayer
62
256
370
-1
100
AcDbCircle
10
-9.233
20
34.39604
40
0.065
0
CIRCLE
5
146
100
AcDbEntity
8
0
6
ByLayer
62
256
370
-1
100
AcDbCircle
10
-7.61795
20
34.21271
40
0.065
0
CIRCLE
5
147
100
AcDbEntity
8
0
6
ByLayer
62
256
370
-1
100
AcDbCircle
10
-5.755259
20
34.09049
40
0.065
0
LINE
5
148
100
AcDbEntity
8
0
6
ByLayer
62
256
370
9
100
AcDbLine
10
-22.207235
20
45.5588
11
-22.47641
21
34.9664
0
CIRCLE
5
149
100
AcDbEntity
8
0
6
ByLayer
62
256
370
-1
100
AcDbCircle
10
-21.991895
20
42.2996
40
0.065
0
CIRCLE
5
14A
100
AcDbEntity
8
0
6
ByLayer
62
256
370
-1
100
AcDbCircle
10
-21.948827
20
43.82735
40
0.065
0
CIRCLE
5
14B
100
AcDbEntity
8
0
6
ByLayer
62
256
370
-1
100
AcDbCircle
10
-21.905759
20
45.3551
40
0.065
0
CIRCLE
5
14C
100
AcDbEntity
8
0
6
ByLayer
62
256
370
-1
100
AcDbCircle
10
-20.807525
20
45.17177
40
0.065
0
CIRCLE
5
14D
100
AcDbEntity
8
0
6
ByLayer
62
256
370
-1
100
AcDbCircle
10
-22.067264
20
39.2441
40
0.065
0
CIRCLE
5
14E
100
AcDbEntity
8
0
6
ByLayer
62
256
370
-1
100
AcDbCircle
10
-22.024196
20
40.77185
40
0.065
0
CIRCLE
5
14F
100
AcDbEntity
8
0
6
ByLayer
62
256
370
-1
100
AcDbCircle
10
-22.110332
20
37.71635
40
0.065
0
CIRCLE
5
150
100
AcDbEntity
8
0
6
ByLayer
62
256
370
-1
100
AcDbCircle
10
-22.099565
20
36.1886
40
0.065
0
CIRCLE
5
151
100
AcDbEntity
8
0
6
ByLayer
62
256
370
-1
100
AcDbCircle
10
-22.174934
20
35.04788
40
0.065
0
CIRCLE
5
152
100
AcDbEntity
8
0
6
ByLayer
62
256
370
-1
100
AcDbCircle
10
-20.807525
20
35.04788
40
0.065
0
CIRCLE
5
153
100
AcDbEntity
8
0
6
ByLayer
62
256
370
-1
100
AcDbCircle
10
-18.008105
20
42.2996
40
0.065
0
CIRCLE
5
154
100
AcDbEntity
8
0
6
ByLayer
62
256
370
-1
100
AcDbCircle
10
-18.051173
20
43.82735
40
0.065
0
CIRCLE
5
155
100
AcDbEntity
8
0
6
ByLayer
62
256
370
-1
100
AcDbCircle
10
-18.094241
20
45.3551
40
0.065
0
CIRCLE
5
156
100
AcDbEntity
8
0
6
ByLayer
62
256
370
-1
100
AcDbCircle
10
-19.192475
20
45.17177
40
0.065
0
CIRCLE
5
157
100
AcDbEntity
8
0
6
ByLayer
62
256
370
-1
100
AcDbCircle
10
-17.932736
20
39.2441
40
0.065
0
CIRCLE
5
158
100
AcDbEntity
8
0
6
ByLayer
62
256
370
-1
100
AcDbCircle
10
-17.975804
20
40.77185
40
0.065
0
CIRCLE
5
159
100
AcDbEntity
8
0
6
ByLayer
62
256
370
-1
100
AcDbCircle
10
-17.889668
20
37.71635
40
0.065
0
CIRCLE
5
15A
100
AcDbEntity
8
0
6
ByLayer
62
256
370
-1
100
AcDbCircle
10
-17.900435
20
36.1886
40
0.065
0
CIRCLE
5
15B
100
AcDbEntity
8
0
6
ByLayer
62
256
370
-1
100
AcDbCircle
10
-17.825066
20
35.04788
40
0.065
0
CIRCLE
5
15C
100
AcDbEntity
8
0
6
ByLayer
62
256
370
-1
100
AcDbCircle
10
-19.192475
20
35.04788
40
0.065
0
CIRCLE
5
15D
100
AcDbEntity
8
0
6
ByLayer
62
256
370
-1
100
AcDbCircle
10
-28.882775
20
28.824845
40
0.065
0
CIRCLE
5
15E
100
AcDbEntity
8
0
6
ByLayer
62
256
370
-1
100
AcDbCircle
10
-30.497825
20
28.560035
40
0.065
0
CIRCLE
5
15F
100
AcDbEntity
8
0
6
ByLayer
62
256
370
-1
100
AcDbCircle
10
-27.267725
20
29.03873
40
0.065
0
CIRCLE
5
160
100
AcDbEntity
8
0
6
ByLayer
62
256
370
-1
100
AcDbCircle
10
-25.652675
20
29.20169
40
0.065
0
CIRCLE
5
161
100
AcDbEntity
8
0
6
ByLayer
62
256
370
-1
100
AcDbCircle
10
-24.037625
20
29.334095
40
0.065
0
CIRCLE
5
162
100
AcDbEntity
8
0
6
ByLayer
62
256
370
-1
100
AcDbCircle
10
-22.422575
20
29.415575
40
0.065
0
CIRCLE
5
163
100
AcDbEntity
8
0
6
ByLayer
62
256
370
-1
100
AcDbCircle
10
-20.807525
20
29.456315
40
0.065
0
CIRCLE
5
164
100
AcDbEntity
8
0
6
ByLayer
62
256
370
-1
100
AcDbCircle
10
-31.8437
20
28.32578
40
0.065
0
CIRCLE
5
165
100
AcDbEntity
8
0
6
ByLayer
62
256
370
-1
100
AcDbCircle
10
-11.117225
20
28.824845
40
0.065
0
CIRCLE
5
166
100
AcDbEntity
8
0
6
ByLayer
62
256
370
-1
100
AcDbCircle
10
-9.502175
20
28.560035
40
0.065
0
CIRCLE
5
167
100
AcDbEntity
8
0
6
ByLayer
62
256
370
-1
100
AcDbCircle
10
-12.732275
20
29.03873
40
0.065
0
CIRCLE
5
168
100
AcDbEntity
8
0
6
ByLayer
62
256
370
-1
100
AcDbCircle
10
-14.347325
20
29.20169
40
0.065
0
CIRCLE
5
169
100
AcDbEntity
8
0
6
ByLayer
62
256
370
-1
100
AcDbCircle
10
-15.962375
20
29.334095
40
0.065
0
CIRCLE
5
16A
100
AcDbEntity
8
0
6
ByLayer
62
256
370
-1
100
AcDbCircle
10
-17.577425
20
29.415575
40
0.065
0
CIRCLE
5
16B
100
AcDbEntity
8
0
6
ByLayer
62
256
370
-1
100
AcDbCircle
10
-19.192475
20
29.456315
40
0.065
0
CIRCLE
5
16C
100
AcDbEntity
8
0
6
ByLayer
62
256
370
-1
100
AcDbCircle
10
-8.1563
20
28.32578
40
0.065
0
CIRCLE
5
16D
100
AcDbEntity
8
0
6
ByLayer
62
256
370
-1
100
AcDbCircle
10
-20.807525
20
23.92586
40
0.065
0
CIRCLE
5
16E
100
AcDbEntity
8
0
6
ByLayer
62
256
370
-1
100
AcDbCircle
10
-22.422575
20
23.86475
40
0.065
0
CIRCLE
5
16F
100
AcDbEntity
8
0
6
ByLayer
62
256
370
-1
100
AcDbCircle
10
-24.037625
20
23.773085
40
0.065
0
CIRCLE
5
170
100
AcDbEntity
8
0
6
ByLayer
62
256
370
-1
100
AcDbCircle
10
-25.652675
20
23.610125
40
0.065
0
CIRCLE
5
171
100
AcDbEntity
8
0
6
ByLayer
62
256
370
-1
100
AcDbCircle
10
-27.267725
20
23.406425
40
0.065
0
CIRCLE
5
172
100
AcDbEntity
8
0
6
ByLayer
62
256
370
-1
100
AcDbCircle
10
-28.882775
20
23.141615
40
0.065
0
CIRCLE
5
173
100
AcDbEntity
8
0
6
ByLayer
62
256
370
-1
100
AcDbCircle
10
-30.497825
20
22.82588
40
0.065
0
CIRCLE
5
174
100
AcDbEntity
8
0
6
ByLayer
62
256
370
-1
100
AcDbCircle
10
-31.30535
20
22.64255
40
0.065
0
CIRCLE
5
175
100
AcDbEntity
8
0
6
ByLayer
62
256
370
-1
100
AcDbCircle
10
-19.192475
20
23.92586
40
0.065
0
CIRCLE
5
176
100
AcDbEntity
8
0
6
ByLayer
62
256
370
-1
100
AcDbCircle
10
-17.577425
20
23.86475
40
0.065
0
CIRCLE
5
177
100
AcDbEntity
8
0
6
ByLayer
62
256
370
-1
100
AcDbCircle
10
-15.962375
20
23.773085
40
0.065
0
CIRCLE
5
178
100
AcDbEntity
8
0
6
ByLayer
62
256
370
-1
100
AcDbCircle
10
-14.347325
20
23.610125
40
0.065
0
CIRCLE
5
179
100
AcDbEntity
8
0
6
ByLayer
62
256
370
-1
100
AcDbCircle
10
-12.732275
20
23.406425
40
0.065
0
CIRCLE
5
17A
100
AcDbEntity
8
0
6
ByLayer
62
256
370
-1
100
AcDbCircle
10
-11.117225
20
23.141615
40
0.065
0
CIRCLE
5
17B
100
AcDbEntity
8
0
6
ByLayer
62
256
370
-1
100
AcDbCircle
10
-9.502175
20
22.82588
40
0.065
0
CIRCLE
5
17C
100
AcDbEntity
8
0
6
ByLayer
62
256
370
-1
100
AcDbCircle
10
-8.69465
20
22.64255
40
0.065
0
CIRCLE
5
17D
100
AcDbEntity
8
0
6
ByLayer
62
256
370
-1
100
AcDbCircle
10
-31.30535
20
16.032485
40
0.065
0
CIRCLE
5
17E
100
AcDbEntity
8
0
6
ByLayer
62
256
370
-1
100
AcDbCircle
10
-30.497825
20
15.889895
40
0.065
0
CIRCLE
5
17F
100
AcDbEntity
8
0
6
ByLayer
62
256
370
-1
100
AcDbCircle
10
-28.882775
20
15.57416
40
0.065
0
CIRCLE
5
180
100
AcDbEntity
8
0
6
ByLayer
62
256
370
-1
100
AcDbCircle
10
-25.652675
20
15.10565
40
0.065
0
CIRCLE
5
181
100
AcDbEntity
8
0
6
ByLayer
62
256
370
-1
100
AcDbCircle
10
-27.267725
20
15.30935
40
0.065
0
CIRCLE
5
182
100
AcDbEntity
8
0
6
ByLayer
62
256
370
-1
100
AcDbCircle
10
-22.422575
20
14.84084
40
0.065
0
CIRCLE
5
183
100
AcDbEntity
8
0
6
ByLayer
62
256
370
-1
100
AcDbCircle
10
-24.037625
20
14.94269
40
0.065
0
CIRCLE
5
184
100
AcDbEntity
8
0
6
ByLayer
62
256
370
-1
100
AcDbCircle
10
-20.807525
20
14.75936
40
0.065
0
CIRCLE
5
185
100
AcDbEntity
8
0
6
ByLayer
62
256
370
-1
100
AcDbCircle
10
-8.69465
20
16.032485
40
0.065
0
CIRCLE
5
186
100
AcDbEntity
8
0
6
ByLayer
62
256
370
-1
100
AcDbCircle
10
-9.502175
20
15.889895
40
0.065
0
CIRCLE
5
187
100
AcDbEntity
8
0
6
ByLayer
62
256
370
-1
100
AcDbCircle
10
-11.117225
20
15.57416
40
0.065
0
CIRCLE
5
188
100
AcDbEntity
8
0
6
ByLayer
62
256
370
-1
100
AcDbCircle
10
-14.347325
20
15.10565
40
0.065
0
CIRCLE
5
189
100
AcDbEntity
8
0
6
ByLayer
62
256
370
-1
100
AcDbCircle
10
-12.732275
20
15.30935
40
0.065
0
CIRCLE
5
18A
100
AcDbEntity
8
0
6
ByLayer
62
256
370
-1
100
AcDbCircle
10
-17.577425
20
14.84084
40
0.065
0
CIRCLE
5
18B
100
AcDbEntity
8
0
6
ByLayer
62
256
370
-1
100
AcDbCircle
10
-15.962375
20
14.94269
40
0.065
0
CIRCLE
5
18C
100
AcDbEntity
8
0
6
ByLayer
62
256
370
-1
100
AcDbCircle
10
-19.192475
20
14.75936
40
0.065
0
CIRCLE
5
18D
100
AcDbEntity
8
0
6
ByLayer
62
256
370
-1
100
AcDbCircle
10
-20.807525
20
9.249275
40
0.065
0
CIRCLE
5
18E
100
AcDbEntity
8
0
6
ByLayer
62
256
370
-1
100
AcDbCircle
10
-32.102108
20
10.675175
40
0.065
0
CIRCLE
5
18F
100
AcDbEntity
8
0
6
ByLayer
62
256
370
-1
100
AcDbCircle
10
-30.497825
20
10.3187
40
0.065
0
CIRCLE
5
190
100
AcDbEntity
8
0
6
ByLayer
62
256
370
-1
100
AcDbCircle
10
-27.267725
20
9.758525
40
0.065
0
CIRCLE
5
191
100
AcDbEntity
8
0
6
ByLayer
62
256
370
-1
100
AcDbCircle
10
-22.422575
20
9.3002
40
0.065
0
CIRCLE
5
192
100
AcDbEntity
8
0
6
ByLayer
62
256
370
-1
100
AcDbCircle
10
-24.037625
20
9.40205
40
0.065
0
CIRCLE
5
193
100
AcDbEntity
8
0
6
ByLayer
62
256
370
-1
100
AcDbCircle
10
-25.652675
20
9.554825
40
0.065
0
CIRCLE
5
194
100
AcDbEntity
8
0
6
ByLayer
62
256
370
-1
100
AcDbCircle
10
-19.192475
20
9.249275
40
0.065
0
CIRCLE
5
195
100
AcDbEntity
8
0
6
ByLayer
62
256
370
-1
100
AcDbCircle
10
-7.897892
20
10.675175
40
0.065
0
CIRCLE
5
196
100
AcDbEntity
8
0
6
ByLayer
62
256
370
-1
100
AcDbCircle
10
-9.502175
20
10.3187
40
0.065
0
CIRCLE
5
197
100
AcDbEntity
8
0
6
ByLayer
62
256
370
-1
100
AcDbCircle
10
-12.732275
20
9.758525
40
0.065
0
CIRCLE
5
198
100
AcDbEntity
8
0
6
ByLayer
62
256
370
-1
100
AcDbCircle
10
-17.577425
20
9.3002
40
0.065
0
CIRCLE
5
199
100
AcDbEntity
8
0
6
ByLayer
62
256
370
-1
100
AcDbCircle
10
-15.962375
20
9.40205
40
0.065
0
CIRCLE
5
19A
100
AcDbEntity
8
0
6
ByLayer
62
256
370
-1
100
AcDbCircle
10
-14.347325
20
9.554825
40
0.065
0
CIRCLE
5
19B
100
AcDbEntity
8
0
6
ByLayer
62
256
370
-1
100
AcDbCircle
10
-20.807525
20
3.667895
40
0.065
0
CIRCLE
5
19C
100
AcDbEntity
8
0
6
ByLayer
62
256
370
-1
100
AcDbCircle
10
-27.267725
20
4.177145
40
0.065
0
CIRCLE
5
19D
100
AcDbEntity
8
0
6
ByLayer
62
256
370
-1
100
AcDbCircle
10
-22.422575
20
3.71882
40
0.065
0
CIRCLE
5
19E
100
AcDbEntity
8
0
6
ByLayer
62
256
370
-1
100
AcDbCircle
10
-24.037625
20
3.82067
40
0.065
0
CIRCLE
5
19F
100
AcDbEntity
8
0
6
ByLayer
62
256
370
-1
100
AcDbCircle
10
-25.652675
20
3.973445
40
0.065
0
CIRCLE
5
1A0
100
AcDbEntity
8
0
6
ByLayer
62
256
370
-1
100
AcDbCircle
10
-28.882775
20
4.441955
40
0.065
0
CIRCLE
5
1A1
100
AcDbEntity
8
0
6
ByLayer
62
256
370
-1
100
AcDbCircle
10
-30.497825
20
4.75769
40
0.065
0
CIRCLE
5
1A2
100
AcDbEntity
8
0
6
ByLayer
62
256
370
-1
100
AcDbCircle
10
-32.112875
20
5.134535
40
0.065
0
CIRCLE
5
1A3
100
AcDbEntity
8
0
6
ByLayer
62
256
370
-1
100
AcDbCircle
10
-33.45875
20
5.47064
40
0.065
0
CIRCLE
5
1A4
100
AcDbEntity
8
0
6
ByLayer
62
256
370
-1
100
AcDbCircle
10
-20.807525
20
1.080905
40
0.065
0
CIRCLE
5
1A5
100
AcDbEntity
8
0
6
ByLayer
62
256
370
-1
100
AcDbCircle
10
-22.422575
20
1.13183
40
0.065
0
CIRCLE
5
1A6
100
AcDbEntity
8
0
6
ByLayer
62
256
370
-1
100
AcDbCircle
10
-24.037625
20
1.23368
40
0.065
0
CIRCLE
5
1A7
100
AcDbEntity
8
0
6
ByLayer
62
256
370
-1
100
AcDbCircle
10
-25.652675
20
1.37627
40
0.065
0
CIRCLE
5
1A8
100
AcDbEntity
8
0
6
ByLayer
62
256
370
-1
100
AcDbCircle
10
-27.267725
20
1.57997
40
0.065
0
CIRCLE
5
1A9
100
AcDbEntity
8
0
6
ByLayer
62
256
370
-1
100
AcDbCircle
10
-28.882775
20
1.82441
40
0.065
0
CIRCLE
5
1AA
100
AcDbEntity
8
0
6
ByLayer
62
256
370
-1
100
AcDbCircle
10
-30.497825
20
2.12996
40
0.065
0
CIRCLE
5
1AB
100
AcDbEntity
8
0
6
ByLayer
62
256
370
-1
100
AcDbCircle
10
-32.112875
20
2.47625
40
0.065
0
CIRCLE
5
1AC
100
AcDbEntity
8
0
6
ByLayer
62
256
370
-1
100
AcDbCircle
10
-33.35108
20
2.80217
40
0.065
0
CIRCLE
5
1AD
100
AcDbEntity
8
0
6
ByLayer
62
256
370
-1
100
AcDbCircle
10
-34.470848
20
3.097535
40
0.065
0
CIRCLE
5
1AE
100
AcDbEntity
8
0
6
ByLayer
62
256
370
-1
100
AcDbCircle
10
-19.192475
20
3.667895
40
0.065
0
CIRCLE
5
1AF
100
AcDbEntity
8
0
6
ByLayer
62
256
370
-1
100
AcDbCircle
10
-12.732275
20
4.177145
40
0.065
0
CIRCLE
5
1B0
100
AcDbEntity
8
0
6
ByLayer
62
256
370
-1
100
AcDbCircle
10
-17.577425
20
3.71882
40
0.065
0
CIRCLE
5
1B1
100
AcDbEntity
8
0
6
ByLayer
62
256
370
-1
100
AcDbCircle
10
-15.962375
20
3.82067
40
0.065
0
CIRCLE
5
1B2
100
AcDbEntity
8
0
6
ByLayer
62
256
370
-1
100
AcDbCircle
10
-14.347325
20
3.973445
40
0.065
0
CIRCLE
5
1B3
100
AcDbEntity
8
0
6
ByLayer
62
256
370
-1
100
AcDbCircle
10
-11.117225
20
4.441955
40
0.065
0
CIRCLE
5
1B4
100
AcDbEntity
8
0
6
ByLayer
62
256
370
-1
100
AcDbCircle
10
-9.502175
20
4.75769
40
0.065
0
CIRCLE
5
1B5
100
AcDbEntity
8
0
6
ByLayer
62
256
370
-1
100
AcDbCircle
10
-7.887125
20
5.134535
40
0.065
0
CIRCLE
5
1B6
100
AcDbEntity
8
0
6
ByLayer
62
256
370
-1
100
AcDbCircle
10
-6.54125
20
5.47064
40
0.065
0
CIRCLE
5
1B7
100
AcDbEntity
8
0
6
ByLayer
62
256
370
-1
100
AcDbCircle
10
-19.192475
20
1.080905
40
0.065
0
CIRCLE
5
1B8
100
AcDbEntity
8
0
6
ByLayer
62
256
370
-1
100
AcDbCircle
10
-17.577425
20
1.13183
40
0.065
0
CIRCLE
5
1B9
100
AcDbEntity
8
0
6
ByLayer
62
256
370
-1
100
AcDbCircle
10
-15.962375
20
1.23368
40
0.065
0
CIRCLE
5
1BA
100
AcDbEntity
8
0
6
ByLayer
62
256
370
-1
100
AcDbCircle
10
-14.347325
20
1.37627
40
0.065
0
CIRCLE
5
1BB
100
AcDbEntity
8
0
6
ByLayer
62
256
370
-1
100
AcDbCircle
10
-12.732275
20
1.57997
40
0.065
0
CIRCLE
5
1BC
100
AcDbEntity
8
0
6
ByLayer
62
256
370
-1
100
AcDbCircle
10
-11.117225
20
1.82441
40
0.065
0
CIRCLE
5
1BD
100
AcDbEntity
8
0
6
ByLayer
62
256
370
-1
100
AcDbCircle
10
-9.502175
20
2.12996
40
0.065
0
CIRCLE
5
1BE
100
AcDbEntity
8
0
6
ByLayer
62
256
370
-1
100
AcDbCircle
10
-7.887125
20
2.47625
40
0.065
0
CIRCLE
5
1BF
100
AcDbEntity
8
0
6
ByLayer
62
256
370
-1
100
AcDbCircle
10
-6.64892
20
2.80217
40
0.065
0
CIRCLE
5
1C0
100
AcDbEntity
8
0
6
ByLayer
62
256
370
-1
100
AcDbCircle
10
-5.529152
20
3.097535
40
0.065
0
CIRCLE
5
1C1
100
AcDbEntity
8
0
6
ByLayer
62
256
370
-1
100
AcDbCircle
10
8.69465
20
16.338985
40
0.065
0
CIRCLE
5
1C2
100
AcDbEntity
8
0
6
ByLayer
62
256
370
-1
100
AcDbCircle
10
9.502175
20
16.196395
40
0.065
0
CIRCLE
5
1C3
100
AcDbEntity
8
0
6
ByLayer
62
256
370
-1
100
AcDbCircle
10
11.117225
20
15.88066
40
0.065
0
CIRCLE
5
1C4
100
AcDbEntity
8
0
6
ByLayer
62
256
370
-1
100
AcDbCircle
10
14.347325
20
15.41215
40
0.065
0
CIRCLE
5
1C5
100
AcDbEntity
8
0
6
ByLayer
62
256
370
-1
100
AcDbCircle
10
12.732275
20
15.61585
40
0.065
0
CIRCLE
5
1C6
100
AcDbEntity
8
0
6
ByLayer
62
256
370
-1
100
AcDbCircle
10
17.577425
20
15.14734
40
0.065
0
CIRCLE
5
1C7
100
AcDbEntity
8
0
6
ByLayer
62
256
370
-1
100
AcDbCircle
10
15.962375
20
15.24919
40
0.065
0
CIRCLE
5
1C8
100
AcDbEntity
8
0
6
ByLayer
62
256
370
-1
100
AcDbCircle
10
19.192475
20
15.06586
40
0.065
0
CIRCLE
5
1C9
100
AcDbEntity
8
0
6
ByLayer
62
256
370
-1
100
AcDbCircle
10
31.30535
20
16.338985
40
0.065
0
CIRCLE
5
1CA
100
AcDbEntity
8
0
6
ByLayer
62
256
370
-1
100
AcDbCircle
10
30.497825
20
16.196395
40
0.065
0
CIRCLE
5
1CB
100
AcDbEntity
8
0
6
ByLayer
62
256
370
-1
100
AcDbCircle
10
28.882775
20
15.88066
40
0.065
0
CIRCLE
5
1CC
100
AcDbEntity
8
0
6
ByLayer
62
256
370
-1
100
AcDbCircle
10
25.652675
20
15.41215
40
0.065
0
CIRCLE
5
1CD
100
AcDbEntity
8
0
6
ByLayer
62
256
370
-1
100
AcDbCircle
10
27.267725
20
15.61585
40
0.065
0
CIRCLE
5
1CE
100
AcDbEntity
8
0
6
ByLayer
62
256
370
-1
100
AcDbCircle
10
22.422575
20
15.14734
40
0.065
0
CIRCLE
5
1CF
100
AcDbEntity
8
0
6
ByLayer
62
256
370
-1
100
AcDbCircle
10
24.037625
20
15.24919
40
0.065
0
CIRCLE
5
1D0
100
AcDbEntity
8
0
6
ByLayer
62
256
370
-1
100
AcDbCircle
10
20.807525
20
15.06586
40
0.065
0
CIRCLE
5
1D1
100
AcDbEntity
8
0
6
ByLayer
62
256
370
-1
100
AcDbCircle
10
19.192475
20
9.555775
40
0.065
0
CIRCLE
5
1D2
100
AcDbEntity
8
0
6
ByLayer
62
256
370
-1
100
AcDbCircle
10
7.897892
20
10.981675
40
0.065
0
CIRCLE
5
1D3
100
AcDbEntity
8
0
6
ByLayer
62
256
370
-1
100
AcDbCircle
10
9.502175
20
10.6252
40
0.065
0
CIRCLE
5
1D4
100
AcDbEntity
8
0
6
ByLayer
62
256
370
-1
100
AcDbCircle
10
12.732275
20
10.065025
40
0.065
0
CIRCLE
5
1D5
100
AcDbEntity
8
0
6
ByLayer
62
256
370
-1
100
AcDbCircle
10
17.577425
20
9.6067
40
0.065
0
CIRCLE
5
1D6
100
AcDbEntity
8
0
6
ByLayer
62
256
370
-1
100
AcDbCircle
10
15.962375
20
9.70855
40
0.065
0
CIRCLE
5
1D7
100
AcDbEntity
8
0
6
ByLayer
62
256
370
-1
100
AcDbCircle
10
14.347325
20
9.861325
40
0.065
0
CIRCLE
5
1D8
100
AcDbEntity
8
0
6
ByLayer
62
256
370
-1
100
AcDbCircle
10
20.807525
20
9.555775
40
0.065
0
CIRCLE
5
1D9
100
AcDbEntity
8
0
6
ByLayer
62
256
370
-1
100
AcDbCircle
10
32.102108
20
10.981675
40
0.065
0
CIRCLE
5
1DA
100
AcDbEntity
8
0
6
ByLayer
62
256
370
-1
100
AcDbCircle
10
30.497825
20
10.6252
40
0.065
0
CIRCLE
5
1DB
100
AcDbEntity
8
0
6
ByLayer
62
256
370
-1
100
AcDbCircle
10
27.267725
20
10.065025
40
0.065
0
CIRCLE
5
1DC
100
AcDbEntity
8
0
6
ByLayer
62
256
370
-1
100
AcDbCircle
10
22.422575
20
9.6067
40
0.065
0
CIRCLE
5
1DD
100
AcDbEntity
8
0
6
ByLayer
62
256
370
-1
100
AcDbCircle
10
24.037625
20
9.70855
40
0.065
0
CIRCLE
5
1DE
100
AcDbEntity
8
0
6
ByLayer
62
256
370
-1
100
AcDbCircle
10
25.652675
20
9.861325
40
0.065
0
CIRCLE
5
1DF
100
AcDbEntity
8
0
6
ByLayer
62
256
370
-1
100
AcDbCircle
10
19.192475
20
3.974395
40
0.065
0
CIRCLE
5
1E0
100
AcDbEntity
8
0
6
ByLayer
62
256
370
-1
100
AcDbCircle
10
12.732275
20
4.483645
40
0.065
0
CIRCLE
5
1E1
100
AcDbEntity
8
0
6
ByLayer
62
256
370
-1
100
AcDbCircle
10
17.577425
20
4.02532
40
0.065
0
CIRCLE
5
1E2
100
AcDbEntity
8
0
6
ByLayer
62
256
370
-1
100
AcDbCircle
10
15.962375
20
4.12717
40
0.065
0
CIRCLE
5
1E3
100
AcDbEntity
8
0
6
ByLayer
62
256
370
-1
100
AcDbCircle
10
14.347325
20
4.279945
40
0.065
0
CIRCLE
5
1E4
100
AcDbEntity
8
0
6
ByLayer
62
256
370
-1
100
AcDbCircle
10
11.117225
20
4.748455
40
0.065
0
CIRCLE
5
1E5
100
AcDbEntity
8
0
6
ByLayer
62
256
370
-1
100
AcDbCircle
10
9.502175
20
5.06419
40
0.065
0
CIRCLE
5
1E6
100
AcDbEntity
8
0
6
ByLayer
62
256
370
-1
100
AcDbCircle
10
7.887125
20
5.441035
40
0.065
0
CIRCLE
5
1E7
100
AcDbEntity
8
0
6
ByLayer
62
256
370
-1
100
AcDbCircle
10
6.54125
20
5.77714
40
0.065
0
CIRCLE
5
1E8
100
AcDbEntity
8
0
6
ByLayer
62
256
370
-1
100
AcDbCircle
10
19.192475
20
1.387405
40
0.065
0
CIRCLE
5
1E9
100
AcDbEntity
8
0
6
ByLayer
62
256
370
-1
100
AcDbCircle
10
17.577425
20
1.43833
40
0.065
0
CIRCLE
5
1EA
100
AcDbEntity
8
0
6
ByLayer
62
256
370
-1
100
AcDbCircle
10
15.962375
20
1.54018
40
0.065
0
CIRCLE
5
1EB
100
AcDbEntity
8
0
6
ByLayer
62
256
370
-1
100
AcDbCircle
10
14.347325
20
1.68277
40
0.065
0
CIRCLE
5
1EC
100
AcDbEntity
8
0
6
ByLayer
62
256
370
-1
100
AcDbCircle
10
12.732275
20
1.88647
40
0.065
0
CIRCLE
5
1ED
100
AcDbEntity
8
0
6
ByLayer
62
256
370
-1
100
AcDbCircle
10
11.117225
20
2.13091
40
0.065
0
CIRCLE
5
1EE
100
AcDbEntity
8
0
6
ByLayer
62
256
370
-1
100
AcDbCircle
10
9.502175
20
2.43646
40
0.065
0
CIRCLE
5
1EF
100
AcDbEntity
8
0
6
ByLayer
62
256
370
-1
100
AcDbCircle
10
7.887125
20
2.78275
40
0.065
0
CIRCLE
5
1F0
100
AcDbEntity
8
0
6
ByLayer
62
256
370
-1
100
AcDbCircle
10
6.64892
20
3.10867
40
0.065
0
CIRCLE
5
1F1
100
AcDbEntity
8
0
6
ByLayer
62
256
370
-1
100
AcDbCircle
10
5.529152
20
3.404035
40
0.065
0
CIRCLE
5
1F2
100
AcDbEntity
8
0
6
ByLayer
62
256
370
-1
100
AcDbCircle
10
20.807525
20
3.974395
40
0.065
0
CIRCLE
5
1F3
100
AcDbEntity
8
0
6
ByLayer
62
256
370
-1
100
AcDbCircle
10
27.267725
20
4.483645
40
0.065
0
CIRCLE
5
1F4
100
AcDbEntity
8
0
6
ByLayer
62
256
370
-1
100
AcDbCircle
10
22.422575
20
4.02532
40
0.065
0
CIRCLE
5
1F5
100
AcDbEntity
8
0
6
ByLayer
62
256
370
-1
100
AcDbCircle
10
24.037625
20
4.12717
40
0.065
0
CIRCLE
5
1F6
100
AcDbEntity
8
0
6
ByLayer
62
256
370
-1
100
AcDbCircle
10
25.652675
20
4.279945
40
0.065
0
CIRCLE
5
1F7
100
AcDbEntity
8
0
6
ByLayer
62
256
370
-1
100
AcDbCircle
10
28.882775
20
4.748455
40
0.065
0
CIRCLE
5
1F8
100
AcDbEntity
8
0
6
ByLayer
62
256
370
-1
100
AcDbCircle
10
30.497825
20
5.06419
40
0.065
0
CIRCLE
5
1F9
100
AcDbEntity
8
0
6
ByLayer
62
256
370
-1
100
AcDbCircle
10
32.112875
20
5.441035
40
0.065
0
CIRCLE
5
1FA
100
AcDbEntity
8
0
6
ByLayer
62
256
370
-1
100
AcDbCircle
10
33.45875
20
5.77714
40
0.065
0
CIRCLE
5
1FB
100
AcDbEntity
8
0
6
ByLayer
62
256
370
-1
100
AcDbCircle
10
20.807525
20
1.387405
40
0.065
0
CIRCLE
5
1FC
100
AcDbEntity
8
0
6
ByLayer
62
256
370
-1
100
AcDbCircle
10
22.422575
20
1.43833
40
0.065
0
CIRCLE
5
1FD
100
AcDbEntity
8
0
6
ByLayer
62
256
370
-1
100
AcDbCircle
10
24.037625
20
1.54018
40
0.065
0
CIRCLE
5
1FE
100
AcDbEntity
8
0
6
ByLayer
62
256
370
-1
100
AcDbCircle
10
25.652675
20
1.68277
40
0.065
0
CIRCLE
5
1FF
100
AcDbEntity
8
0
6
ByLayer
62
256
370
-1
100
AcDbCircle
10
27.267725
20
1.88647
40
0.065
0
CIRCLE
5
200
100
AcDbEntity
8
0
6
ByLayer
62
256
370
-1
100
AcDbCircle
10
28.882775
20
2.13091
40
0.065
0
CIRCLE
5
201
100
AcDbEntity
8
0
6
ByLayer
62
256
370
-1
100
AcDbCircle
10
30.497825
20
2.43646
40
0.065
0
CIRCLE
5
202
100
AcDbEntity
8
0
6
ByLayer
62
256
370
-1
100
AcDbCircle
10
32.112875
20
2.78275
40
0.065
0
CIRCLE
5
203
100
AcDbEntity
8
0
6
ByLayer
62
256
370
-1
100
AcDbCircle
10
33.35108
20
3.10867
40
0.065
0
CIRCLE
5
204
100
AcDbEntity
8
0
6
ByLayer
62
256
370
-1
100
AcDbCircle
10
34.470848
20
3.404035
40
0.065
0
CIRCLE
5
205
100
AcDbEntity
8
0
6
ByLayer
62
256
370
-1
100
AcDbCircle
10
-30.497825
20
19.2815
40
0.065
0
CIRCLE
5
206
100
AcDbEntity
8
0
6
ByLayer
62
256
370
-1
100
AcDbCircle
10
-28.882775
20
19.2815
40
0.065
0
CIRCLE
5
207
100
AcDbEntity
8
0
6
ByLayer
62
256
370
-1
100
AcDbCircle
10
-25.652675
20
19.2815
40
0.065
0
CIRCLE
5
208
100
AcDbEntity
8
0
6
ByLayer
62
256
370
-1
100
AcDbCircle
10
-24.037625
20
19.2815
40
0.065
0
CIRCLE
5
209
100
AcDbEntity
8
0
6
ByLayer
62
256
370
-1
100
AcDbCircle
10
-22.422575
20
19.2815
40
0.065
0
CIRCLE
5
20A
100
AcDbEntity
8
0
6
ByLayer
62
256
370
-1
100
AcDbCircle
10
-20.807525
20
19.2815
40
0.065
0
CIRCLE
5
20B
100
AcDbEntity
8
0
6
ByLayer
62
256
370
-1
100
AcDbCircle
10
-19.192475
20
19.2815
40
0.065
0
CIRCLE
5
20C
100
AcDbEntity
8
0
6
ByLayer
62
256
370
-1
100
AcDbCircle
10
-17.577425
20
19.2815
40
0.065
0
CIRCLE
5
20D
100
AcDbEntity
8
0
6
ByLayer
62
256
370
-1
100
AcDbCircle
10
-15.962375
20
19.2815
40
0.065
0
CIRCLE
5
20E
100
AcDbEntity
8
0
6
ByLayer
62
256
370
-1
100
AcDbCircle
10
-14.347325
20
19.2815
40
0.065
0
CIRCLE
5
20F
100
AcDbEntity
8
0
6
ByLayer
62
256
370
-1
100
AcDbCircle
10
-11.117225
20
19.2815
40
0.065
0
CIRCLE
5
210
100
AcDbEntity
8
0
6
ByLayer
62
256
370
-1
100
AcDbCircle
10
-9.502175
20
19.2815
40
0.065
0
CIRCLE
5
211
100
AcDbEntity
8
0
6
ByLayer
62
256
370
-1
100
AcDbCircle
10
9.502175
20
19.588
40
0.065
0
CIRCLE
5
212
100
AcDbEntity
8
0
6
ByLayer
62
256
370
-1
100
AcDbCircle
10
11.117225
20
19.588
40
0.065
0
CIRCLE
5
213
100
AcDbEntity
8
0
6
ByLayer
62
256
370
-1
100
AcDbCircle
10
14.347325
20
19.588
40
0.065
0
CIRCLE
5
214
100
AcDbEntity
8
0
6
ByLayer
62
256
370
-1
100
AcDbCircle
10
15.962375
20
19.588
40
0.065
0
CIRCLE
5
215
100
AcDbEntity
8
0
6
ByLayer
62
256
370
-1
100
AcDbCircle
10
17.577425
20
19.588
40
0.065
0
CIRCLE
5
216
100
AcDbEntity
8
0
6
ByLayer
62
256
370
-1
100
AcDbCircle
10
19.192475
20
19.588
40
0.065
0
CIRCLE
5
217
100
AcDbEntity
8
0
6
ByLayer
62
256
370
-1
100
AcDbCircle
10
20.807525
20
19.588
40
0.065
0
CIRCLE
5
218
100
AcDbEntity
8
0
6
ByLayer
62
256
370
-1
100
AcDbCircle
10
22.422575
20
19.588
40
0.065
0
CIRCLE
5
219
100
AcDbEntity
8
0
6
ByLayer
62
256
370
-1
100
AcDbCircle
10
24.037625
20
19.588
40
0.065
0
CIRCLE
5
21A
100
AcDbEntity
8
0
6
ByLayer
62
256
370
-1
100
AcDbCircle
10
25.652675
20
19.588
40
0.065
0
CIRCLE
5
21B
100
AcDbEntity
8
0
6
ByLayer
62
256
370
-1
100
AcDbCircle
10
28.882775
20
19.588
40
0.065
0
CIRCLE
5
21C
100
AcDbEntity
8
0
6
ByLayer
62
256
370
-1
100
AcDbCircle
10
30.497825
20
19.588
40
0.065
0
CIRCLE
5
21D
100
AcDbEntity
8
0
6
ByLayer
62
256
370
-1
100
AcDbCircle
10
31.30535
20
21.661015
40
0.065
0
CIRCLE
5
21E
100
AcDbEntity
8
0
6
ByLayer
62
256
370
-1
100
AcDbCircle
10
8.69465
20
22.70461
40
0.065
0
CIRCLE
5
21F
100
AcDbEntity
8
0
6
ByLayer
62
256
370
-1
100
AcDbCircle
10
9.502175
20
22.796275
40
0.065
0
CIRCLE
5
220
100
AcDbEntity
8
0
6
ByLayer
62
256
370
-1
100
AcDbCircle
10
11.117225
20
22.94905
40
0.065
0
CIRCLE
5
221
100
AcDbEntity
8
0
6
ByLayer
62
256
370
-1
100
AcDbCircle
10
12.732275
20
23.081455
40
0.065
0
CIRCLE
5
222
100
AcDbEntity
8
0
6
ByLayer
62
256
370
-1
100
AcDbCircle
10
14.347325
20
23.183305
40
0.065
0
CIRCLE
5
223
100
AcDbEntity
8
0
6
ByLayer
62
256
370
-1
100
AcDbCircle
10
15.962375
20
23.2546
40
0.065
0
CIRCLE
5
224
100
AcDbEntity
8
0
6
ByLayer
62
256
370
-1
100
AcDbCircle
10
17.577425
20
23.305525
40
0.065
0
CIRCLE
5
225
100
AcDbEntity
8
0
6
ByLayer
62
256
370
-1
100
AcDbCircle
10
19.192475
20
23.33608
40
0.065
0
CIRCLE
5
226
100
AcDbEntity
8
0
6
ByLayer
62
256
370
-1
100
AcDbCircle
10
31.30535
20
22.70461
40
0.065
0
CIRCLE
5
227
100
AcDbEntity
8
0
6
ByLayer
62
256
370
-1
100
AcDbCircle
10
30.497825
20
22.796275
40
0.065
0
CIRCLE
5
228
100
AcDbEntity
8
0
6
ByLayer
62
256
370
-1
100
AcDbCircle
10
28.882775
20
22.94905
40
0.065
0
CIRCLE
5
229
100
AcDbEntity
8
0
6
ByLayer
62
256
370
-1
100
AcDbCircle
10
27.267725
20
23.081455
40
0.065
0
CIRCLE
5
22A
100
AcDbEntity
8
0
6
ByLayer
62
256
370
-1
100
AcDbCircle
10
25.652675
20
23.183305
40
0.065
0
CIRCLE
5
22B
100
AcDbEntity
8
0
6
ByLayer
62
256
370
-1
100
AcDbCircle
10
24.037625
20
23.2546
40
0.065
0
CIRCLE
5
22C
100
AcDbEntity
8
0
6
ByLayer
62
256
370
-1
100
AcDbCircle
10
22.422575
20
23.305525
40
0.065
0
CIRCLE
5
22D
100
AcDbEntity
8
0
6
ByLayer
62
256
370
-1
100
AcDbCircle
10
20.807525
20
23.33608
40
0.065
0
CIRCLE
5
22E
100
AcDbEntity
8
0
6
ByLayer
62
256
370
-1
100
AcDbCircle
10
12.732275
20
28.73413
40
0.065
0
CIRCLE
5
22F
100
AcDbEntity
8
0
6
ByLayer
62
256
370
-1
100
AcDbCircle
10
17.577425
20
28.91746
40
0.065
0
CIRCLE
5
230
100
AcDbEntity
8
0
6
ByLayer
62
256
370
-1
100
AcDbCircle
10
19.192475
20
28.988755
40
0.065
0
CIRCLE
5
231
100
AcDbEntity
8
0
6
ByLayer
62
256
370
-1
100
AcDbCircle
10
15.962375
20
28.89709
40
0.065
0
CIRCLE
5
232
100
AcDbEntity
8
0
6
ByLayer
62
256
370
-1
100
AcDbCircle
10
14.347325
20
28.825795
40
0.065
0
CIRCLE
5
233
100
AcDbEntity
8
0
6
ByLayer
62
256
370
-1
100
AcDbCircle
10
11.117225
20
28.622095
40
0.065
0
CIRCLE
5
234
100
AcDbEntity
8
0
6
ByLayer
62
256
370
-1
100
AcDbCircle
10
9.502175
20
28.46932
40
0.065
0
CIRCLE
5
235
100
AcDbEntity
8
0
6
ByLayer
62
256
370
-1
100
AcDbCircle
10
8.1563
20
28.316545
40
0.065
0
CIRCLE
5
236
100
AcDbEntity
8
0
6
ByLayer
62
256
370
-1
100
AcDbCircle
10
27.267725
20
28.73413
40
0.065
0
CIRCLE
5
237
100
AcDbEntity
8
0
6
ByLayer
62
256
370
-1
100
AcDbCircle
10
22.422575
20
28.91746
40
0.065
0
CIRCLE
5
238
100
AcDbEntity
8
0
6
ByLayer
62
256
370
-1
100
AcDbCircle
10
20.807525
20
28.988755
40
0.065
0
CIRCLE
5
239
100
AcDbEntity
8
0
6
ByLayer
62
256
370
-1
100
AcDbCircle
10
24.037625
20
28.89709
40
0.065
0
CIRCLE
5
23A
100
AcDbEntity
8
0
6
ByLayer
62
256
370
-1
100
AcDbCircle
10
25.652675
20
28.825795
40
0.065
0
CIRCLE
5
23B
100
AcDbEntity
8
0
6
ByLayer
62
256
370
-1
100
AcDbCircle
10
28.882775
20
28.622095
40
0.065
0
CIRCLE
5
23C
100
AcDbEntity
8
0
6
ByLayer
62
256
370
-1
100
AcDbCircle
10
30.497825
20
28.46932
40
0.065
0
CIRCLE
5
23D
100
AcDbEntity
8
0
6
ByLayer
62
256
370
-1
100
AcDbCircle
10
31.8437
20
28.316545
40
0.065
0
CIRCLE
5
23E
100
AcDbEntity
8
0
6
ByLayer
62
256
370
-1
100
AcDbCircle
10
19.192475
20
34.39699
40
0.065
0
CIRCLE
5
23F
100
AcDbEntity
8
0
6
ByLayer
62
256
370
-1
100
AcDbCircle
10
17.577425
20
34.39699
40
0.065
0
CIRCLE
5
240
100
AcDbEntity
8
0
6
ByLayer
62
256
370
-1
100
AcDbCircle
10
15.962375
20
34.33588
40
0.065
0
CIRCLE
5
241
100
AcDbEntity
8
0
6
ByLayer
62
256
370
-1
100
AcDbCircle
10
14.347325
20
34.29514
40
0.065
0
CIRCLE
5
242
100
AcDbEntity
8
0
6
ByLayer
62
256
370
-1
100
AcDbCircle
10
12.732275
20
34.183105
40
0.065
0
CIRCLE
5
243
100
AcDbEntity
8
0
6
ByLayer
62
256
370
-1
100
AcDbCircle
10
11.117225
20
34.081255
40
0.065
0
CIRCLE
5
244
100
AcDbEntity
8
0
6
ByLayer
62
256
370
-1
100
AcDbCircle
10
9.502175
20
33.94885
40
0.065
0
CIRCLE
5
245
100
AcDbEntity
8
0
6
ByLayer
62
256
370
-1
100
AcDbCircle
10
7.887125
20
33.796075
40
0.065
0
CIRCLE
5
246
100
AcDbEntity
8
0
6
ByLayer
62
256
370
-1
100
AcDbCircle
10
20.807525
20
34.39699
40
0.065
0
CIRCLE
5
247
100
AcDbEntity
8
0
6
ByLayer
62
256
370
-1
100
AcDbCircle
10
22.422575
20
34.39699
40
0.065
0
CIRCLE
5
248
100
AcDbEntity
8
0
6
ByLayer
62
256
370
-1
100
AcDbCircle
10
24.037625
20
34.33588
40
0.065
0
CIRCLE
5
249
100
AcDbEntity
8
0
6
ByLayer
62
256
370
-1
100
AcDbCircle
10
25.652675
20
34.29514
40
0.065
0
CIRCLE
5
24A
100
AcDbEntity
8
0
6
ByLayer
62
256
370
-1
100
AcDbCircle
10
27.267725
20
34.183105
40
0.065
0
CIRCLE
5
24B
100
AcDbEntity
8
0
6
ByLayer
62
256
370
-1
100
AcDbCircle
10
28.882775
20
34.081255
40
0.065
0
CIRCLE
5
24C
100
AcDbEntity
8
0
6
ByLayer
62
256
370
-1
100
AcDbCircle
10
30.497825
20
33.94885
40
0.065
0
CIRCLE
5
24D
100
AcDbEntity
8
0
6
ByLayer
62
256
370
-1
100
AcDbCircle
10
32.112875
20
33.796075
40
0.065
0
CIRCLE
5
24E
100
AcDbEntity
8
0
6
ByLayer
62
256
370
-1
100
AcDbCircle
10
19.192475
20
39.42838
40
0.065
0
CIRCLE
5
24F
100
AcDbEntity
8
0
6
ByLayer
62
256
370
-1
100
AcDbCircle
10
14.347325
20
39.32653
40
0.065
0
CIRCLE
5
250
100
AcDbEntity
8
0
6
ByLayer
62
256
370
-1
100
AcDbCircle
10
9.943622
20
39.092275
40
0.065
0
CIRCLE
5
251
100
AcDbEntity
8
0
6
ByLayer
62
256
370
-1
100
AcDbCircle
10
11.117225
20
39.173755
40
0.065
0
CIRCLE
5
252
100
AcDbEntity
8
0
6
ByLayer
62
256
370
-1
100
AcDbCircle
10
12.732275
20
39.255235
40
0.065
0
CIRCLE
5
253
100
AcDbEntity
8
0
6
ByLayer
62
256
370
-1
100
AcDbCircle
10
15.962375
20
39.377455
40
0.065
0
CIRCLE
5
254
100
AcDbEntity
8
0
6
ByLayer
62
256
370
-1
100
AcDbCircle
10
17.577425
20
39.40801
40
0.065
0
CIRCLE
5
255
100
AcDbEntity
8
0
6
ByLayer
62
256
370
-1
100
AcDbCircle
10
20.807525
20
39.42838
40
0.065
0
CIRCLE
5
256
100
AcDbEntity
8
0
6
ByLayer
62
256
370
-1
100
AcDbCircle
10
25.652675
20
39.32653
40
0.065
0
CIRCLE
5
257
100
AcDbEntity
8
0
6
ByLayer
62
256
370
-1
100
AcDbCircle
10
30.056378
20
39.092275
40
0.065
0
CIRCLE
5
258
100
AcDbEntity
8
0
6
ByLayer
62
256
370
-1
100
AcDbCircle
10
28.882775
20
39.173755
40
0.065
0
CIRCLE
5
259
100
AcDbEntity
8
0
6
ByLayer
62
256
370
-1
100
AcDbCircle
10
27.267725
20
39.255235
40
0.065
0
CIRCLE
5
25A
100
AcDbEntity
8
0
6
ByLayer
62
256
370
-1
100
AcDbCircle
10
24.037625
20
39.377455
40
0.065
0
CIRCLE
5
25B
100
AcDbEntity
8
0
6
ByLayer
62
256
370
-1
100
AcDbCircle
10
22.422575
20
39.40801
40
0.065
0
CIRCLE
5
25C
100
AcDbEntity
8
0
6
ByLayer
62
256
370
-1
100
AcDbCircle
10
19.192475
20
44.11348
40
0.065
0
CIRCLE
5
25D
100
AcDbEntity
8
0
6
ByLayer
62
256
370
-1
100
AcDbCircle
10
15.962375
20
44.07274
40
0.065
0
CIRCLE
5
25E
100
AcDbEntity
8
0
6
ByLayer
62
256
370
-1
100
AcDbCircle
10
17.577425
20
44.09311
40
0.065
0
CIRCLE
5
25F
100
AcDbEntity
8
0
6
ByLayer
62
256
370
-1
100
AcDbCircle
10
14.347325
20
44.032
40
0.065
0
CIRCLE
5
260
100
AcDbEntity
8
0
6
ByLayer
62
256
370
-1
100
AcDbCircle
10
12.732275
20
43.981075
40
0.065
0
CIRCLE
5
261
100
AcDbEntity
8
0
6
ByLayer
62
256
370
-1
100
AcDbCircle
10
11.117225
20
43.919965
40
0.065
0
CIRCLE
5
262
100
AcDbEntity
8
0
6
ByLayer
62
256
370
-1
100
AcDbCircle
10
20.807525
20
44.11348
40
0.065
0
CIRCLE
5
263
100
AcDbEntity
8
0
6
ByLayer
62
256
370
-1
100
AcDbCircle
10
24.037625
20
44.07274
40
0.065
0
CIRCLE
5
264
100
AcDbEntity
8
0
6
ByLayer
62
256
370
-1
100
AcDbCircle
10
22.422575
20
44.09311
40
0.065
0
CIRCLE
5
265
100
AcDbEntity
8
0
6
ByLayer
62
256
370
-1
100
AcDbCircle
10
25.652675
20
44.032
40
0.065
0
CIRCLE
5
266
100
AcDbEntity
8
0
6
ByLayer
62
256
370
-1
100
AcDbCircle
10
27.267725
20
43.981075
40
0.065
0
CIRCLE
5
267
100
AcDbEntity
8
0
6
ByLayer
62
256
370
-1
100
AcDbCircle
10
28.882775
20
43.919965
40
0.065
0
CIRCLE
5
268
100
AcDbEntity
8
0
6
ByLayer
62
256
370
-1
100
AcDbCircle
10
17.577425
20
49.175425
40
0.065
0
CIRCLE
5
269
100
AcDbEntity
8
0
6
ByLayer
62
256
370
-1
100
AcDbCircle
10
15.962375
20
49.277275
40
0.065
0
CIRCLE
5
26A
100
AcDbEntity
8
0
6
ByLayer
62
256
370
-1
100
AcDbCircle
10
19.192475
20
49.06339
40
0.065
0
CIRCLE
5
26B
100
AcDbEntity
8
0
6
ByLayer
62
256
370
-1
100
AcDbCircle
10
12.732275
20
49.766155
40
0.065
0
CIRCLE
5
26C
100
AcDbEntity
8
0
6
ByLayer
62
256
370
-1
100
AcDbCircle
10
14.347325
20
49.49116
40
0.065
0
CIRCLE
5
26D
100
AcDbEntity
8
0
6
ByLayer
62
256
370
-1
100
AcDbCircle
10
22.422575
20
49.175425
40
0.065
0
CIRCLE
5
26E
100
AcDbEntity
8
0
6
ByLayer
62
256
370
-1
100
AcDbCircle
10
24.037625
20
49.277275
40
0.065
0
CIRCLE
5
26F
100
AcDbEntity
8
0
6
ByLayer
62
256
370
-1
100
AcDbCircle
10
20.807525
20
49.06339
40
0.065
0
CIRCLE
5
270
100
AcDbEntity
8
0
6
ByLayer
62
256
370
-1
100
AcDbCircle
10
27.267725
20
49.766155
40
0.065
0
CIRCLE
5
271
100
AcDbEntity
8
0
6
ByLayer
62
256
370
-1
100
AcDbCircle
10
25.652675
20
49.49116
40
0.065
0
CIRCLE
5
272
100
AcDbEntity
8
0
6
ByLayer
62
256
370
-1
100
AcDbCircle
10
19.192475
20
54.31885
40
0.065
0
CIRCLE
5
273
100
AcDbEntity
8
0
6
ByLayer
62
256
370
-1
100
AcDbCircle
10
17.577425
20
54.40033
40
0.065
0
CIRCLE
5
274
100
AcDbEntity
8
0
6
ByLayer
62
256
370
-1
100
AcDbCircle
10
15.962375
20
54.553105
40
0.065
0
CIRCLE
5
275
100
AcDbEntity
8
0
6
ByLayer
62
256
370
-1
100
AcDbCircle
10
14.347325
20
54.777175
40
0.065
0
CIRCLE
5
276
100
AcDbEntity
8
0
6
ByLayer
62
256
370
-1
100
AcDbCircle
10
13.141421
20
55.01143
40
0.065
0
CIRCLE
5
277
100
AcDbEntity
8
0
6
ByLayer
62
256
370
-1
100
AcDbCircle
10
17.577425
20
56.17252
40
0.065
0
CIRCLE
5
278
100
AcDbEntity
8
0
6
ByLayer
62
256
370
-1
100
AcDbCircle
10
19.192475
20
55.66327
40
0.065
0
CIRCLE
5
279
100
AcDbEntity
8
0
6
ByLayer
62
256
370
-1
100
AcDbCircle
10
16.382288
20
57.017875
40
0.065
0
CIRCLE
5
27A
100
AcDbEntity
8
0
6
ByLayer
62
256
370
-1
100
AcDbCircle
10
13.701305
20
56.254
40
0.065
0
CIRCLE
5
27B
100
AcDbEntity
8
0
6
ByLayer
62
256
370
-1
100
AcDbCircle
10
14.29349
20
57.4762
40
0.065
0
CIRCLE
5
27C
100
AcDbEntity
8
0
6
ByLayer
62
256
370
-1
100
AcDbCircle
10
15.413258
20
57.86323
40
0.065
0
ELLIPSE
5
27D
100
AcDbEntity
8
0
6
ByLayer
62
256
370
9
100
AcDbEllipse
10
24.84515
20
57.2725
30
0
11
-0.080759677681
21
0
31
0
40
0.945945945946
41
0
42
6.28318530718
0
CIRCLE
5
27E
100
AcDbEntity
8
0
6
ByLayer
62
256
370
-1
100
AcDbCircle
10
20.807525
20
54.31885
40
0.065
0
CIRCLE
5
27F
100
AcDbEntity
8
0
6
ByLayer
62
256
370
-1
100
AcDbCircle
10
22.422575
20
54.40033
40
0.065
0
CIRCLE
5
280
100
AcDbEntity
8
0
6
ByLayer
62
256
370
-1
100
AcDbCircle
10
24.037625
20
54.553105
40
0.065
0
CIRCLE
5
281
100
AcDbEntity
8
0
6
ByLayer
62
256
370
-1
100
AcDbCircle
10
25.652675
20
54.777175
40
0.065
0
CIRCLE
5
282
100
AcDbEntity
8
0
6
ByLayer
62
256
370
-1
100
AcDbCircle
10
26.858579
20
55.01143
40
0.065
0
CIRCLE
5
283
100
AcDbEntity
8
0
6
ByLayer
62
256
370
-1
100
AcDbCircle
10
22.422575
20
56.17252
40
0.065
0
CIRCLE
5
284
100
AcDbEntity
8
0
6
ByLayer
62
256
370
-1
100
AcDbCircle
10
20.807525
20
55.66327
40
0.065
0
CIRCLE
5
285
100
AcDbEntity
8
0
6
ByLayer
62
256
370
-1
100
AcDbCircle
10
23.617712
20
57.017875
40
0.065
0
CIRCLE
5
286
100
AcDbEntity
8
0
6
ByLayer
62
256
370
-1
100
AcDbCircle
10
26.298695
20
56.254
40
0.065
0
CIRCLE
5
287
100
AcDbEntity
8
0
6
ByLayer
62
256
370
-1
100
AcDbCircle
10
25.70651
20
57.4762
40
0.065
0
CIRCLE
5
288
100
AcDbEntity
8
0
6
ByLayer
62
256
370
-1
100
AcDbCircle
10
24.586742
20
57.86323
40
0.065
0
ELLIPSE
5
289
100
AcDbEntity
8
0
6
ByLayer
62
256
370
9
100
AcDbEllipse
10
12.732275
20
19.588
30
0
11
0.080759677681
21
0
31
0
40
0.945945945946
41
0
42
6.28318530718
0
ELLIPSE
5
28A
100
AcDbEntity
8
0
6
ByLayer
62
256
370
9
100
AcDbEllipse
10
11.117225
20
10.31965
30
0
11
0.080759677681
21
0
31
0
40
0.945945945946
41
0
42
6.28318530718
0
ELLIPSE
5
28B
100
AcDbEntity
8
0
6
ByLayer
62
256
370
9
100
AcDbEllipse
10
27.267725
20
19.588
30
0
11
-0.080759677681
21
0
31
0
40
0.945945945946
41
0
42
6.28318530718
0
ELLIPSE
5
28C
100
AcDbEntity
8
0
6
ByLayer
62
256
370
9
100
AcDbEllipse
10
28.882775
20
10.31965
30
0
11
-0.080759677681
21
0
31
0
40
0.945945945946
41
0
42
6.28318530718
0
ELLIPSE
5
28D
100
AcDbEntity
8
0
6
ByLayer
62
256
370
9
100
AcDbEllipse
10
-27.267725
20
19.2815
30
0
11
0.080759677681
21
0
31
0
40
0.945945945946
41
0
42
6.28318530718
0
ELLIPSE
5
28E
100
AcDbEntity
8
0
6
ByLayer
62
256
370
9
100
AcDbEllipse
10
-28.882775
20
10.01315
30
0
11
0.080759677681
21
0
31
0
40
0.945945945946
41
0
42
6.28318530718
0
ELLIPSE
5
28F
100
AcDbEntity
8
0
6
ByLayer
62
256
370
9
100
AcDbEllipse
10
-12.732275
20
19.2815
30
0
11
-0.080759677681
21
0
31
0
40
0.945945945946
41
0
42
6.28318530718
0
ELLIPSE
5
290
100
AcDbEntity
8
0
6
ByLayer
62
256
370
9
100
AcDbEllipse
10
-11.117225
20
10.01315
30
0
11
-0.080759677681
21
0
31
0
40
0.945945945946
41
0
42
6.28318530718
0
MTEXT
5
291
100
AcDbEntity
8
0
6
ByLayer
62
256
370
9
100
AcDbMText
10
-20.7366037467
20
40.1888233945
30
0
40
0.10767
41
1.86927088871
71
1
72
5
1
Front Center Chest Plate
7
iso
210
0
220
0
230
1
50
0
73
2
44
1
0
MTEXT
5
292
100
AcDbEntity
8
0
6
ByLayer
62
256
370
9
100
AcDbMText
10
-20.7
20
39.8
30
0
40
0.10767
41
0.9421125
71
1
72
5
1
Height: 185cm
7
iso
210
0
220
0
230
1
50
0
73
2
44
1
0
MTEXT
5
293
100
AcDbEntity
8
0
6
ByLayer
62
256
370
9
100
AcDbMText
10
-20.7
20
39.6
30
0
40
0.10767
41
0.9421125
71
1
72
5
1
Weight: 116kg
7
iso
210
0
220
0
230
1
50
0
73
2
44
1
0
MTEXT
5
294
100
AcDbEntity
8
0
6
ByLayer
62
256
370
9
100
AcDbMText
10
-20.7
20
39.2
30
0
40
0.10767
41
0.9421125
71
1
72
5
1
Height: 185cm
7
iso
210
0
220
0
230
1
50
0
73
2
44
1
0
MTEXT
5
295
100
AcDbEntity
8
0
6
ByLayer
62
256
370
9
100
AcDbMText
10
-20.7
20
39
30
0
40
0.10767
41
0.9421125
71
1
72
5
1
Weight: 116kg
7
iso
210
0
220
0
230
1
50
0
73
2
44
1
0
MTEXT
5
296
100
AcDbEntity
8
0
6
ByLayer
62
256
370
9
100
AcDbMText
10
-28.9
20
37.2
30
0
40
0.10767
41
0.9421125
71
1
72
5
1
Height: 185cm
7
iso
210
0
220
0
230
1
50
0
73
2
44
1
0
MTEXT
5
297
100
AcDbEntity
8
0
6
ByLayer
62
256
370
9
100
AcDbMText
10
-28.9
20
37
30
0
40
0.10767
41
0.9421125
71
1
72
5
1
Weight: 116kg
7
iso
210
0
220
0
230
1
50
0
73
2
44
1
0
MTEXT
5
298
100
AcDbEntity
8
0
6
ByLayer
62
256
370
9
100
AcDbMText
10
-12.3
20
37.1
30
0
40
0.10767
41
0.9421125
71
1
72
5
1
Height: 185cm
7
iso
210
0
220
0
230
1
50
0
73
2
44
1
0
MTEXT
5
299
100
AcDbEntity
8
0
6
ByLayer
62
256
370
9
100
AcDbMText
10
-12.3
20
36.9
30
0
40
0.10767
41
0.9421125
71
1
72
5
1
Weight: 116kg
7
iso
210
0
220
0
230
1
50
0
73
2
44
1
0
MTEXT
5
29A
100
AcDbEntity
8
0
6
ByLayer
62
256
370
9
100
AcDbMText
10
-20.5
20
30.6
30
0
40
0.10767
41
0.9421125
71
1
72
5
1
Height: 185cm
7
iso
210
0
220
0
230
1
50
0
73
2
44
1
0
MTEXT
5
29B
100
AcDbEntity
8
0
6
ByLayer
62
256
370
9
100
AcDbMText
10
-20.5
20
30.4
30
0
40
0.10767
41
0.9421125
71
1
72
5
1
Weight: 116kg
7
iso
210
0
220
0
230
1
50
0
73
2
44
1
0
MTEXT
5
29C
100
AcDbEntity
8
0
6
ByLayer
62
256
370
9
100
AcDbMText
10
-20.3
20
25
30
0
40
0.10767
41
0.9421125
71
1
72
5
1
Height: 185cm
7
iso
210
0
220
0
230
1
50
0
73
2
44
1
0
MTEXT
5
29D
100
AcDbEntity
8
0
6
ByLayer
62
256
370
9
100
AcDbMText
10
-20.3
20
24.8
30
0
40
0.10767
41
0.9421125
71
1
72
5
1
Weight: 116kg
7
iso
210
0
220
0
230
1
50
0
73
2
44
1
0
MTEXT
5
29E
100
AcDbEntity
8
0
6
ByLayer
62
256
370
9
100
AcDbMText
10
-20.5
20
19.5
30
0
40
0.10767
41
0.9421125
71
1
72
5
1
Height: 185cm
7
iso
210
0
220
0
230
1
50
0
73
2
44
1
0
MTEXT
5
29F
100
AcDbEntity
8
0
6
ByLayer
62
256
370
9
100
AcDbMText
10
-20.5
20
19.3
30
0
40
0.10767
41
0.9421125
71
1
72
5
1
Weight: 116kg
7
iso
210
0
220
0
230
1
50
0
73
2
44
1
0
MTEXT
5
2A0
100
AcDbEntity
8
0
6
ByLayer
62
256
370
9
100
AcDbMText
10
-20.5
20
12.9
30
0
40
0.10767
41
0.9421125
71
1
72
5
1
Height: 185cm
7
iso
210
0
220
0
230
1
50
0
73
2
44
1
0
MTEXT
5
2A1
100
AcDbEntity
8
0
6
ByLayer
62
256
370
9
100
AcDbMText
10
-20.5
20
12.7
30
0
40
0.10767
41
0.9421125
71
1
72
5
1
Weight: 116kg
7
iso
210
0
220
0
230
1
50
0
73
2
44
1
0
MTEXT
5
2A2
100
AcDbEntity
8
0
6
ByLayer
62
256
370
9
100
AcDbMText
10
-20.4
20
7.4
30
0
40
0.10767
41
0.9421125
71
1
72
5
1
Height: 185cm
7
iso
210
0
220
0
230
1
50
0
73
2
44
1
0
MTEXT
5
2A3
100
AcDbEntity
8
0
6
ByLayer
62
256
370
9
100
AcDbMText
10
-20.4
20
7.2
30
0
40
0.10767
41
0.9421125
71
1
72
5
1
Weight: 116kg
7
iso
210
0
220
0
230
1
50
0
73
2
44
1
0
MTEXT
5
2A4
100
AcDbEntity
8
0
6
ByLayer
62
256
370
9
100
AcDbMText
10
-20.4
20
1.9
30
0
40
0.10767
41
0.9421125
71
1
72
5
1
Height: 185cm
7
iso
210
0
220
0
230
1
50
0
73
2
44
1
0
MTEXT
5
2A5
100
AcDbEntity
8
0
6
ByLayer
62
256
370
9
100
AcDbMText
10
-20.4
20
1.7
30
0
40
0.10767
41
0.9421125
71
1
72
5
1
Weight: 116kg
7
iso
210
0
220
0
230
1
50
0
73
2
44
1
0
MTEXT
5
2A6
100
AcDbEntity
8
0
6
ByLayer
62
256
370
9
100
AcDbMText
10
19.5
20
2.3
30
0
40
0.10767
41
0.9421125
71
1
72
5
1
Height: 185cm
7
iso
210
0
220
0
230
1
50
0
73
2
44
1
0
MTEXT
5
2A7
100
AcDbEntity
8
0
6
ByLayer
62
256
370
9
100
AcDbMText
10
19.5
20
2.1
30
0
40
0.10767
41
0.9421125
71
1
72
5
1
Weight: 116kg
7
iso
210
0
220
0
230
1
50
0
73
2
44
1
0
MTEXT
5
2A8
100
AcDbEntity
8
0
6
ByLayer
62
256
370
9
100
AcDbMText
10
19.7
20
7.7
30
0
40
0.10767
41
0.9421125
71
1
72
5
1
Height: 185cm
7
iso
210
0
220
0
230
1
50
0
73
2
44
1
0
MTEXT
5
2A9
100
AcDbEntity
8
0
6
ByLayer
62
256
370
9
100
AcDbMText
10
19.7
20
7.5
30
0
40
0.10767
41
0.9421125
71
1
72
5
1
Weight: 116kg
7
iso
210
0
220
0
230
1
50
0
73
2
44
1
0
MTEXT
5
2AA
100
AcDbEntity
8
0
6
ByLayer
62
256
370
9
100
AcDbMText
10
19.5
20
13.2
30
0
40
0.10767
41
0.9421125
71
1
72
5
1
Height: 185cm
7
iso
210
0
220
0
230
1
50
0
73
2
44
1
0
MTEXT
5
2AB
100
AcDbEntity
8
0
6
ByLayer
62
256
370
9
100
AcDbMText
10
19.5
20
13
30
0
40
0.10767
41
0.9421125
71
1
72
5
1
Weight: 116kg
7
iso
210
0
220
0
230
1
50
0
73
2
44
1
0
MTEXT
5
2AC
100
AcDbEntity
8
0
6
ByLayer
62
256
370
9
100
AcDbMText
10
19.5
20
19.3
30
0
40
0.10767
41
0.9421125
71
1
72
5
1
Height: 185cm
7
iso
210
0
220
0
230
1
50
0
73
2
44
1
0
MTEXT
5
2AD
100
AcDbEntity
8
0
6
ByLayer
62
256
370
9
100
AcDbMText
10
19.5
20
19.1
30
0
40
0.10767
41
0.9421125
71
1
72
5
1
Weight: 116kg
7
iso
210
0
220
0
230
1
50
0
73
2
44
1
0
MTEXT
5
2AE
100
AcDbEntity
8
0
6
ByLayer
62
256
370
9
100
AcDbMText
10
19.5
20
24.2
30
0
40
0.10767
41
0.9421125
71
1
72
5
1
Height: 185cm
7
iso
210
0
220
0
230
1
50
0
73
2
44
1
0
MTEXT
5
2AF
100
AcDbEntity
8
0
6
ByLayer
62
256
370
9
100
AcDbMText
10
19.5
20
24
30
0
40
0.10767
41
0.9421125
71
1
72
5
1
Weight: 116kg
7
iso
210
0
220
0
230
1
50
0
73
2
44
1
0
MTEXT
5
2B0
100
AcDbEntity
8
0
6
ByLayer
62
256
370
9
100
AcDbMText
10
19.5
20
30.2
30
0
40
0.10767
41
0.9421125
71
1
72
5
1
Height: 185cm
7
iso
210
0
220
0
230
1
50
0
73
2
44
1
0
MTEXT
5
2B1
100
AcDbEntity
8
0
6
ByLayer
62
256
370
9
100
AcDbMText
10
19.5
20
30
30
0
40
0.10767
41
0.9421125
71
1
72
5
1
Weight: 116kg
7
iso
210
0
220
0
230
1
50
0
73
2
44
1
0
MTEXT
5
2B2
100
AcDbEntity
8
0
6
ByLayer
62
256
370
9
100
AcDbMText
10
19.6
20
35.5
30
0
40
0.10767
41
0.9421125
71
1
72
5
1
Height: 185cm
7
iso
210
0
220
0
230
1
50
0
73
2
44
1
0
MTEXT
5
2B3
100
AcDbEntity
8
0
6
ByLayer
62
256
370
9
100
AcDbMText
10
19.6
20
35.3
30
0
40
0.10767
41
0.9421125
71
1
72
5
1
Weight: 116kg
7
iso
210
0
220
0
230
1
50
0
73
2
44
1
0
MTEXT
5
2B4
100
AcDbEntity
8
0
6
ByLayer
62
256
370
9
100
AcDbMText
10
19.6
20
40.5
30
0
40
0.10767
41
0.9421125
71
1
72
5
1
Height: 185cm
7
iso
210
0
220
0
230
1
50
0
73
2
44
1
0
MTEXT
5
2B5
100
AcDbEntity
8
0
6
ByLayer
62
256
370
9
100
AcDbMText
10
19.6
20
40.3
30
0
40
0.10767
41
0.9421125
71
1
72
5
1
Weight: 116kg
7
iso
210
0
220
0
230
1
50
0
73
2
44
1
0
MTEXT
5
2B6
100
AcDbEntity
8
0
6
ByLayer
62
256
370
9
100
AcDbMText
10
19.6
20
45.2
30
0
40
0.10767
41
0.9421125
71
1
72
5
1
Height: 185cm
7
iso
210
0
220
0
230
1
50
0
73
2
44
1
0
MTEXT
5
2B7
100
AcDbEntity
8
0
6
ByLayer
62
256
370
9
100
AcDbMText
10
19.6
20
45
30
0
40
0.10767
41
0.9421125
71
1
72
5
1
Weight: 116kg
7
iso
210
0
220
0
230
1
50
0
73
2
44
1
0
MTEXT
5
2B8
100
AcDbEntity
8
0
6
ByLayer
62
256
370
9
100
AcDbMText
10
19.6
20
50.2
30
0
40
0.10767
41
0.9421125
71
1
72
5
1
Height: 185cm
7
iso
210
0
220
0
230
1
50
0
73
2
44
1
0
MTEXT
5
2B9
100
AcDbEntity
8
0
6
ByLayer
62
256
370
9
100
AcDbMText
10
19.6
20
50
30
0
40
0.10767
41
0.9421125
71
1
72
5
1
Weight: 116kg
7
iso
210
0
220
0
230
1
50
0
73
2
44
1
0
MTEXT
5
2BA
100
AcDbEntity
8
0
6
ByLayer
62
256
370
9
100
AcDbMText
10
19.3
20
55.2
30
0
40
0.10767
41
1.5342975
71
1
72
5
1
Upper Back Plate #7
7
iso
210
0
220
0
230
1
50
0
73
2
44
1
0
MTEXT
5
2BB
100
AcDbEntity
8
0
6
ByLayer
62
256
370
9
100
AcDbMText
10
19.5752201011
20
54.8140361812
30
0
40
0.10767
41
0.9421125
71
1
72
5
1
Height: 185cm
7
iso
210
0
220
0
230
1
50
0
73
2
44
1
0
MTEXT
5
2BC
100
AcDbEntity
8
0
6
ByLayer
62
256
370
9
100
AcDbMText
10
19.5752201011
20
54.6140361812
30
0
40
0.10767
41
0.9421125
71
1
72
5
1
Weight: 116kg
7
iso
210
0
220
0
230
1
50
0
73
2
44
1
0
ENDSEC
0
SECTION
2
OBJECTS
0
DICTIONARY
5
C
330
0
100
AcDbDictionary
281
1
3
ACAD_GROUP
350
D
0
DICTIONARY
5
D
330
C
100
AcDbDictionary
281
1
0
ENDSEC
0
EOF
