999
dxfrw 0.5.10
0
SECTION
2
HEADER
9
$ACADVER
1
AC1021
9
$HANDSEED
5
20000
9
$DWGCODEPAGE
3
ANSI_1252
9
$INSBASE
10
0
20
0
30
0
9
$EXTMIN
10
-30.8181876706
20
-12.2649253237
30
0
9
$EXTMAX
10
32.969664
20
26.7498
30
0
9
$LIMMIN
10
0
20
0
9
$LIMMAX
10
420
20
297
9
$ORTHOMODE
70
0
9
$LTSCALE
40
1
9
$TEXTSTYLE
7
STANDARD
9
$CLAYER
8
0
9
$DIMASZ
40
0.1
9
$DIMLFAC
40
1
9
$DIMSCALE
40
1
9
$DIMEXO
40
0.025
9
$DIMEXE
40
0.05
9
$DIMTXT
40
0.1
9
$DIMTSZ
40
0
9
$DIMAUNIT
70
0
9
$DIMADEC
70
2
9
$DIMLUNIT
70
2
9
$DIMSTYLE
2
Standard
9
$DIMGAP
40
0.025
9
$DIMTIH
70
0
9
$LUNITS
70
2
9
$LUPREC
70
4
9
$AUNITS
70
0
9
$AUPREC
70
2
9
$SPLINESEGS
70
8
9
$GRIDMODE
70
1
9
$SNAPSTYLE
70
0
9
$GRIDUNIT
10
0
20
0
9
$PINSBASE
10
-1.32515356233
20
-7.2502019319
30
0
9
$PLIMMIN
10
0
20
0
9
$PLIMMAX
10
17.0078740157
20
10.9842519685
9
$INSUNITS
70
1
9
$PSVPSCALE
40
1
0
ENDSEC
0
SECTION
2
CLASSES
0
ENDSEC
0
SECTION
2
TABLES
0
TABLE
2
VPORT
5
8
330
0
100
AcDbSymbolTable
70
1
0
VPORT
5
31
330
2
100
AcDbSymbolTableRecord
100
AcDbViewportTableRecord
2
*ACTIVE
70
0
10
0
20
0
11
1
21
1
12
20.8168091666
22
28.5447884893
13
0
23
0
14
10
24
10
15
10
25
10
16
0
26
0
36
1
17
0
27
0
37
0
40
95.3813664153
41
1.04087591241
42
50
43
0
44
0
50
0
51
0
71
0
72
100
73
1
74
3
75
0
76
1
77
0
78
0
281
0
65
1
110
0
120
0
130
0
111
1
121
0
131
0
112
0
122
1
132
0
79
0
146
0
348
10020
60
7
61
5
292
1
282
1
141
0
142
0
63
250
421
3358443
0
ENDTAB
0
TABLE
2
LTYPE
5
5
330
0
100
AcDbSymbolTable
70
4
0
LTYPE
5
14
330
5
100
AcDbSymbolTableRecord
100
AcDbLinetypeTableRecord
2
ByBlock
70
0
3

72
65
73
0
40
0
0
LTYPE
5
15
330
5
100
AcDbSymbolTableRecord
100
AcDbLinetypeTableRecord
2
ByLayer
70
0
3

72
65
73
0
40
0
0
LTYPE
5
16
330
5
100
AcDbSymbolTableRecord
100
AcDbLinetypeTableRecord
2
Continuous
70
0
3
Solid line
72
65
73
0
40
0
0
LTYPE
5
32
330
5
100
AcDbSymbolTableRecord
100
AcDbLinetypeTableRecord
2
DOT
70
0
3
Dot . . . . . . . . . . . . . . . . . . . . . .
72
65
73
2
40
6.35
49
0
74
0
49
-6.35
74
0
0
LTYPE
5
33
330
5
100
AcDbSymbolTableRecord
100
AcDbLinetypeTableRecord
2
DOT2
70
0
3
Dot (.5x) .....................................
72
65
73
2
40
3.175
49
0
74
0
49
-3.175
74
0
0
LTYPE
5
34
330
5
100
AcDbSymbolTableRecord
100
AcDbLinetypeTableRecord
2
DOTX2
70
0
3
Dot (2x) .  .  .  .  .  .  .  .  .  .  .  .  .
72
65
73
2
40
12.7
49
0
74
0
49
-12.7
74
0
0
LTYPE
5
35
330
5
100
AcDbSymbolTableRecord
100
AcDbLinetypeTableRecord
2
DASHED
70
0
3
Dot . . . . . . . . . . . . . . . . . . . . . .
72
65
73
2
40
19.05
49
12.7
74
0
49
-6.35
74
0
0
LTYPE
5
36
330
5
100
AcDbSymbolTableRecord
100
AcDbLinetypeTableRecord
2
DASHED2
70
0
3
Dashed (.5x) _ _ _ _ _ _ _ _ _ _ _ _ _ _ _ _ _
72
65
73
2
40
9.525
49
6.35
74
0
49
-3.175
74
0
0
LTYPE
5
37
330
5
100
AcDbSymbolTableRecord
100
AcDbLinetypeTableRecord
2
DASHEDX2
70
0
3
Dashed (2x) ____  ____  ____  ____  ____  ___
72
65
73
2
40
38.1
49
25.4
74
0
49
-12.7
74
0
0
LTYPE
5
38
330
5
100
AcDbSymbolTableRecord
100
AcDbLinetypeTableRecord
2
DASHDOT
70
0
3
Dash dot __ . __ . __ . __ . __ . __ . __ . __
72
65
73
4
40
25.4
49
12.7
74
0
49
-6.35
74
0
49
0
74
0
49
-6.35
74
0
0
LTYPE
5
39
330
5
100
AcDbSymbolTableRecord
100
AcDbLinetypeTableRecord
2
DASHDOT2
70
0
3
Dash dot (.5x) _._._._._._._._._._._._._._._.
72
65
73
4
40
12.7
49
6.35
74
0
49
-3.175
74
0
49
0
74
0
49
-3.175
74
0
0
LTYPE
5
3A
330
5
100
AcDbSymbolTableRecord
100
AcDbLinetypeTableRecord
2
DASHDOTX2
70
0
3
Dash dot (2x) ____  .  ____  .  ____  .  ___
72
65
73
4
40
50.8
49
25.4
74
0
49
-12.7
74
0
49
0
74
0
49
-12.7
74
0
0
LTYPE
5
3B
330
5
100
AcDbSymbolTableRecord
100
AcDbLinetypeTableRecord
2
DIVIDE
70
0
3
Divide ____ . . ____ . . ____ . . ____ . . ____
72
65
73
6
40
31.75
49
12.7
74
0
49
-6.35
74
0
49
0
74
0
49
-6.35
74
0
49
0
74
0
49
-6.35
74
0
0
LTYPE
5
3C
330
5
100
AcDbSymbolTableRecord
100
AcDbLinetypeTableRecord
2
DIVIDE2
70
0
3
Divide (.5x) __..__..__..__..__..__..__..__.._
72
65
73
6
40
15.875
49
6.35
74
0
49
-3.175
74
0
49
0
74
0
49
-3.175
74
0
49
0
74
0
49
-3.175
74
0
0
LTYPE
5
3D
330
5
100
AcDbSymbolTableRecord
100
AcDbLinetypeTableRecord
2
DIVIDEX2
70
0
3
Divide (2x) ________  .  .  ________  .  .  _
72
65
73
6
40
63.5
49
25.4
74
0
49
-12.7
74
0
49
0
74
0
49
-12.7
74
0
49
0
74
0
49
-12.7
74
0
0
LTYPE
5
3E
330
5
100
AcDbSymbolTableRecord
100
AcDbLinetypeTableRecord
2
BORDER
70
0
3
Border __ __ . __ __ . __ __ . __ __ . __ __ .
72
65
73
6
40
44.45
49
12.7
74
0
49
-6.35
74
0
49
12.7
74
0
49
-6.35
74
0
49
0
74
0
49
-6.35
74
0
0
LTYPE
5
3F
330
5
100
AcDbSymbolTableRecord
100
AcDbLinetypeTableRecord
2
BORDER2
70
0
3
Border (.5x) __.__.__.__.__.__.__.__.__.__.__.
72
65
73
6
40
22.225
49
6.35
74
0
49
-3.175
74
0
49
6.35
74
0
49
-3.175
74
0
49
0
74
0
49
-3.175
74
0
0
LTYPE
5
40
330
5
100
AcDbSymbolTableRecord
100
AcDbLinetypeTableRecord
2
BORDERX2
70
0
3
Border (2x) ____  ____  .  ____  ____  .  ___
72
65
73
6
40
88.9
49
25.4
74
0
49
-12.7
74
0
49
25.4
74
0
49
-12.7
74
0
49
0
74
0
49
-12.7
74
0
0
LTYPE
5
41
330
5
100
AcDbSymbolTableRecord
100
AcDbLinetypeTableRecord
2
CENTER
70
0
3
Center ____ _ ____ _ ____ _ ____ _ ____ _ ____
72
65
73
4
40
50.8
49
31.75
74
0
49
-6.35
74
0
49
6.35
74
0
49
-6.35
74
0
0
LTYPE
5
42
330
5
100
AcDbSymbolTableRecord
100
AcDbLinetypeTableRecord
2
CENTER2
70
0
3
Center (.5x) ___ _ ___ _ ___ _ ___ _ ___ _ ___
72
65
73
4
40
28.575
49
19.05
74
0
49
-3.175
74
0
49
3.175
74
0
49
-3.175
74
0
0
LTYPE
5
43
330
5
100
AcDbSymbolTableRecord
100
AcDbLinetypeTableRecord
2
CENTERX2
70
0
3
Center (2x) ________  __  ________  __  _____
72
65
73
4
40
101.6
49
63.5
74
0
49
-12.7
74
0
49
12.7
74
0
49
-12.7
74
0
0
ENDTAB
0
TABLE
2
LAYER
5
2
330
0
100
AcDbSymbolTable
70
1
0
LAYER
5
10
330
2
100
AcDbSymbolTableRecord
100
AcDbLayerTableRecord
2
0
70
0
62
7
6
CONTINUOUS
370
9
390
F
0
LAYER
5
44
330
2
100
AcDbSymbolTableRecord
100
AcDbLayerTableRecord
2
Layer_1
70
0
62
7
6
CONTINUOUS
370
9
390
F
0
ENDTAB
0
TABLE
2
STYLE
5
3
330
0
100
AcDbSymbolTable
70
3
0
STYLE
5
45
330
2
100
AcDbSymbolTableRecord
100
AcDbTextStyleTableRecord
2
iso
70
0
40
0
41
1
50
0
71
0
42
1
3
iso
4

0
STYLE
5
46
330
2
100
AcDbSymbolTableRecord
100
AcDbTextStyleTableRecord
2
Standard
70
0
40
0
41
1
50
0
71
0
42
1
3
txt
4

0
ENDTAB
0
TABLE
2
VIEW
5
6
330
0
100
AcDbSymbolTable
70
0
0
ENDTAB
0
TABLE
2
UCS
5
7
330
0
100
AcDbSymbolTable
70
0
0
ENDTAB
0
TABLE
2
APPID
5
9
330
0
100
AcDbSymbolTable
70
1
0
APPID
5
12
330
9
100
AcDbSymbolTableRecord
100
AcDbRegAppTableRecord
2
ACAD
70
0
0
ENDTAB
0
TABLE
2
DIMSTYLE
5
A
330
0
100
AcDbSymbolTable
70
1
100
AcDbDimStyleTable
71
1
0
DIMSTYLE
105
47
330
A
100
AcDbSymbolTableRecord
100
AcDbDimStyleTableRecord
2
Standard
70
0
40
1
41
0.1
42
0.025
43
0.38
44
0.05
45
0
46
0
47
0
48
0
140
0.1
141
0.09
142
0
143
25.4
144
1
145
0
146
1
147
0.025
148
0
71
0
72
0
73
0
74
1
75
0
76
0
77
0
78
0
79
0
170
0
171
2
172
0
173
0
174
0
175
0
176
0
177
0
178
0
179
0
271
4
272
4
273
2
274
2
275
0
276
0
277
2
278
46
279
0
280
0
281
0
282
0
283
1
284
0
285
0
286
0
288
0
289
3
340
Standard
341

371
-2
372
-2
0
ENDTAB
0
TABLE
2
BLOCK_RECORD
5
1
330
0
100
AcDbSymbolTable
70
2
0
BLOCK_RECORD
5
1F
330
1
100
AcDbSymbolTableRecord
100
AcDbBlockTableRecord
2
*Model_Space
70
0
280
1
281
0
0
BLOCK_RECORD
5
1E
330
1
100
AcDbSymbolTableRecord
100
AcDbBlockTableRecord
2
*Paper_Space
70
0
280
1
281
0
0
ENDTAB
0
ENDSEC
0
SECTION
2
BLOCKS
0
BLOCK
5
20
330
1F
100
AcDbEntity
8
0
100
AcDbBlockBegin
2
*Model_Space
70
0
10
0
20
0
30
0
3
*Model_Space
1

0
ENDBLK
5
21
330
1F
100
AcDbEntity
8
0
100
AcDbBlockEnd
0
BLOCK
5
1C
330
1B
100
AcDbEntity
8
0
100
AcDbBlockBegin
2
*Paper_Space
70
0
10
0
20
0
30
0
3
*Paper_Space
1

0
ENDBLK
5
1D
330
1F
100
AcDbEntity
8
0
100
AcDbBlockEnd
0
ENDSEC
0
SECTION
2
ENTITIES
0
LINE
5
48
100
AcDbEntity
8
Layer_1
6
ByLayer
62
256
370
9
100
AcDbLine
10
-14.911074
20
-0.8547
11
-16.201782
21
-10.8339
0
ELLIPSE
5
49
100
AcDbEntity
8
Layer_1
6
ByLayer
62
256
370
9
100
AcDbEllipse
10
-8.742632544
20
17.622099637
30
0
11
1.76804525251e-15
21
29.4558360607
31
0
40
0.98025974026
41
2.88029833082
42
3.4344255805
0
LINE
5
4A
100
AcDbEntity
8
Layer_1
6
ByLayer
62
256
370
9
100
AcDbLine
10
-0.407592
20
-10.5798
11
-2.71728
21
-0.63525
0
ELLIPSE
5
4B
100
AcDbEntity
8
Layer_1
6
ByLayer
62
256
370
9
100
AcDbEllipse
10
-9.2808756153
20
26.2422014347
30
0
11
1.6625894665e-15
21
27.6989306083
31
0
40
0.98025974026
41
2.93271978789
42
3.38574505369
0
MTEXT
5
4C
100
AcDbEntity
8
Layer_1
6
ByLayer
62
256
370
9
100
AcDbMText
10
-14.7186
20
-4.62
30
0
40
0.90576
41
11.9761604658
71
1
72
5
1
Inside Canvas Shell\PFauld Panel\PCut out 4 of these
7
iso
210
0
220
0
230
1
50
0
73
2
44
1
0
ELLIPSE
5
4D
100
AcDbEntity
8
Layer_1
6
ByLayer
62
256
370
9
100
AcDbEllipse
10
-30.3371995596
20
30.6817127353
30
0
11
3.77551320828e-16
21
6.29004817328
31
0
40
0.98025974026
41
3.11678482325
42
3.86991516959
0
LINE
5
4E
100
AcDbEntity
8
Layer_1
6
ByLayer
62
256
370
9
100
AcDbLine
10
-26.233074
20
25.9875
11
-23.504472
21
25.62252
0
LINE
5
4F
100
AcDbEntity
8
Layer_1
6
ByLayer
62
256
370
9
100
AcDbLine
10
-23.504472
20
25.62252
11
-20.03994
21
13.86
0
ELLIPSE
5
50
100
AcDbEntity
8
Layer_1
6
ByLayer
62
256
370
9
100
AcDbEllipse
10
-13.9470494957
20
17.8964106017
30
0
11
4.44847928055e-16
21
7.41121734421
31
0
40
0.98025974026
41
2.1467505297
42
2.73944203226
0
LINE
5
51
100
AcDbEntity
8
Layer_1
6
ByLayer
62
256
370
9
100
AcDbLine
10
-16.790526
20
11.07645
11
-17.537778
21
0.6006
0
ELLIPSE
5
52
100
AcDbEntity
8
Layer_1
6
ByLayer
62
256
370
9
100
AcDbEllipse
10
-25.9240543716
20
-68.2134874751
30
0
11
4.16226727499e-15
21
69.3438487047
31
0
40
0.98025974026
41
6.15949718733
42
0.0628839622251
0
ELLIPSE
5
53
100
AcDbEntity
8
Layer_1
6
ByLayer
62
256
370
9
100
AcDbEllipse
10
430.727145525
20
24.7483003967
30
0
11
2.82593835664e-14
21
470.804561325
31
0
40
0.98025974026
41
1.59171693732
42
1.62127394164
0
ELLIPSE
5
54
100
AcDbEntity
8
Layer_1
6
ByLayer
62
256
370
9
100
AcDbEllipse
10
19.8388134147
20
18.6776646342
30
0
11
3.10184671167e-15
21
51.677120874
31
0
40
0.98025974026
41
1.47164749761
42
1.64397259015
0
ELLIPSE
5
55
100
AcDbEntity
8
Layer_1
6
ByLayer
62
256
370
9
100
AcDbEllipse
10
-22.740237
20
23.0235923077
30
0
11
4.81617325482e-16
21
8.02379970947
31
0
40
0.98025974026
41
1.39921262635
42
1.4747580723
0
MTEXT
5
56
100
AcDbEntity
8
Layer_1
6
ByLayer
62
256
370
9
100
AcDbMText
10
-29.89008
20
10.9725
30
0
40
0.90576
41
11.8755204658
71
1
72
5
1
Inside Canvas Shell\PBack Panel \PCut out 2 of these
7
iso
210
0
220
0
230
1
50
0
73
2
44
1
0
LINE
5
57
100
AcDbEntity
8
Layer_1
6
ByLayer
62
256
370
9
100
AcDbLine
10
-5.88744
20
22.2684
11
-8.77455
21
20.79
0
ELLIPSE
5
58
100
AcDbEntity
8
Layer_1
6
ByLayer
62
256
370
9
100
AcDbEllipse
10
-2.26989738729
20
27.5622640535
30
0
11
3.87345205023e-16
21
6.45321540378
31
0
40
0.98025974026
41
2.53281065792
42
3.10486752309
0
ELLIPSE
5
59
100
AcDbEntity
8
Layer_1
6
ByLayer
62
256
370
9
100
AcDbEllipse
10
-103.350399237
20
14.9062053192
30
0
11
6.18640305938e-15
21
103.066182307
31
0
40
0.98025974026
41
4.65401754388
42
4.7726507755
0
ELLIPSE
5
5A
100
AcDbEntity
8
Layer_1
6
ByLayer
62
256
370
9
100
AcDbEllipse
10
-173.572762359
20
11.4337211698
30
0
11
1.04768559863e-14
21
174.545618629
31
0
40
0.98025974026
41
4.65532237101
42
4.69783512984
0
ELLIPSE
5
5B
100
AcDbEntity
8
Layer_1
6
ByLayer
62
256
370
9
100
AcDbEllipse
10
-20.0437983258
20
21.8091089006
30
0
11
6.92748450352e-16
21
11.54126839
31
0
40
0.98025974026
41
3.51266490393
42
4.62397253546
0
ELLIPSE
5
5C
100
AcDbEntity
8
Layer_1
6
ByLayer
62
256
370
9
100
AcDbEllipse
10
-2.93055519709
20
-86.7803284205
30
0
11
5.29761778264e-15
21
88.2589179752
31
0
40
0.98025974026
41
6.28111276627
42
0.141169558795
0
LINE
5
5D
100
AcDbEntity
8
Layer_1
6
ByLayer
62
256
370
9
100
AcDbLine
10
-15.941376
20
11.05335
11
-15.103548
21
0.6006
0
MTEXT
5
5E
100
AcDbEntity
8
Layer_1
6
ByLayer
62
256
370
9
100
AcDbMText
10
-14.83182
20
10.9725
30
0
40
0.90576
41
11.8755204658
71
1
72
5
1
Inside Canvas Shell\PFront Panel\PCut out 2 of these
7
iso
210
0
220
0
230
1
50
0
73
2
44
1
0
LINE
5
5F
100
AcDbEntity
8
Layer_1
6
ByLayer
62
256
370
9
100
AcDbLine
10
2.43423
20
-0.8778
11
0.407592
21
-11.63085
0
ELLIPSE
5
60
100
AcDbEntity
8
Layer_1
6
ByLayer
62
256
370
9
100
AcDbEllipse
10
7.78829493461
20
32.7556889424
30
0
11
2.70229923721e-15
21
45.0206142661
31
0
40
0.98025974026
41
2.97356113282
42
3.35436247355
0
LINE
5
61
100
AcDbEntity
8
Layer_1
6
ByLayer
62
256
370
9
100
AcDbLine
10
17.107542
20
-11.2497
11
15.182802
21
-0.4851
0
ELLIPSE
5
62
100
AcDbEntity
8
Layer_1
6
ByLayer
62
256
370
9
100
AcDbEllipse
10
8.03785867148
20
25.3548711513
30
0
11
1.61153143447e-15
21
26.8482979568
31
0
40
0.98025974026
41
2.92703265976
42
3.41652506724
0
MTEXT
5
63
100
AcDbEntity
8
Layer_1
6
ByLayer
62
256
370
9
100
AcDbMText
10
4.5288
20
-3.465
30
0
40
0.5661
41
10.5672002911
71
1
72
5
1
Outside Leather Shell\PFauld Panel\P\PCut out 4 of these, 2 with \Pthe pattern face up and 2\Pwith it face down.
7
iso
210
0
220
0
230
1
50
0
73
2
44
1
0
ELLIPSE
5
64
100
AcDbEntity
8
Layer_1
6
ByLayer
62
256
370
9
100
AcDbEllipse
10
2.870127
20
31.652775
30
0
11
5.88621672003e-16
21
9.80650435712
31
0
40
0.98025974026
41
3.17752297042
42
3.35099964778
0
ELLIPSE
5
65
100
AcDbEntity
8
Layer_1
6
ByLayer
62
256
370
9
100
AcDbEllipse
10
3.87621414659
20
26.2658187173
30
0
11
2.5962762937e-16
21
4.32542599048
31
0
40
0.98025974026
41
3.3778010395
42
3.98469070148
0
LINE
5
66
100
AcDbEntity
8
Layer_1
6
ByLayer
62
256
370
9
100
AcDbLine
10
7.042284
20
23.38875
11
10.201122
21
21.6216
0
LINE
5
67
100
AcDbEntity
8
Layer_1
6
ByLayer
62
256
370
9
100
AcDbLine
10
10.201122
20
21.6216
11
10.47285
21
21.17115
0
ELLIPSE
5
68
100
AcDbEntity
8
Layer_1
6
ByLayer
62
256
370
9
100
AcDbEllipse
10
37.4562669755
20
24.1610765338
30
0
11
1.66197587477e-15
21
27.6887080999
31
0
40
0.98025974026
41
1.67899089762
42
1.859211057
0
ELLIPSE
5
69
100
AcDbEntity
8
Layer_1
6
ByLayer
62
256
370
9
100
AcDbEllipse
10
76.9747711407
20
12.2593772543
30
0
11
4.55301468481e-15
21
75.8537452294
31
0
40
0.98025974026
41
1.44398674154
42
1.60451729836
0
ELLIPSE
5
6A
100
AcDbEntity
8
Layer_1
6
ByLayer
62
256
370
9
100
AcDbEllipse
10
-19631.0771055
20
-78.2425874999
30
0
11
1.20223129511e-12
21
20029.3108367
31
0
40
0.98025974026
41
4.7163663238
42
4.71677978898
0
ELLIPSE
5
6B
100
AcDbEntity
8
Layer_1
6
ByLayer
62
256
370
9
100
AcDbEllipse
10
20.2473637575
20
20.0893048125
30
0
11
5.85904888431e-16
21
9.76124243218
31
0
40
0.98025974026
41
1.97108530592
42
2.80725913599
0
ELLIPSE
5
6C
100
AcDbEntity
8
Layer_1
6
ByLayer
62
256
370
9
100
AcDbEllipse
10
1.96946724907
20
-71.4260271021
30
0
11
4.37274509606e-15
21
72.8504332691
31
0
40
0.98025974026
41
6.09417949305
42
6.27303046355
0
LINE
5
6D
100
AcDbEntity
8
Layer_1
6
ByLayer
62
256
370
9
100
AcDbLine
10
15.386598
20
0.12705
11
17.107542
21
10.86855
0
LINE
5
6E
100
AcDbEntity
8
Layer_1
6
ByLayer
62
256
370
9
100
AcDbLine
10
25.259382
20
26.13765
11
25.633008
21
26.4033
0
LINE
5
6F
100
AcDbEntity
8
Layer_1
6
ByLayer
62
256
370
9
100
AcDbLine
10
25.633008
20
26.4033
11
27.942696
21
26.7498
0
ELLIPSE
5
70
100
AcDbEntity
8
Layer_1
6
ByLayer
62
256
370
9
100
AcDbEllipse
10
33.1116707872
20
32.1973452128
30
0
11
4.5507617668e-16
21
7.58162113577
31
0
40
0.98025974026
41
2.37246812509
42
2.85502721135
0
ELLIPSE
5
71
100
AcDbEntity
8
Layer_1
6
ByLayer
62
256
370
9
100
AcDbEllipse
10
34.1024031428
20
37.40275
30
0
11
7.72516910517e-16
21
12.8702200569
31
0
40
0.98025974026
41
2.89403320393
42
3.02190745093
0
ELLIPSE
5
72
100
AcDbEntity
8
Layer_1
6
ByLayer
62
256
370
9
100
AcDbEllipse
10
-42.2470546868
20
16.8778637676
30
0
11
4.60634680791e-15
21
76.7422644981
31
0
40
0.98025974026
41
4.72920301421
42
4.81350605507
0
ELLIPSE
5
73
100
AcDbEntity
8
Layer_1
6
ByLayer
62
256
370
9
100
AcDbEllipse
10
-414.670030788
20
27.157057496
30
0
11
2.74153357476e-14
21
456.742628157
31
0
40
0.98025974026
41
4.65388371406
42
4.69270724431
0
ELLIPSE
5
74
100
AcDbEntity
8
Layer_1
6
ByLayer
62
256
370
9
100
AcDbEllipse
10
27.2792572043
20
-60.9240171037
30
0
11
3.6966729081e-15
21
61.5869933173
31
0
40
0.98025974026
41
6.20008517436
42
0.133436723895
0
LINE
5
75
100
AcDbEntity
8
Layer_1
6
ByLayer
62
256
370
9
100
AcDbLine
10
25.259382
20
26.13765
11
21.489156
21
13.8138
0
LINE
5
76
100
AcDbEntity
8
Layer_1
6
ByLayer
62
256
370
9
100
AcDbLine
10
19.2474
20
0.1155
11
18.194454
21
10.72995
0
ELLIPSE
5
77
100
AcDbEntity
8
Layer_1
6
ByLayer
62
256
370
9
100
AcDbEllipse
10
12.1073984307
20
22.0903523077
30
0
11
7.7711045888e-16
21
12.9467490978
31
0
40
0.98025974026
41
3.6418244287
42
3.92197334146
0
ELLIPSE
5
78
100
AcDbEntity
8
Layer_1
6
ByLayer
62
256
370
9
100
AcDbEllipse
10
16.75656
20
15.65025
30
0
11
3.10044786575e-16
21
5.16538159409
31
0
40
0.98025974026
41
4.1485752065
42
4.34890753628
0
MTEXT
5
79
100
AcDbEntity
8
Layer_1
6
ByLayer
62
256
370
9
100
AcDbMText
10
4.5288
20
10.395
30
0
40
0.5661
41
10.3785002911
71
1
72
5
1
Outside Leather Shell\PFront Panel\P\PCut out 2 of these, 1 with \Pthe pattern face up and 1\Pwith it face down.
7
iso
210
0
220
0
230
1
50
0
73
2
44
1
0
MTEXT
5
7A
100
AcDbEntity
8
Layer_1
6
ByLayer
62
256
370
9
100
AcDbMText
10
21.5118
20
10.395
30
0
40
0.5661
41
10.3785002911
71
1
72
5
1
Outside Leather Shell\PBack Panel\P\PCut out 2 of these, 1 with \Pthe pattern face up and 1\Pwith it face down.
7
iso
210
0
220
0
230
1
50
0
73
2
44
1
0
ENDSEC
0
SECTION
2
OBJECTS
0
DICTIONARY
5
C
330
0
100
AcDbDictionary
281
1
3
ACAD_GROUP
350
D
0
DICTIONARY
5
D
330
C
100
AcDbDictionary
281
1
0
ENDSEC
0
EOF
