999
dxfrw 0.5.10
0
SECTION
2
HEADER
9
$ACADVER
1
AC1021
9
$HANDSEED
5
20000
9
$DWGCODEPAGE
3
ANSI_1252
9
$INSBASE
10
0
20
0
30
0
9
$EXTMIN
10
-27.2197382712
20
-10.6189829643
30
0
9
$EXTMAX
10
29.12
20
23.16
30
0
9
$LIMMIN
10
0
20
0
9
$LIMMAX
10
420
20
297
9
$ORTHOMODE
70
0
9
$LTSCALE
40
1
9
$TEXTSTYLE
7
STANDARD
9
$CLAYER
8
0
9
$DIMASZ
40
0.1
9
$DIMLFAC
40
1
9
$DIMSCALE
40
1
9
$DIMEXO
40
0.025
9
$DIMEXE
40
0.05
9
$DIMTXT
40
0.1
9
$DIMTSZ
40
0
9
$DIMAUNIT
70
0
9
$DIMADEC
70
2
9
$DIMLUNIT
70
2
9
$DIMSTYLE
2
Standard
9
$DIMGAP
40
0.025
9
$DIMTIH
70
0
9
$LUNITS
70
2
9
$LUPREC
70
4
9
$AUNITS
70
0
9
$AUPREC
70
2
9
$SPLINESEGS
70
8
9
$GRIDMODE
70
1
9
$SNAPSTYLE
70
0
9
$GRIDUNIT
10
0
20
0
9
$PINSBASE
10
31.2516793463
20
-10.6629778301
30
0
9
$PLIMMIN
10
0
20
0
9
$PLIMMAX
10
17.9921259843
20
12.0078740157
9
$INSUNITS
70
1
9
$PSVPSCALE
40
1
0
ENDSEC
0
SECTION
2
CLASSES
0
ENDSEC
0
SECTION
2
TABLES
0
TABLE
2
VPORT
5
8
330
0
100
AcDbSymbolTable
70
1
0
VPORT
5
31
330
2
100
AcDbSymbolTableRecord
100
AcDbViewportTableRecord
2
*ACTIVE
70
0
10
0
20
0
11
1
21
1
12
-8.96320282963
22
-4.71747517349
13
0
23
0
14
10
24
10
15
10
25
10
16
0
26
0
36
1
17
0
27
0
37
0
40
4.02557881471
41
1.71875
42
50
43
0
44
0
50
0
51
0
71
0
72
100
73
1
74
3
75
0
76
1
77
0
78
0
281
0
65
1
110
0
120
0
130
0
111
1
121
0
131
0
112
0
122
1
132
0
79
0
146
0
348
10020
60
7
61
5
292
1
282
1
141
0
142
0
63
250
421
3358443
0
ENDTAB
0
TABLE
2
LTYPE
5
5
330
0
100
AcDbSymbolTable
70
4
0
LTYPE
5
14
330
5
100
AcDbSymbolTableRecord
100
AcDbLinetypeTableRecord
2
ByBlock
70
0
3

72
65
73
0
40
0
0
LTYPE
5
15
330
5
100
AcDbSymbolTableRecord
100
AcDbLinetypeTableRecord
2
ByLayer
70
0
3

72
65
73
0
40
0
0
LTYPE
5
16
330
5
100
AcDbSymbolTableRecord
100
AcDbLinetypeTableRecord
2
Continuous
70
0
3
Solid line
72
65
73
0
40
0
0
LTYPE
5
32
330
5
100
AcDbSymbolTableRecord
100
AcDbLinetypeTableRecord
2
DOT
70
0
3
Dot . . . . . . . . . . . . . . . . . . . . . .
72
65
73
2
40
6.35
49
0
74
0
49
-6.35
74
0
0
LTYPE
5
33
330
5
100
AcDbSymbolTableRecord
100
AcDbLinetypeTableRecord
2
DOT2
70
0
3
Dot (.5x) .....................................
72
65
73
2
40
3.175
49
0
74
0
49
-3.175
74
0
0
LTYPE
5
34
330
5
100
AcDbSymbolTableRecord
100
AcDbLinetypeTableRecord
2
DOTX2
70
0
3
Dot (2x) .  .  .  .  .  .  .  .  .  .  .  .  .
72
65
73
2
40
12.7
49
0
74
0
49
-12.7
74
0
0
LTYPE
5
35
330
5
100
AcDbSymbolTableRecord
100
AcDbLinetypeTableRecord
2
DASHED
70
0
3
Dot . . . . . . . . . . . . . . . . . . . . . .
72
65
73
2
40
19.05
49
12.7
74
0
49
-6.35
74
0
0
LTYPE
5
36
330
5
100
AcDbSymbolTableRecord
100
AcDbLinetypeTableRecord
2
DASHED2
70
0
3
Dashed (.5x) _ _ _ _ _ _ _ _ _ _ _ _ _ _ _ _ _
72
65
73
2
40
9.525
49
6.35
74
0
49
-3.175
74
0
0
LTYPE
5
37
330
5
100
AcDbSymbolTableRecord
100
AcDbLinetypeTableRecord
2
DASHEDX2
70
0
3
Dashed (2x) ____  ____  ____  ____  ____  ___
72
65
73
2
40
38.1
49
25.4
74
0
49
-12.7
74
0
0
LTYPE
5
38
330
5
100
AcDbSymbolTableRecord
100
AcDbLinetypeTableRecord
2
DASHDOT
70
0
3
Dash dot __ . __ . __ . __ . __ . __ . __ . __
72
65
73
4
40
25.4
49
12.7
74
0
49
-6.35
74
0
49
0
74
0
49
-6.35
74
0
0
LTYPE
5
39
330
5
100
AcDbSymbolTableRecord
100
AcDbLinetypeTableRecord
2
DASHDOT2
70
0
3
Dash dot (.5x) _._._._._._._._._._._._._._._.
72
65
73
4
40
12.7
49
6.35
74
0
49
-3.175
74
0
49
0
74
0
49
-3.175
74
0
0
LTYPE
5
3A
330
5
100
AcDbSymbolTableRecord
100
AcDbLinetypeTableRecord
2
DASHDOTX2
70
0
3
Dash dot (2x) ____  .  ____  .  ____  .  ___
72
65
73
4
40
50.8
49
25.4
74
0
49
-12.7
74
0
49
0
74
0
49
-12.7
74
0
0
LTYPE
5
3B
330
5
100
AcDbSymbolTableRecord
100
AcDbLinetypeTableRecord
2
DIVIDE
70
0
3
Divide ____ . . ____ . . ____ . . ____ . . ____
72
65
73
6
40
31.75
49
12.7
74
0
49
-6.35
74
0
49
0
74
0
49
-6.35
74
0
49
0
74
0
49
-6.35
74
0
0
LTYPE
5
3C
330
5
100
AcDbSymbolTableRecord
100
AcDbLinetypeTableRecord
2
DIVIDE2
70
0
3
Divide (.5x) __..__..__..__..__..__..__..__.._
72
65
73
6
40
15.875
49
6.35
74
0
49
-3.175
74
0
49
0
74
0
49
-3.175
74
0
49
0
74
0
49
-3.175
74
0
0
LTYPE
5
3D
330
5
100
AcDbSymbolTableRecord
100
AcDbLinetypeTableRecord
2
DIVIDEX2
70
0
3
Divide (2x) ________  .  .  ________  .  .  _
72
65
73
6
40
63.5
49
25.4
74
0
49
-12.7
74
0
49
0
74
0
49
-12.7
74
0
49
0
74
0
49
-12.7
74
0
0
LTYPE
5
3E
330
5
100
AcDbSymbolTableRecord
100
AcDbLinetypeTableRecord
2
BORDER
70
0
3
Border __ __ . __ __ . __ __ . __ __ . __ __ .
72
65
73
6
40
44.45
49
12.7
74
0
49
-6.35
74
0
49
12.7
74
0
49
-6.35
74
0
49
0
74
0
49
-6.35
74
0
0
LTYPE
5
3F
330
5
100
AcDbSymbolTableRecord
100
AcDbLinetypeTableRecord
2
BORDER2
70
0
3
Border (.5x) __.__.__.__.__.__.__.__.__.__.__.
72
65
73
6
40
22.225
49
6.35
74
0
49
-3.175
74
0
49
6.35
74
0
49
-3.175
74
0
49
0
74
0
49
-3.175
74
0
0
LTYPE
5
40
330
5
100
AcDbSymbolTableRecord
100
AcDbLinetypeTableRecord
2
BORDERX2
70
0
3
Border (2x) ____  ____  .  ____  ____  .  ___
72
65
73
6
40
88.9
49
25.4
74
0
49
-12.7
74
0
49
25.4
74
0
49
-12.7
74
0
49
0
74
0
49
-12.7
74
0
0
LTYPE
5
41
330
5
100
AcDbSymbolTableRecord
100
AcDbLinetypeTableRecord
2
CENTER
70
0
3
Center ____ _ ____ _ ____ _ ____ _ ____ _ ____
72
65
73
4
40
50.8
49
31.75
74
0
49
-6.35
74
0
49
6.35
74
0
49
-6.35
74
0
0
LTYPE
5
42
330
5
100
AcDbSymbolTableRecord
100
AcDbLinetypeTableRecord
2
CENTER2
70
0
3
Center (.5x) ___ _ ___ _ ___ _ ___ _ ___ _ ___
72
65
73
4
40
28.575
49
19.05
74
0
49
-3.175
74
0
49
3.175
74
0
49
-3.175
74
0
0
LTYPE
5
43
330
5
100
AcDbSymbolTableRecord
100
AcDbLinetypeTableRecord
2
CENTERX2
70
0
3
Center (2x) ________  __  ________  __  _____
72
65
73
4
40
101.6
49
63.5
74
0
49
-12.7
74
0
49
12.7
74
0
49
-12.7
74
0
0
ENDTAB
0
TABLE
2
LAYER
5
2
330
0
100
AcDbSymbolTable
70
1
0
LAYER
5
10
330
2
100
AcDbSymbolTableRecord
100
AcDbLayerTableRecord
2
0
70
0
62
7
6
CONTINUOUS
370
-3
390
F
0
LAYER
5
44
330
2
100
AcDbSymbolTableRecord
100
AcDbLayerTableRecord
2
Layer_1
70
0
62
7
6
CONTINUOUS
370
-3
390
F
0
ENDTAB
0
TABLE
2
STYLE
5
3
330
0
100
AcDbSymbolTable
70
3
0
STYLE
5
45
330
2
100
AcDbSymbolTableRecord
100
AcDbTextStyleTableRecord
2
iso
70
0
40
0
41
1
50
0
71
0
42
1
3
iso
4

0
STYLE
5
46
330
2
100
AcDbSymbolTableRecord
100
AcDbTextStyleTableRecord
2
Standard
70
0
40
0
41
1
50
0
71
0
42
1
3
txt
4

0
ENDTAB
0
TABLE
2
VIEW
5
6
330
0
100
AcDbSymbolTable
70
0
0
ENDTAB
0
TABLE
2
UCS
5
7
330
0
100
AcDbSymbolTable
70
0
0
ENDTAB
0
TABLE
2
APPID
5
9
330
0
100
AcDbSymbolTable
70
1
0
APPID
5
12
330
9
100
AcDbSymbolTableRecord
100
AcDbRegAppTableRecord
2
ACAD
70
0
0
ENDTAB
0
TABLE
2
DIMSTYLE
5
A
330
0
100
AcDbSymbolTable
70
1
100
AcDbDimStyleTable
71
1
0
DIMSTYLE
105
47
330
A
100
AcDbSymbolTableRecord
100
AcDbDimStyleTableRecord
2
Standard
70
0
40
1
41
0.1
42
0.025
43
0.38
44
0.05
45
0
46
0
47
0
48
0
140
0.1
141
0.09
142
0
143
25.4
144
1
145
0
146
1
147
0.025
148
0
71
0
72
0
73
0
74
1
75
0
76
0
77
0
78
0
79
0
170
0
171
2
172
0
173
0
174
0
175
0
176
0
177
0
178
0
179
0
271
4
272
4
273
2
274
2
275
0
276
0
277
2
278
46
279
0
280
0
281
0
282
0
283
1
284
0
285
0
286
0
288
0
289
3
340
Standard
341

371
-2
372
-2
0
ENDTAB
0
TABLE
2
BLOCK_RECORD
5
1
330
0
100
AcDbSymbolTable
70
2
0
BLOCK_RECORD
5
1F
330
1
100
AcDbSymbolTableRecord
100
AcDbBlockTableRecord
2
*Model_Space
70
0
280
1
281
0
0
BLOCK_RECORD
5
1E
330
1
100
AcDbSymbolTableRecord
100
AcDbBlockTableRecord
2
*Paper_Space
70
0
280
1
281
0
0
ENDTAB
0
ENDSEC
0
SECTION
2
BLOCKS
0
BLOCK
5
20
330
1F
100
AcDbEntity
8
0
100
AcDbBlockBegin
2
*Model_Space
70
0
10
0
20
0
30
0
3
*Model_Space
1

0
ENDBLK
5
21
330
1F
100
AcDbEntity
8
0
100
AcDbBlockEnd
0
BLOCK
5
1C
330
1B
100
AcDbEntity
8
0
100
AcDbBlockBegin
2
*Paper_Space
70
0
10
0
20
0
30
0
3
*Paper_Space
1

0
ENDBLK
5
1D
330
1F
100
AcDbEntity
8
0
100
AcDbBlockEnd
0
ENDSEC
0
SECTION
2
ENTITIES
0
LINE
5
48
100
AcDbEntity
8
Layer_1
6
ByLayer
62
256
370
-1
100
AcDbLine
10
-13.17
20
-0.74
11
-14.31
21
-9.38
0
ARC
5
49
100
AcDbEntity
8
Layer_1
6
ByLayer
62
256
370
-1
100
AcDbCircle
10
-7.72180934817
20
15.2572291229
40
25.5028883642
100
AcDbArc
50
255.028938094
51
286.778090814
0
LINE
5
4A
100
AcDbEntity
8
Layer_1
6
ByLayer
62
256
370
-1
100
AcDbLine
10
-0.36
20
-9.16
11
-2.4
21
-0.55
0
ARC
5
4B
100
AcDbEntity
8
Layer_1
6
ByLayer
62
256
370
-1
100
AcDbCircle
10
-8.19720510096
20
22.7205207226
40
23.9817581025
100
AcDbArc
50
258.03246634
51
283.988902083
0
MTEXT
5
4C
100
AcDbEntity
8
Layer_1
6
ByLayer
62
256
370
-1
100
AcDbMText
10
-13
20
-4
30
0
40
0.8
41
10.5777781892
71
1
72
5
1
Inside Canvas Shell\PFauld Panel\PCut out 4 of these
7
iso
210
0
220
0
230
1
50
0
73
1
44
0.96
0
ARC
5
4D
100
AcDbEntity
8
Layer_1
6
ByLayer
62
256
370
-1
100
AcDbCircle
10
-26.7949121706
20
26.5642534504
40
5.44592915436
100
AcDbArc
50
268.578616023
51
311.729806291
0
LINE
5
4E
100
AcDbEntity
8
Layer_1
6
ByLayer
62
256
370
-1
100
AcDbLine
10
-23.17
20
22.5
11
-20.76
21
22.184
0
LINE
5
4F
100
AcDbEntity
8
Layer_1
6
ByLayer
62
256
370
-1
100
AcDbLine
10
-20.76
20
22.184
11
-17.7
21
12
0
ARC
5
50
100
AcDbEntity
8
Layer_1
6
ByLayer
62
256
370
-1
100
AcDbCircle
10
-12.3185386819
20
15.4947277937
40
6.41663839325
100
AcDbArc
50
212.999745019
51
246.958466669
0
LINE
5
51
100
AcDbEntity
8
Layer_1
6
ByLayer
62
256
370
-1
100
AcDbLine
10
-14.83
20
9.59
11
-15.49
21
0.52
0
ARC
5
52
100
AcDbEntity
8
Layer_1
6
ByLayer
62
256
370
-1
100
AcDbCircle
10
-22.8970626847
20
-59.0592965152
40
60.0379642465
100
AcDbArc
50
82.9131927572
51
93.6029856344
0
ARC
5
53
100
AcDbEntity
8
Layer_1
6
ByLayer
62
256
370
-1
100
AcDbCircle
10
380.433797497
20
21.4270999106
40
407.622996818
100
AcDbArc
50
181.198662687
51
182.89215429
0
ARC
5
54
100
AcDbEntity
8
Layer_1
6
ByLayer
62
256
370
-1
100
AcDbCircle
10
17.5223577236
20
16.1711382114
40
44.7420959948
100
AcDbArc
50
174.319190544
51
184.19269105
0
ARC
5
55
100
AcDbEntity
8
Layer_1
6
ByLayer
62
256
370
-1
100
AcDbCircle
10
-20.085
20
19.9338461538
40
6.94701273547
100
AcDbArc
50
170.168978131
51
174.497413346
0
MTEXT
5
56
100
AcDbEntity
8
Layer_1
6
ByLayer
62
256
370
-1
100
AcDbMText
10
-26.4
20
9.5
30
0
40
0.8
41
10.4888893003
71
1
72
5
1
Inside Canvas Shell\PBack Panel \PCut out 2 of these
7
iso
210
0
220
0
230
1
50
0
73
1
44
0.96
0
LINE
5
57
100
AcDbEntity
8
Layer_1
6
ByLayer
62
256
370
-1
100
AcDbLine
10
-5.2
20
19.28
11
-7.75
21
18
0
ARC
5
58
100
AcDbEntity
8
Layer_1
6
ByLayer
62
256
370
-1
100
AcDbCircle
10
-2.00485549133
20
23.8634320809
40
5.5871994838
100
AcDbArc
50
235.119361005
51
267.89580502
0
ARC
5
59
100
AcDbEntity
8
Layer_1
6
ByLayer
62
256
370
-1
100
AcDbCircle
10
-91.2828115502
20
12.9058054711
40
89.2347898764
100
AcDbArc
50
356.655563044
51
3.45274652577
0
ARC
5
5A
100
AcDbEntity
8
Layer_1
6
ByLayer
62
256
370
-1
100
AcDbCircle
10
-153.305743119
20
9.89932568807
40
151.12174773
100
AcDbArc
50
356.730324132
51
359.166125788
0
ARC
5
5B
100
AcDbEntity
8
Layer_1
6
ByLayer
62
256
370
-1
100
AcDbCircle
10
-17.703407813
20
18.8823453685
40
9.99244016446
100
AcDbArc
50
291.260873839
51
354.934110866
0
ARC
5
5C
100
AcDbEntity
8
Layer_1
6
ByLayer
62
256
370
-1
100
AcDbCircle
10
-2.5883723698
20
-75.1344834809
40
76.4146475976
100
AcDbArc
50
89.8812521531
51
98.0884199148
0
LINE
5
5D
100
AcDbEntity
8
Layer_1
6
ByLayer
62
256
370
-1
100
AcDbLine
10
-14.08
20
9.57
11
-13.34
21
0.52
0
MTEXT
5
5E
100
AcDbEntity
8
Layer_1
6
ByLayer
62
256
370
-1
100
AcDbMText
10
-13.1
20
9.5
30
0
40
0.8
41
10.4888893003
71
1
72
5
1
Inside Canvas Shell\PFront Panel\PCut out 2 of these
7
iso
210
0
220
0
230
1
50
0
73
1
44
0.96
0
LINE
5
5F
100
AcDbEntity
8
Layer_1
6
ByLayer
62
256
370
-1
100
AcDbLine
10
2.15
20
-0.76
11
0.36
21
-10.07
0
ARC
5
60
100
AcDbEntity
8
Layer_1
6
ByLayer
62
256
370
-1
100
AcDbCircle
10
6.87890384615
20
28.3599038462
40
38.9788868104
100
AcDbArc
50
260.372503034
51
282.190812691
0
LINE
5
61
100
AcDbEntity
8
Layer_1
6
ByLayer
62
256
370
-1
100
AcDbLine
10
15.11
20
-9.74
11
13.41
21
-0.42
0
ARC
5
62
100
AcDbEntity
8
Layer_1
6
ByLayer
62
256
370
-1
100
AcDbCircle
10
7.09932756711
20
21.9522693951
40
23.2452796163
100
AcDbArc
50
257.706617901
51
285.752466953
0
MTEXT
5
63
100
AcDbEntity
8
Layer_1
6
ByLayer
62
256
370
-1
100
AcDbMText
10
4
20
-3
30
0
40
0.5
41
9.33333359048
71
1
72
5
1
Outside Leather Shell\PFauld Panel\P\PCut out 4 of these, 2 with \Pthe pattern face up and 2\Pwith it face down.
7
iso
210
0
220
0
230
1
50
0
73
1
44
0.96
0
ARC
5
64
100
AcDbEntity
8
Layer_1
6
ByLayer
62
256
370
-1
100
AcDbCircle
10
2.535
20
27.405
40
8.49047996287
100
AcDbArc
50
272.058655511
51
281.998136967
0
ARC
5
65
100
AcDbEntity
8
Layer_1
6
ByLayer
62
256
370
-1
100
AcDbCircle
10
3.42361256544
20
22.7409685864
40
3.74495756752
100
AcDbArc
50
283.533743598
51
318.305959859
0
LINE
5
66
100
AcDbEntity
8
Layer_1
6
ByLayer
62
256
370
-1
100
AcDbLine
10
6.22
20
20.25
11
9.01
21
18.72
0
LINE
5
67
100
AcDbEntity
8
Layer_1
6
ByLayer
62
256
370
-1
100
AcDbLine
10
9.01
20
18.72
11
9.25
21
18.33
0
ARC
5
68
100
AcDbEntity
8
Layer_1
6
ByLayer
62
256
370
-1
100
AcDbCircle
10
33.0827300613
20
20.9186809816
40
23.9729074457
100
AcDbArc
50
186.199092274
51
196.52494679
0
ARC
5
69
100
AcDbEntity
8
Layer_1
6
ByLayer
62
256
370
-1
100
AcDbCircle
10
67.986902615
20
10.6141794409
40
65.6742382939
100
AcDbArc
50
172.734345963
51
181.932069352
0
ARC
5
6A
100
AcDbEntity
8
Layer_1
6
ByLayer
62
256
370
-1
100
AcDbCircle
10
-17338.8775
20
-67.7424999999
40
17341.3946638
100
AcDbArc
50
0.227884991275
51
0.251574800887
0
ARC
5
6B
100
AcDbEntity
8
Layer_1
6
ByLayer
62
256
370
-1
100
AcDbCircle
10
17.8832041667
20
17.3933375
40
8.45129214907
100
AcDbArc
50
202.934869089
51
250.844100491
0
ARC
5
6C
100
AcDbEntity
8
Layer_1
6
ByLayer
62
256
370
-1
100
AcDbCircle
10
1.73950472449
20
-61.8407161057
40
63.0739681984
100
AcDbArc
50
79.1707645472
51
89.4181703188
0
LINE
5
6D
100
AcDbEntity
8
Layer_1
6
ByLayer
62
256
370
-1
100
AcDbLine
10
13.59
20
0.11
11
15.11
21
9.41
0
LINE
5
6E
100
AcDbEntity
8
Layer_1
6
ByLayer
62
256
370
-1
100
AcDbLine
10
22.31
20
22.63
11
22.64
21
22.86
0
LINE
5
6F
100
AcDbEntity
8
Layer_1
6
ByLayer
62
256
370
-1
100
AcDbLine
10
22.64
20
22.86
11
24.68
21
23.16
0
ARC
5
70
100
AcDbEntity
8
Layer_1
6
ByLayer
62
256
370
-1
100
AcDbCircle
10
29.2454255319
20
27.8764893617
40
6.56417414352
100
AcDbArc
50
225.932410597
51
253.581009605
0
ARC
5
71
100
AcDbEntity
8
Layer_1
6
ByLayer
62
256
370
-1
100
AcDbCircle
10
30.1204761905
20
32.3833333333
40
11.1430476683
100
AcDbArc
50
255.815888355
51
263.142543017
0
ARC
5
72
100
AcDbEntity
8
Layer_1
6
ByLayer
62
256
370
-1
100
AcDbCircle
10
-37.314127086
20
14.6128690629
40
66.443519046
100
AcDbArc
50
0.963373174603
51
5.79358161647
0
ARC
5
73
100
AcDbEntity
8
Layer_1
6
ByLayer
62
256
370
-1
100
AcDbCircle
10
-366.251572856
20
23.5126038927
40
395.448162907
100
AcDbArc
50
356.64789516
51
358.872319589
0
ARC
5
74
100
AcDbEntity
8
Layer_1
6
ByLayer
62
256
370
-1
100
AcDbCircle
10
24.0940268541
20
-52.7480667565
40
53.3220721362
100
AcDbArc
50
85.2387131126
51
97.645361111
0
LINE
5
75
100
AcDbEntity
8
Layer_1
6
ByLayer
62
256
370
-1
100
AcDbLine
10
22.31
20
22.63
11
18.98
21
11.96
0
LINE
5
76
100
AcDbEntity
8
Layer_1
6
ByLayer
62
256
370
-1
100
AcDbLine
10
17
20
0.1
11
16.07
21
9.29
0
ARC
5
77
100
AcDbEntity
8
Layer_1
6
ByLayer
62
256
370
-1
100
AcDbCircle
10
10.6936923077
20
19.1258461538
40
11.2093065782
100
AcDbArc
50
298.661169492
51
314.712519828
0
ARC
5
78
100
AcDbEntity
8
Layer_1
6
ByLayer
62
256
370
-1
100
AcDbCircle
10
14.8
20
13.55
40
4.47219185635
100
AcDbArc
50
327.695850325
51
339.174047321
0
MTEXT
5
79
100
AcDbEntity
8
Layer_1
6
ByLayer
62
256
370
-1
100
AcDbMText
10
4
20
9
30
0
40
0.5
41
9.16666692381
71
1
72
5
1
Outside Leather Shell\PFront Panel\P\PCut out 2 of these, 1 with \Pthe pattern face up and 1\Pwith it face down.
7
iso
210
0
220
0
230
1
50
0
73
1
44
0.96
0
MTEXT
5
7A
100
AcDbEntity
8
Layer_1
6
ByLayer
62
256
370
-1
100
AcDbMText
10
19
20
9
30
0
40
0.5
41
9.16666692381
71
1
72
5
1
Outside Leather Shell\PBack Panel\P\PCut out 2 of these, 1 with \Pthe pattern face up and 1\Pwith it face down.
7
iso
210
0
220
0
230
1
50
0
73
1
44
0.96
0
ENDSEC
0
SECTION
2
OBJECTS
0
DICTIONARY
5
C
330
0
100
AcDbDictionary
281
1
3
ACAD_GROUP
350
D
0
DICTIONARY
5
D
330
C
100
AcDbDictionary
281
1
0
ENDSEC
0
EOF
