999
dxfrw 0.5.8
0
SECTION
2
HEADER
9
$ACADVER
1
AC1021
9
$HANDSEED
5
20000
9
$DWGCODEPAGE
3
ANSI_1252
9
$INSBASE
10
0
20
0
30
0
9
$EXTMIN
10
-9.88755156432
20
-0.3
30
0
9
$EXTMAX
10
9.88755156432
20
30.2
30
0
9
$LIMMIN
10
0
20
0
9
$LIMMAX
10
420
20
297
9
$ORTHOMODE
70
0
9
$LTSCALE
40
1
9
$TEXTSTYLE
7
STANDARD
9
$DIMASZ
40
0.1
9
$DIMSCALE
40
1
9
$DIMEXO
40
0.025
9
$DIMEXE
40
0.05
9
$DIMTXT
40
0.1
9
$DIMTSZ
40
0
9
$DIMAUNIT
70
0
9
$DIMADEC
70
2
9
$DIMLUNIT
70
2
9
$DIMSTYLE
2
Standard
9
$DIMGAP
40
0.025
9
$DIMTIH
70
0
9
$LUNITS
70
2
9
$LUPREC
70
4
9
$AUNITS
70
0
9
$AUPREC
70
2
9
$SPLINESEGS
70
8
9
$GRIDMODE
70
1
9
$SNAPSTYLE
70
0
9
$GRIDUNIT
10
0
20
0
9
$PINSBASE
10
0.34969536263
20
-16.671241625
30
0
9
$PLIMMIN
10
0
20
0
9
$PLIMMAX
10
17.0078740157
20
10.9842519685
9
$INSUNITS
70
1
9
$PSVPSCALE
40
1
0
ENDSEC
0
SECTION
2
CLASSES
0
ENDSEC
0
SECTION
2
TABLES
0
TABLE
2
VPORT
5
8
330
0
100
AcDbSymbolTable
70
1
0
VPORT
5
31
330
2
100
AcDbSymbolTableRecord
100
AcDbViewportTableRecord
2
*ACTIVE
70
0
10
0
20
0
11
1
21
1
12
-4.87030442529
22
0.409269279436
13
0
23
0
14
10
24
10
15
10
25
10
16
0
26
0
36
1
17
0
27
0
37
0
40
1.74621559226
41
1.71875
42
50
43
0
44
0
50
0
51
0
71
0
72
100
73
1
74
3
75
0
76
1
77
0
78
0
281
0
65
1
110
0
120
0
130
0
111
1
121
0
131
0
112
0
122
1
132
0
79
0
146
0
348
10020
60
7
61
5
292
1
282
1
141
0
142
0
63
250
421
3358443
0
ENDTAB
0
TABLE
2
LTYPE
5
5
330
0
100
AcDbSymbolTable
70
4
0
LTYPE
5
14
330
5
100
AcDbSymbolTableRecord
100
AcDbLinetypeTableRecord
2
ByBlock
70
0
3

72
65
73
0
40
0
0
LTYPE
5
15
330
5
100
AcDbSymbolTableRecord
100
AcDbLinetypeTableRecord
2
ByLayer
70
0
3

72
65
73
0
40
0
0
LTYPE
5
16
330
5
100
AcDbSymbolTableRecord
100
AcDbLinetypeTableRecord
2
Continuous
70
0
3
Solid line
72
65
73
0
40
0
0
LTYPE
5
32
330
5
100
AcDbSymbolTableRecord
100
AcDbLinetypeTableRecord
2
DOT
70
0
3
Dot . . . . . . . . . . . . . . . . . . . . . .
72
65
73
2
40
6.35
49
0
74
0
49
-6.35
74
0
0
LTYPE
5
33
330
5
100
AcDbSymbolTableRecord
100
AcDbLinetypeTableRecord
2
DOT2
70
0
3
Dot (.5x) .....................................
72
65
73
2
40
3.175
49
0
74
0
49
-3.175
74
0
0
LTYPE
5
34
330
5
100
AcDbSymbolTableRecord
100
AcDbLinetypeTableRecord
2
DOTX2
70
0
3
Dot (2x) .  .  .  .  .  .  .  .  .  .  .  .  .
72
65
73
2
40
12.7
49
0
74
0
49
-12.7
74
0
0
LTYPE
5
35
330
5
100
AcDbSymbolTableRecord
100
AcDbLinetypeTableRecord
2
DASHED
70
0
3
Dot . . . . . . . . . . . . . . . . . . . . . .
72
65
73
2
40
19.05
49
12.7
74
0
49
-6.35
74
0
0
LTYPE
5
36
330
5
100
AcDbSymbolTableRecord
100
AcDbLinetypeTableRecord
2
DASHED2
70
0
3
Dashed (.5x) _ _ _ _ _ _ _ _ _ _ _ _ _ _ _ _ _
72
65
73
2
40
9.525
49
6.35
74
0
49
-3.175
74
0
0
LTYPE
5
37
330
5
100
AcDbSymbolTableRecord
100
AcDbLinetypeTableRecord
2
DASHEDX2
70
0
3
Dashed (2x) ____  ____  ____  ____  ____  ___
72
65
73
2
40
38.1
49
25.4
74
0
49
-12.7
74
0
0
LTYPE
5
38
330
5
100
AcDbSymbolTableRecord
100
AcDbLinetypeTableRecord
2
DASHDOT
70
0
3
Dash dot __ . __ . __ . __ . __ . __ . __ . __
72
65
73
4
40
25.4
49
12.7
74
0
49
-6.35
74
0
49
0
74
0
49
-6.35
74
0
0
LTYPE
5
39
330
5
100
AcDbSymbolTableRecord
100
AcDbLinetypeTableRecord
2
DASHDOT2
70
0
3
Dash dot (.5x) _._._._._._._._._._._._._._._.
72
65
73
4
40
12.7
49
6.35
74
0
49
-3.175
74
0
49
0
74
0
49
-3.175
74
0
0
LTYPE
5
3A
330
5
100
AcDbSymbolTableRecord
100
AcDbLinetypeTableRecord
2
DASHDOTX2
70
0
3
Dash dot (2x) ____  .  ____  .  ____  .  ___
72
65
73
4
40
50.8
49
25.4
74
0
49
-12.7
74
0
49
0
74
0
49
-12.7
74
0
0
LTYPE
5
3B
330
5
100
AcDbSymbolTableRecord
100
AcDbLinetypeTableRecord
2
DIVIDE
70
0
3
Divide ____ . . ____ . . ____ . . ____ . . ____
72
65
73
6
40
31.75
49
12.7
74
0
49
-6.35
74
0
49
0
74
0
49
-6.35
74
0
49
0
74
0
49
-6.35
74
0
0
LTYPE
5
3C
330
5
100
AcDbSymbolTableRecord
100
AcDbLinetypeTableRecord
2
DIVIDE2
70
0
3
Divide (.5x) __..__..__..__..__..__..__..__.._
72
65
73
6
40
15.875
49
6.35
74
0
49
-3.175
74
0
49
0
74
0
49
-3.175
74
0
49
0
74
0
49
-3.175
74
0
0
LTYPE
5
3D
330
5
100
AcDbSymbolTableRecord
100
AcDbLinetypeTableRecord
2
DIVIDEX2
70
0
3
Divide (2x) ________  .  .  ________  .  .  _
72
65
73
6
40
63.5
49
25.4
74
0
49
-12.7
74
0
49
0
74
0
49
-12.7
74
0
49
0
74
0
49
-12.7
74
0
0
LTYPE
5
3E
330
5
100
AcDbSymbolTableRecord
100
AcDbLinetypeTableRecord
2
BORDER
70
0
3
Border __ __ . __ __ . __ __ . __ __ . __ __ .
72
65
73
6
40
44.45
49
12.7
74
0
49
-6.35
74
0
49
12.7
74
0
49
-6.35
74
0
49
0
74
0
49
-6.35
74
0
0
LTYPE
5
3F
330
5
100
AcDbSymbolTableRecord
100
AcDbLinetypeTableRecord
2
BORDER2
70
0
3
Border (.5x) __.__.__.__.__.__.__.__.__.__.__.
72
65
73
6
40
22.225
49
6.35
74
0
49
-3.175
74
0
49
6.35
74
0
49
-3.175
74
0
49
0
74
0
49
-3.175
74
0
0
LTYPE
5
40
330
5
100
AcDbSymbolTableRecord
100
AcDbLinetypeTableRecord
2
BORDERX2
70
0
3
Border (2x) ____  ____  .  ____  ____  .  ___
72
65
73
6
40
88.9
49
25.4
74
0
49
-12.7
74
0
49
25.4
74
0
49
-12.7
74
0
49
0
74
0
49
-12.7
74
0
0
LTYPE
5
41
330
5
100
AcDbSymbolTableRecord
100
AcDbLinetypeTableRecord
2
CENTER
70
0
3
Center ____ _ ____ _ ____ _ ____ _ ____ _ ____
72
65
73
4
40
50.8
49
31.75
74
0
49
-6.35
74
0
49
6.35
74
0
49
-6.35
74
0
0
LTYPE
5
42
330
5
100
AcDbSymbolTableRecord
100
AcDbLinetypeTableRecord
2
CENTER2
70
0
3
Center (.5x) ___ _ ___ _ ___ _ ___ _ ___ _ ___
72
65
73
4
40
28.575
49
19.05
74
0
49
-3.175
74
0
49
3.175
74
0
49
-3.175
74
0
0
LTYPE
5
43
330
5
100
AcDbSymbolTableRecord
100
AcDbLinetypeTableRecord
2
CENTERX2
70
0
3
Center (2x) ________  __  ________  __  _____
72
65
73
4
40
101.6
49
63.5
74
0
49
-12.7
74
0
49
12.7
74
0
49
-12.7
74
0
0
ENDTAB
0
TABLE
2
LAYER
5
2
330
0
100
AcDbSymbolTable
70
1
0
LAYER
5
10
330
2
100
AcDbSymbolTableRecord
100
AcDbLayerTableRecord
2
0
70
0
62
7
6
CONTINUOUS
370
-3
390
F
0
LAYER
5
44
330
2
100
AcDbSymbolTableRecord
100
AcDbLayerTableRecord
2
Layer_1
70
0
62
7
6
CONTINUOUS
370
-3
390
F
0
ENDTAB
0
TABLE
2
STYLE
5
3
330
0
100
AcDbSymbolTable
70
3
0
STYLE
5
45
330
2
100
AcDbSymbolTableRecord
100
AcDbTextStyleTableRecord
2
Standard
70
0
40
0
41
1
50
0
71
0
42
1
3
txt
4

0
ENDTAB
0
TABLE
2
VIEW
5
6
330
0
100
AcDbSymbolTable
70
0
0
ENDTAB
0
TABLE
2
UCS
5
7
330
0
100
AcDbSymbolTable
70
0
0
ENDTAB
0
TABLE
2
APPID
5
9
330
0
100
AcDbSymbolTable
70
1
0
APPID
5
12
330
9
100
AcDbSymbolTableRecord
100
AcDbRegAppTableRecord
2
ACAD
70
0
0
ENDTAB
0
TABLE
2
DIMSTYLE
5
A
330
0
100
AcDbSymbolTable
70
1
100
AcDbDimStyleTable
71
1
0
DIMSTYLE
105
46
330
A
100
AcDbSymbolTableRecord
100
AcDbDimStyleTableRecord
2
Standard
70
0
40
1
41
0.1
42
0.025
43
0.38
44
0.05
45
0
46
0
47
0
48
0
140
0.1
141
0.09
142
0
143
25.4
144
1
145
0
146
1
147
0.025
148
0
71
0
72
0
73
0
74
1
75
0
76
0
77
0
78
0
79
0
170
0
171
2
172
0
173
0
174
0
175
0
176
0
177
0
178
0
179
0
271
4
272
4
273
2
274
2
275
0
276
0
277
2
278
46
279
0
280
0
281
0
282
0
283
1
284
0
285
0
286
0
288
0
289
3
340
Standard
341

371
-2
372
-2
0
ENDTAB
0
TABLE
2
BLOCK_RECORD
5
1
330
0
100
AcDbSymbolTable
70
2
0
BLOCK_RECORD
5
1F
330
1
100
AcDbSymbolTableRecord
100
AcDbBlockTableRecord
2
*Model_Space
70
0
280
1
281
0
0
BLOCK_RECORD
5
1E
330
1
100
AcDbSymbolTableRecord
100
AcDbBlockTableRecord
2
*Paper_Space
70
0
280
1
281
0
0
ENDTAB
0
ENDSEC
0
SECTION
2
BLOCKS
0
BLOCK
5
20
330
1F
100
AcDbEntity
8
0
100
AcDbBlockBegin
2
*Model_Space
70
0
10
0
20
0
30
0
3
*Model_Space
1

0
ENDBLK
5
21
330
1F
100
AcDbEntity
8
0
100
AcDbBlockEnd
0
BLOCK
5
1C
330
1B
100
AcDbEntity
8
0
100
AcDbBlockBegin
2
*Paper_Space
70
0
10
0
20
0
30
0
3
*Paper_Space
1

0
ENDBLK
5
1D
330
1F
100
AcDbEntity
8
0
100
AcDbBlockEnd
0
ENDSEC
0
SECTION
2
ENTITIES
0
ARC
5
47
100
AcDbEntity
8
Layer_1
6
ByLayer
62
256
370
-1
100
AcDbCircle
10
11.7
20
15.5
40
8.51469318296
100
AcDbArc
50
123.503436982
51
139.763641691
0
ARC
5
48
100
AcDbEntity
8
Layer_1
6
ByLayer
62
256
370
-1
100
AcDbCircle
10
7.40285714286
20
21.8021428571
40
0.893795221491
100
AcDbArc
50
96.6081869951
51
116.790301473
0
ARC
5
49
100
AcDbEntity
8
Layer_1
6
ByLayer
62
256
370
-1
100
AcDbCircle
10
4.195
20
23.385
40
0.135092560861
100
AcDbArc
50
272.121096397
51
321.009005958
0
LINE
5
4A
100
AcDbEntity
8
Layer_1
6
ByLayer
62
256
370
-1
100
AcDbLine
10
0
20
23.25
11
4.2
21
23.25
0
LINE
5
4B
100
AcDbEntity
8
Layer_1
6
ByLayer
62
256
370
-1
100
AcDbLine
10
2e-16
20
23.25
11
-4.2
21
23.25
0
LWPOLYLINE
5
4C
100
AcDbEntity
8
Layer_1
6
ByLayer
62
256
370
-1
100
AcDbPolyline
90
2
70
0
43
0
10
7.65517128312
20
6.04063245764
10
7.65517128312
20
6.04063245764
0
LWPOLYLINE
5
4D
100
AcDbEntity
8
Layer_1
6
ByLayer
62
256
370
-1
100
AcDbPolyline
90
2
70
0
43
0
10
1.47122329312
20
6.05826811764
10
1.47122329312
20
6.05826811764
0
LWPOLYLINE
5
4E
100
AcDbEntity
8
Layer_1
6
ByLayer
62
256
370
-1
100
AcDbPolyline
90
2
70
0
43
0
10
3.01622329312
20
6.05826811764
10
3.01622329312
20
6.05826811764
0
LWPOLYLINE
5
4F
100
AcDbEntity
8
Layer_1
6
ByLayer
62
256
370
-1
100
AcDbPolyline
90
2
70
0
43
0
10
4.55627311312
20
6.06659978764
10
4.55627311312
20
6.06659978764
0
LWPOLYLINE
5
50
100
AcDbEntity
8
Layer_1
6
ByLayer
62
256
370
-1
100
AcDbPolyline
90
2
70
0
43
0
10
6.11875427312
20
6.06677488764
10
6.11875427312
20
6.06677488764
0
CIRCLE
5
51
100
AcDbEntity
8
Layer_1
6
ByLayer
62
256
370
-1
100
AcDbCircle
10
0
20
6.1
40
0.0981034370395
0
CIRCLE
5
52
100
AcDbEntity
8
Layer_1
6
ByLayer
62
256
370
-1
100
AcDbCircle
10
1.5
20
6.1
40
0.0981034370395
0
CIRCLE
5
53
100
AcDbEntity
8
Layer_1
6
ByLayer
62
256
370
-1
100
AcDbCircle
10
3
20
6.1
40
0.0981034370395
0
CIRCLE
5
54
100
AcDbEntity
8
Layer_1
6
ByLayer
62
256
370
-1
100
AcDbCircle
10
4.5
20
6.1
40
0.0981034370395
0
CIRCLE
5
55
100
AcDbEntity
8
Layer_1
6
ByLayer
62
256
370
-1
100
AcDbCircle
10
6
20
6.1
40
0.0981034370395
0
CIRCLE
5
56
100
AcDbEntity
8
Layer_1
6
ByLayer
62
256
370
-1
100
AcDbCircle
10
0
20
22.9
40
0.1
0
CIRCLE
5
57
100
AcDbEntity
8
Layer_1
6
ByLayer
62
256
370
-1
100
AcDbCircle
10
0.9
20
22.4
40
0.129472887619
0
CIRCLE
5
58
100
AcDbEntity
8
Layer_1
6
ByLayer
62
256
370
-1
100
AcDbCircle
10
0.9
20
21.7
40
0.129472887619
0
CIRCLE
5
59
100
AcDbEntity
8
Layer_1
6
ByLayer
62
256
370
-1
100
AcDbCircle
10
0.9
20
21
40
0.129472887619
0
CIRCLE
5
5A
100
AcDbEntity
8
Layer_1
6
ByLayer
62
256
370
-1
100
AcDbCircle
10
0.9
20
20.3
40
0.129472887619
0
CIRCLE
5
5B
100
AcDbEntity
8
Layer_1
6
ByLayer
62
256
370
-1
100
AcDbCircle
10
0.9
20
19.6
40
0.129472887619
0
CIRCLE
5
5C
100
AcDbEntity
8
Layer_1
6
ByLayer
62
256
370
-1
100
AcDbCircle
10
1.25
20
22.05
40
0.129472887619
0
CIRCLE
5
5D
100
AcDbEntity
8
Layer_1
6
ByLayer
62
256
370
-1
100
AcDbCircle
10
1.25
20
21.35
40
0.129472887619
0
CIRCLE
5
5E
100
AcDbEntity
8
Layer_1
6
ByLayer
62
256
370
-1
100
AcDbCircle
10
1.25
20
20.65
40
0.129472887619
0
CIRCLE
5
5F
100
AcDbEntity
8
Layer_1
6
ByLayer
62
256
370
-1
100
AcDbCircle
10
1.25
20
19.95
40
0.129472887619
0
CIRCLE
5
60
100
AcDbEntity
8
Layer_1
6
ByLayer
62
256
370
-1
100
AcDbCircle
10
1.6
20
22.4
40
0.129472887619
0
CIRCLE
5
61
100
AcDbEntity
8
Layer_1
6
ByLayer
62
256
370
-1
100
AcDbCircle
10
1.6
20
21.7
40
0.129472887619
0
CIRCLE
5
62
100
AcDbEntity
8
Layer_1
6
ByLayer
62
256
370
-1
100
AcDbCircle
10
1.6
20
21
40
0.129472887619
0
CIRCLE
5
63
100
AcDbEntity
8
Layer_1
6
ByLayer
62
256
370
-1
100
AcDbCircle
10
1.6
20
20.3
40
0.129472887619
0
CIRCLE
5
64
100
AcDbEntity
8
Layer_1
6
ByLayer
62
256
370
-1
100
AcDbCircle
10
1.6
20
19.6
40
0.129472887619
0
CIRCLE
5
65
100
AcDbEntity
8
Layer_1
6
ByLayer
62
256
370
-1
100
AcDbCircle
10
1.95
20
22.05
40
0.129472887619
0
CIRCLE
5
66
100
AcDbEntity
8
Layer_1
6
ByLayer
62
256
370
-1
100
AcDbCircle
10
1.95
20
21.35
40
0.129472887619
0
CIRCLE
5
67
100
AcDbEntity
8
Layer_1
6
ByLayer
62
256
370
-1
100
AcDbCircle
10
1.95
20
20.65
40
0.129472887619
0
CIRCLE
5
68
100
AcDbEntity
8
Layer_1
6
ByLayer
62
256
370
-1
100
AcDbCircle
10
1.95
20
19.95
40
0.129472887619
0
CIRCLE
5
69
100
AcDbEntity
8
Layer_1
6
ByLayer
62
256
370
-1
100
AcDbCircle
10
2.3
20
22.4
40
0.129472887619
0
CIRCLE
5
6A
100
AcDbEntity
8
Layer_1
6
ByLayer
62
256
370
-1
100
AcDbCircle
10
2.3
20
21.7
40
0.129472887619
0
CIRCLE
5
6B
100
AcDbEntity
8
Layer_1
6
ByLayer
62
256
370
-1
100
AcDbCircle
10
2.3
20
21
40
0.129472887619
0
CIRCLE
5
6C
100
AcDbEntity
8
Layer_1
6
ByLayer
62
256
370
-1
100
AcDbCircle
10
2.3
20
20.3
40
0.129472887619
0
CIRCLE
5
6D
100
AcDbEntity
8
Layer_1
6
ByLayer
62
256
370
-1
100
AcDbCircle
10
2.65
20
22.05
40
0.129472887619
0
CIRCLE
5
6E
100
AcDbEntity
8
Layer_1
6
ByLayer
62
256
370
-1
100
AcDbCircle
10
2.65
20
21.35
40
0.129472887619
0
CIRCLE
5
6F
100
AcDbEntity
8
Layer_1
6
ByLayer
62
256
370
-1
100
AcDbCircle
10
2.65
20
20.65
40
0.129472887619
0
CIRCLE
5
70
100
AcDbEntity
8
Layer_1
6
ByLayer
62
256
370
-1
100
AcDbCircle
10
3
20
22.4
40
0.129472887619
0
CIRCLE
5
71
100
AcDbEntity
8
Layer_1
6
ByLayer
62
256
370
-1
100
AcDbCircle
10
3
20
21.7
40
0.129472887619
0
CIRCLE
5
72
100
AcDbEntity
8
Layer_1
6
ByLayer
62
256
370
-1
100
AcDbCircle
10
3
20
21
40
0.129472887619
0
CIRCLE
5
73
100
AcDbEntity
8
Layer_1
6
ByLayer
62
256
370
-1
100
AcDbCircle
10
3.35
20
22.05
40
0.129472887619
0
CIRCLE
5
74
100
AcDbEntity
8
Layer_1
6
ByLayer
62
256
370
-1
100
AcDbCircle
10
3.35
20
21.35
40
0.129472887619
0
CIRCLE
5
75
100
AcDbEntity
8
Layer_1
6
ByLayer
62
256
370
-1
100
AcDbCircle
10
3.7
20
22.4
40
0.129472887619
0
CIRCLE
5
76
100
AcDbEntity
8
Layer_1
6
ByLayer
62
256
370
-1
100
AcDbCircle
10
3.7
20
21.7
40
0.129472887619
0
CIRCLE
5
77
100
AcDbEntity
8
Layer_1
6
ByLayer
62
256
370
-1
100
AcDbCircle
10
4.05
20
22.05
40
0.129472887619
0
CIRCLE
5
78
100
AcDbEntity
8
Layer_1
6
ByLayer
62
256
370
-1
100
AcDbCircle
10
-2
20
28.3
40
0.1
0
LINE
5
79
100
AcDbEntity
8
Layer_1
6
ByLayer
62
256
370
-1
100
AcDbLine
10
-1.7
20
28.2
11
-1.7
21
30
0
LINE
5
7A
100
AcDbEntity
8
Layer_1
6
ByLayer
62
256
370
-1
100
AcDbLine
10
-2.3
20
30
11
-2.3
21
28.2
0
ARC
5
7B
100
AcDbEntity
8
Layer_1
6
ByLayer
62
256
370
-1
100
AcDbCircle
10
-2
20
29.875
40
0.325
100
AcDbArc
50
22.619864948
51
157.380135052
0
CIRCLE
5
7C
100
AcDbEntity
8
Layer_1
6
ByLayer
62
256
370
-1
100
AcDbCircle
10
-2
20
29.9
40
0.1
0
ARC
5
7D
100
AcDbEntity
8
Layer_1
6
ByLayer
62
256
370
-1
100
AcDbCircle
10
0
20
28.325
40
0.325
100
AcDbArc
50
202.619864948
51
337.380135052
0
CIRCLE
5
7E
100
AcDbEntity
8
Layer_1
6
ByLayer
62
256
370
-1
100
AcDbCircle
10
4e-16
20
28.3
40
0.1
0
LINE
5
7F
100
AcDbEntity
8
Layer_1
6
ByLayer
62
256
370
-1
100
AcDbLine
10
0.3
20
28.2
11
0.3
21
30
0
LINE
5
80
100
AcDbEntity
8
Layer_1
6
ByLayer
62
256
370
-1
100
AcDbLine
10
-0.3
20
30
11
-0.3
21
28.2
0
ARC
5
81
100
AcDbEntity
8
Layer_1
6
ByLayer
62
256
370
-1
100
AcDbCircle
10
0
20
29.875
40
0.325
100
AcDbArc
50
22.619864948
51
157.380135052
0
CIRCLE
5
82
100
AcDbEntity
8
Layer_1
6
ByLayer
62
256
370
-1
100
AcDbCircle
10
4e-16
20
29.9
40
0.1
0
ARC
5
83
100
AcDbEntity
8
Layer_1
6
ByLayer
62
256
370
-1
100
AcDbCircle
10
2
20
28.325
40
0.325
100
AcDbArc
50
202.619864948
51
337.380135052
0
CIRCLE
5
84
100
AcDbEntity
8
Layer_1
6
ByLayer
62
256
370
-1
100
AcDbCircle
10
2
20
28.3
40
0.1
0
LINE
5
85
100
AcDbEntity
8
Layer_1
6
ByLayer
62
256
370
-1
100
AcDbLine
10
2.3
20
28.2
11
2.3
21
30
0
LINE
5
86
100
AcDbEntity
8
Layer_1
6
ByLayer
62
256
370
-1
100
AcDbLine
10
1.7
20
30
11
1.7
21
28.2
0
ARC
5
87
100
AcDbEntity
8
Layer_1
6
ByLayer
62
256
370
-1
100
AcDbCircle
10
2
20
29.875
40
0.325
100
AcDbArc
50
22.619864948
51
157.380135052
0
CIRCLE
5
88
100
AcDbEntity
8
Layer_1
6
ByLayer
62
256
370
-1
100
AcDbCircle
10
2
20
29.9
40
0.1
0
CIRCLE
5
89
100
AcDbEntity
8
Layer_1
6
ByLayer
62
256
370
-1
100
AcDbCircle
10
-4.39939785098
20
15.4106514963
40
0.0981034370395
0
ARC
5
8A
100
AcDbEntity
8
Layer_1
6
ByLayer
62
256
370
-1
100
AcDbCircle
10
-4.35428571429
20
15.3914285714
40
0.411120916718
100
AcDbArc
50
30.4857337063
51
96.3841639395
0
ARC
5
8B
100
AcDbEntity
8
Layer_1
6
ByLayer
62
256
370
-1
100
AcDbCircle
10
1.82264705882
20
17.2794117647
40
6.06000351873
100
AcDbArc
50
196.089017978
51
252.496343285
0
ARC
5
8C
100
AcDbEntity
8
Layer_1
6
ByLayer
62
256
370
-1
100
AcDbCircle
10
-7.7728125
20
15.040625
40
0.211132779978
100
AcDbArc
50
97.3985024796
51
191.093723012
0
LINE
5
8D
100
AcDbEntity
8
Layer_1
6
ByLayer
62
256
370
-1
100
AcDbLine
10
-7.8
20
15.25
11
-4.4
21
15.8
0
CIRCLE
5
8E
100
AcDbEntity
8
Layer_1
6
ByLayer
62
256
370
-1
100
AcDbCircle
10
-6
20
15.19
40
0.0981034370395
0
ARC
5
8F
100
AcDbEntity
8
Layer_1
6
ByLayer
62
256
370
-1
100
AcDbCircle
10
7.795
20
6.295
40
0.205060966544
100
AcDbArc
50
1.3971810273
51
88.6028189727
0
LWPOLYLINE
5
90
100
AcDbEntity
8
Layer_1
6
ByLayer
62
256
370
-1
100
AcDbPolyline
90
2
70
0
43
0
10
-7.65517128312
20
6.04063245764
10
-7.65517128312
20
6.04063245764
0
LWPOLYLINE
5
91
100
AcDbEntity
8
Layer_1
6
ByLayer
62
256
370
-1
100
AcDbPolyline
90
2
70
0
43
0
10
-1.47122329312
20
6.05826811764
10
-1.47122329312
20
6.05826811764
0
LWPOLYLINE
5
92
100
AcDbEntity
8
Layer_1
6
ByLayer
62
256
370
-1
100
AcDbPolyline
90
2
70
0
43
0
10
-3.01622329312
20
6.05826811764
10
-3.01622329312
20
6.05826811764
0
LWPOLYLINE
5
93
100
AcDbEntity
8
Layer_1
6
ByLayer
62
256
370
-1
100
AcDbPolyline
90
2
70
0
43
0
10
-4.55627311312
20
6.06659978764
10
-4.55627311312
20
6.06659978764
0
LWPOLYLINE
5
94
100
AcDbEntity
8
Layer_1
6
ByLayer
62
256
370
-1
100
AcDbPolyline
90
2
70
0
43
0
10
-6.11875427312
20
6.06677488764
10
-6.11875427312
20
6.06677488764
0
CIRCLE
5
95
100
AcDbEntity
8
Layer_1
6
ByLayer
62
256
370
-1
100
AcDbCircle
10
1.9e-15
20
6.1
40
0.0981034370395
0
CIRCLE
5
96
100
AcDbEntity
8
Layer_1
6
ByLayer
62
256
370
-1
100
AcDbCircle
10
-1.5
20
6.1
40
0.0981034370395
0
CIRCLE
5
97
100
AcDbEntity
8
Layer_1
6
ByLayer
62
256
370
-1
100
AcDbCircle
10
-3
20
6.1
40
0.0981034370395
0
CIRCLE
5
98
100
AcDbEntity
8
Layer_1
6
ByLayer
62
256
370
-1
100
AcDbCircle
10
-4.5
20
6.1
40
0.0981034370395
0
CIRCLE
5
99
100
AcDbEntity
8
Layer_1
6
ByLayer
62
256
370
-1
100
AcDbCircle
10
-6
20
6.1
40
0.0981034370395
0
ARC
5
9A
100
AcDbEntity
8
Layer_1
6
ByLayer
62
256
370
-1
100
AcDbCircle
10
-7.795
20
6.295
40
0.205060966544
100
AcDbArc
50
91.3971810273
51
178.602818973
0
LINE
5
9B
100
AcDbEntity
8
Layer_1
6
ByLayer
62
256
370
-1
100
AcDbLine
10
-7.8
20
6.5
11
7.8
21
6.5
0
ARC
5
9C
100
AcDbEntity
8
Layer_1
6
ByLayer
62
256
370
-1
100
AcDbCircle
10
-7.05
20
31.55
40
16.1667869411
100
AcDbArc
50
296.644298401
51
319.264163349
0
ARC
5
9D
100
AcDbEntity
8
Layer_1
6
ByLayer
62
256
370
-1
100
AcDbCircle
10
1e-16
20
17.475
40
0.425
100
AcDbArc
50
241.927513064
51
298.072486936
0
LINE
5
9E
100
AcDbEntity
8
Layer_1
6
ByLayer
62
256
370
-1
100
AcDbLine
10
7.3
20
22.69
11
9.3
21
22.7
0
ARC
5
9F
100
AcDbEntity
8
Layer_1
6
ByLayer
62
256
370
-1
100
AcDbCircle
10
9.22337662338
20
23.3597402597
40
0.664174940936
100
AcDbArc
50
276.624750609
51
74.5778386813
0
ARC
5
A0
100
AcDbEntity
8
Layer_1
6
ByLayer
62
256
370
-1
100
AcDbCircle
10
14.1538713911
20
45.3498250219
40
21.8726843727
100
AcDbArc
50
235.611026877
51
257.446986887
0
CIRCLE
5
A1
100
AcDbEntity
8
Layer_1
6
ByLayer
62
256
370
-1
100
AcDbCircle
10
9.4
20
23.35
40
0.129472887619
0
ARC
5
A2
100
AcDbEntity
8
Layer_1
6
ByLayer
62
256
370
-1
100
AcDbCircle
10
-11.7
20
15.5
40
8.51469318296
100
AcDbArc
50
40.2363583093
51
56.4965630176
0
ARC
5
A3
100
AcDbEntity
8
Layer_1
6
ByLayer
62
256
370
-1
100
AcDbCircle
10
-7.40285714286
20
21.8021428571
40
0.893795221491
100
AcDbArc
50
63.2096985271
51
83.3918130049
0
ARC
5
A4
100
AcDbEntity
8
Layer_1
6
ByLayer
62
256
370
-1
100
AcDbCircle
10
-4.195
20
23.385
40
0.135092560861
100
AcDbArc
50
218.990994042
51
267.878903603
0
LINE
5
A5
100
AcDbEntity
8
Layer_1
6
ByLayer
62
256
370
-1
100
AcDbLine
10
0
20
23.25
11
-4.2
21
23.25
0
LINE
5
A6
100
AcDbEntity
8
Layer_1
6
ByLayer
62
256
370
-1
100
AcDbLine
10
-2e-16
20
23.25
11
4.2
21
23.25
0
CIRCLE
5
A7
100
AcDbEntity
8
Layer_1
6
ByLayer
62
256
370
-1
100
AcDbCircle
10
-0.9
20
22.4
40
0.129472887619
0
CIRCLE
5
A8
100
AcDbEntity
8
Layer_1
6
ByLayer
62
256
370
-1
100
AcDbCircle
10
-0.9
20
21.7
40
0.129472887619
0
CIRCLE
5
A9
100
AcDbEntity
8
Layer_1
6
ByLayer
62
256
370
-1
100
AcDbCircle
10
-0.9
20
21
40
0.129472887619
0
CIRCLE
5
AA
100
AcDbEntity
8
Layer_1
6
ByLayer
62
256
370
-1
100
AcDbCircle
10
-0.9
20
20.3
40
0.129472887619
0
CIRCLE
5
AB
100
AcDbEntity
8
Layer_1
6
ByLayer
62
256
370
-1
100
AcDbCircle
10
-0.9
20
19.6
40
0.129472887619
0
CIRCLE
5
AC
100
AcDbEntity
8
Layer_1
6
ByLayer
62
256
370
-1
100
AcDbCircle
10
-1.25
20
22.05
40
0.129472887619
0
CIRCLE
5
AD
100
AcDbEntity
8
Layer_1
6
ByLayer
62
256
370
-1
100
AcDbCircle
10
-1.25
20
21.35
40
0.129472887619
0
CIRCLE
5
AE
100
AcDbEntity
8
Layer_1
6
ByLayer
62
256
370
-1
100
AcDbCircle
10
-1.25
20
20.65
40
0.129472887619
0
CIRCLE
5
AF
100
AcDbEntity
8
Layer_1
6
ByLayer
62
256
370
-1
100
AcDbCircle
10
-1.25
20
19.95
40
0.129472887619
0
CIRCLE
5
B0
100
AcDbEntity
8
Layer_1
6
ByLayer
62
256
370
-1
100
AcDbCircle
10
-1.6
20
22.4
40
0.129472887619
0
CIRCLE
5
B1
100
AcDbEntity
8
Layer_1
6
ByLayer
62
256
370
-1
100
AcDbCircle
10
-1.6
20
21.7
40
0.129472887619
0
CIRCLE
5
B2
100
AcDbEntity
8
Layer_1
6
ByLayer
62
256
370
-1
100
AcDbCircle
10
-1.6
20
21
40
0.129472887619
0
CIRCLE
5
B3
100
AcDbEntity
8
Layer_1
6
ByLayer
62
256
370
-1
100
AcDbCircle
10
-1.6
20
20.3
40
0.129472887619
0
CIRCLE
5
B4
100
AcDbEntity
8
Layer_1
6
ByLayer
62
256
370
-1
100
AcDbCircle
10
-1.6
20
19.6
40
0.129472887619
0
CIRCLE
5
B5
100
AcDbEntity
8
Layer_1
6
ByLayer
62
256
370
-1
100
AcDbCircle
10
-1.95
20
22.05
40
0.129472887619
0
CIRCLE
5
B6
100
AcDbEntity
8
Layer_1
6
ByLayer
62
256
370
-1
100
AcDbCircle
10
-1.95
20
21.35
40
0.129472887619
0
CIRCLE
5
B7
100
AcDbEntity
8
Layer_1
6
ByLayer
62
256
370
-1
100
AcDbCircle
10
-1.95
20
20.65
40
0.129472887619
0
CIRCLE
5
B8
100
AcDbEntity
8
Layer_1
6
ByLayer
62
256
370
-1
100
AcDbCircle
10
-1.95
20
19.95
40
0.129472887619
0
CIRCLE
5
B9
100
AcDbEntity
8
Layer_1
6
ByLayer
62
256
370
-1
100
AcDbCircle
10
-2.3
20
22.4
40
0.129472887619
0
CIRCLE
5
BA
100
AcDbEntity
8
Layer_1
6
ByLayer
62
256
370
-1
100
AcDbCircle
10
-2.3
20
21.7
40
0.129472887619
0
CIRCLE
5
BB
100
AcDbEntity
8
Layer_1
6
ByLayer
62
256
370
-1
100
AcDbCircle
10
-2.3
20
21
40
0.129472887619
0
CIRCLE
5
BC
100
AcDbEntity
8
Layer_1
6
ByLayer
62
256
370
-1
100
AcDbCircle
10
-2.3
20
20.3
40
0.129472887619
0
CIRCLE
5
BD
100
AcDbEntity
8
Layer_1
6
ByLayer
62
256
370
-1
100
AcDbCircle
10
-2.65
20
22.05
40
0.129472887619
0
CIRCLE
5
BE
100
AcDbEntity
8
Layer_1
6
ByLayer
62
256
370
-1
100
AcDbCircle
10
-2.65
20
21.35
40
0.129472887619
0
CIRCLE
5
BF
100
AcDbEntity
8
Layer_1
6
ByLayer
62
256
370
-1
100
AcDbCircle
10
-2.65
20
20.65
40
0.129472887619
0
CIRCLE
5
C0
100
AcDbEntity
8
Layer_1
6
ByLayer
62
256
370
-1
100
AcDbCircle
10
-3
20
22.4
40
0.129472887619
0
CIRCLE
5
C1
100
AcDbEntity
8
Layer_1
6
ByLayer
62
256
370
-1
100
AcDbCircle
10
-3
20
21.7
40
0.129472887619
0
CIRCLE
5
C2
100
AcDbEntity
8
Layer_1
6
ByLayer
62
256
370
-1
100
AcDbCircle
10
-3
20
21
40
0.129472887619
0
CIRCLE
5
C3
100
AcDbEntity
8
Layer_1
6
ByLayer
62
256
370
-1
100
AcDbCircle
10
-3.35
20
22.05
40
0.129472887619
0
CIRCLE
5
C4
100
AcDbEntity
8
Layer_1
6
ByLayer
62
256
370
-1
100
AcDbCircle
10
-3.35
20
21.35
40
0.129472887619
0
CIRCLE
5
C5
100
AcDbEntity
8
Layer_1
6
ByLayer
62
256
370
-1
100
AcDbCircle
10
-3.7
20
22.4
40
0.129472887619
0
CIRCLE
5
C6
100
AcDbEntity
8
Layer_1
6
ByLayer
62
256
370
-1
100
AcDbCircle
10
-3.7
20
21.7
40
0.129472887619
0
CIRCLE
5
C7
100
AcDbEntity
8
Layer_1
6
ByLayer
62
256
370
-1
100
AcDbCircle
10
-4.05
20
22.05
40
0.129472887619
0
ARC
5
C8
100
AcDbEntity
8
Layer_1
6
ByLayer
62
256
370
-1
100
AcDbCircle
10
7.05
20
31.55
40
16.1667869411
100
AcDbArc
50
220.735836651
51
243.355701599
0
LINE
5
C9
100
AcDbEntity
8
Layer_1
6
ByLayer
62
256
370
-1
100
AcDbLine
10
-7.3
20
22.69
11
-9.3
21
22.7
0
ARC
5
CA
100
AcDbEntity
8
Layer_1
6
ByLayer
62
256
370
-1
100
AcDbCircle
10
-9.22337662338
20
23.3597402597
40
0.664174940936
100
AcDbArc
50
105.422161319
51
263.375249391
0
ARC
5
CB
100
AcDbEntity
8
Layer_1
6
ByLayer
62
256
370
-1
100
AcDbCircle
10
-14.1538713911
20
45.3498250219
40
21.8726843727
100
AcDbArc
50
282.553013113
51
304.388973123
0
CIRCLE
5
CC
100
AcDbEntity
8
Layer_1
6
ByLayer
62
256
370
-1
100
AcDbCircle
10
-9.4
20
23.35
40
0.129472887619
0
ARC
5
CD
100
AcDbEntity
8
Layer_1
6
ByLayer
62
256
370
-1
100
AcDbCircle
10
-2
20
28.325
40
0.325
100
AcDbArc
50
202.619864948
51
337.380135052
0
LINE
5
CE
100
AcDbEntity
8
Layer_1
6
ByLayer
62
256
370
-1
100
AcDbLine
10
-7.3
20
0.7
11
-1e-16
21
-0.3
0
ARC
5
CF
100
AcDbEntity
8
Layer_1
6
ByLayer
62
256
370
-1
100
AcDbCircle
10
-7.26666666667
20
0.93333333333
40
0.235702260394
100
AcDbArc
50
188.130102353
51
261.869897645
0
LINE
5
D0
100
AcDbEntity
8
Layer_1
6
ByLayer
62
256
370
-1
100
AcDbLine
10
-8
20
6.3
11
-7.5
21
0.9
0
LINE
5
D1
100
AcDbEntity
8
Layer_1
6
ByLayer
62
256
370
-1
100
AcDbLine
10
7.3
20
0.7
11
1e-16
21
-0.3
0
ARC
5
D2
100
AcDbEntity
8
Layer_1
6
ByLayer
62
256
370
-1
100
AcDbCircle
10
7.26666666667
20
0.93333333333
40
0.235702260394
100
AcDbArc
50
278.130102355
51
351.869897647
0
LINE
5
D3
100
AcDbEntity
8
Layer_1
6
ByLayer
62
256
370
-1
100
AcDbLine
10
8
20
6.3
11
7.5
21
0.9
0
ARC
5
D4
100
AcDbEntity
8
Layer_1
6
ByLayer
62
256
370
-1
100
AcDbCircle
10
-4.03333333334
20
23.4833333333
40
0.323608130649
100
AcDbArc
50
101.888658039
51
214.508522987
0
ARC
5
D5
100
AcDbEntity
8
Layer_1
6
ByLayer
62
256
370
-1
100
AcDbCircle
10
4.03333333334
20
23.4833333333
40
0.323608130649
100
AcDbArc
50
325.491477013
51
78.1113419609
0
LINE
5
D6
100
AcDbEntity
8
Layer_1
6
ByLayer
62
256
370
-1
100
AcDbLine
10
-1.8
20
27.3
11
-0.2
21
24.7
0
LINE
5
D7
100
AcDbEntity
8
Layer_1
6
ByLayer
62
256
370
-1
100
AcDbLine
10
-0.2
20
24.7
11
-4.1
21
23.8
0
LINE
5
D8
100
AcDbEntity
8
Layer_1
6
ByLayer
62
256
370
-1
100
AcDbLine
10
1.8
20
27.3
11
0.2
21
24.7
0
LINE
5
D9
100
AcDbEntity
8
Layer_1
6
ByLayer
62
256
370
-1
100
AcDbLine
10
0.2
20
24.7
11
4.1
21
23.8
0
CIRCLE
5
DA
100
AcDbEntity
8
Layer_1
6
ByLayer
62
256
370
-1
100
AcDbCircle
10
-2.2
20
22.9
40
0.1
0
CIRCLE
5
DB
100
AcDbEntity
8
Layer_1
6
ByLayer
62
256
370
-1
100
AcDbCircle
10
2.2
20
22.9
40
0.1
0
CIRCLE
5
DC
100
AcDbEntity
8
Layer_1
6
ByLayer
62
256
370
-1
100
AcDbCircle
10
-7.59990105497
20
14.9293552834
40
0.0981034370395
0
CIRCLE
5
DD
100
AcDbEntity
8
Layer_1
6
ByLayer
62
256
370
-1
100
AcDbCircle
10
-7.46522484494
20
13.3369161736
40
0.0981034370395
0
CIRCLE
5
DE
100
AcDbEntity
8
Layer_1
6
ByLayer
62
256
370
-1
100
AcDbCircle
10
-7.33054863492
20
11.7444770638
40
0.0981034370395
0
CIRCLE
5
DF
100
AcDbEntity
8
Layer_1
6
ByLayer
62
256
370
-1
100
AcDbCircle
10
-7.19587242489
20
10.152037954
40
0.0981034370395
0
ARC
5
E0
100
AcDbEntity
8
Layer_1
6
ByLayer
62
256
370
-1
100
AcDbCircle
10
-12.5055291003
20
-27.8207142857
40
37.9408991725
100
AcDbArc
50
70.755167203
51
82.098842159
0
ARC
5
E1
100
AcDbEntity
8
Layer_1
6
ByLayer
62
256
370
-1
100
AcDbCircle
10
-7.17763157892
20
10.0834210526
40
0.342385512767
100
AcDbArc
50
180.572498339
51
250.840884453
0
LINE
5
E2
100
AcDbEntity
8
Layer_1
6
ByLayer
62
256
370
-1
100
AcDbLine
10
-7.52
20
10.08
11
-7.98
21
15
0
CIRCLE
5
E3
100
AcDbEntity
8
Layer_1
6
ByLayer
62
256
370
-1
100
AcDbCircle
10
4.39939785098
20
15.4106514963
40
0.0981034370395
0
ARC
5
E4
100
AcDbEntity
8
Layer_1
6
ByLayer
62
256
370
-1
100
AcDbCircle
10
4.35428571429
20
15.3914285714
40
0.411120916718
100
AcDbArc
50
83.6158360606
51
149.514266294
0
ARC
5
E5
100
AcDbEntity
8
Layer_1
6
ByLayer
62
256
370
-1
100
AcDbCircle
10
-1.82264705883
20
17.2794117647
40
6.06000351873
100
AcDbArc
50
287.503656715
51
343.910982022
0
ARC
5
E6
100
AcDbEntity
8
Layer_1
6
ByLayer
62
256
370
-1
100
AcDbCircle
10
7.7728125
20
15.040625
40
0.211132779978
100
AcDbArc
50
348.906276988
51
82.6014975205
0
LINE
5
E7
100
AcDbEntity
8
Layer_1
6
ByLayer
62
256
370
-1
100
AcDbLine
10
7.8
20
15.25
11
4.4
21
15.8
0
CIRCLE
5
E8
100
AcDbEntity
8
Layer_1
6
ByLayer
62
256
370
-1
100
AcDbCircle
10
6
20
15.19
40
0.0981034370395
0
CIRCLE
5
E9
100
AcDbEntity
8
Layer_1
6
ByLayer
62
256
370
-1
100
AcDbCircle
10
7.59990105497
20
14.9293552834
40
0.0981034370395
0
CIRCLE
5
EA
100
AcDbEntity
8
Layer_1
6
ByLayer
62
256
370
-1
100
AcDbCircle
10
7.46522484494
20
13.3369161736
40
0.0981034370395
0
CIRCLE
5
EB
100
AcDbEntity
8
Layer_1
6
ByLayer
62
256
370
-1
100
AcDbCircle
10
7.33054863492
20
11.7444770638
40
0.0981034370395
0
CIRCLE
5
EC
100
AcDbEntity
8
Layer_1
6
ByLayer
62
256
370
-1
100
AcDbCircle
10
7.1958724249
20
10.152037954
40
0.0981034370395
0
ARC
5
ED
100
AcDbEntity
8
Layer_1
6
ByLayer
62
256
370
-1
100
AcDbCircle
10
12.5055291004
20
-27.8207142856
40
37.9408991725
100
AcDbArc
50
97.9011578411
51
109.244832797
0
ARC
5
EE
100
AcDbEntity
8
Layer_1
6
ByLayer
62
256
370
-1
100
AcDbCircle
10
7.17763157892
20
10.0834210527
40
0.342385512767
100
AcDbArc
50
289.159115547
51
359.427501661
0
LINE
5
EF
100
AcDbEntity
8
Layer_1
6
ByLayer
62
256
370
-1
100
AcDbLine
10
7.52
20
10.08
11
7.98
21
15
0
ENDSEC
0
SECTION
2
OBJECTS
0
DICTIONARY
5
C
330
0
100
AcDbDictionary
281
1
3
ACAD_GROUP
350
D
0
DICTIONARY
5
D
330
C
100
AcDbDictionary
281
1
0
ENDSEC
0
EOF
