999
dxfrw 0.5.11
0
SECTION
2
HEADER
9
$ACADVER
1
AC1021
9
$HANDSEED
5
20000
9
$DWGCODEPAGE
3
ANSI_1252
9
$INSBASE
10
0
20
0
30
0
9
$EXTMIN
10
-28.6943406698
20
0.007547352751
30
0
9
$EXTMAX
10
28.6943406698
20
21
30
0
9
$LIMMIN
10
0
20
0
9
$LIMMAX
10
420
20
297
9
$ORTHOMODE
70
0
9
$LTSCALE
40
1
9
$TEXTSTYLE
7
STANDARD
9
$CLAYER
8
0
9
$DIMASZ
40
0.1
9
$DIMLFAC
40
1
9
$DIMSCALE
40
1
9
$DIMEXO
40
0.025
9
$DIMEXE
40
0.05
9
$DIMTXT
40
0.1
9
$DIMTSZ
40
0
9
$DIMAUNIT
70
0
9
$DIMADEC
70
2
9
$DIMLUNIT
70
2
9
$DIMSTYLE
2
Standard
9
$DIMGAP
40
0.025
9
$DIMTIH
70
0
9
$LUNITS
70
2
9
$LUPREC
70
4
9
$AUNITS
70
0
9
$AUPREC
70
2
9
$SPLINESEGS
70
8
9
$GRIDMODE
70
1
9
$SNAPSTYLE
70
0
9
$GRIDUNIT
10
0
20
0
9
$PINSBASE
10
11.058673782
20
-0.561211407833
30
0
9
$PLIMMIN
10
0
20
0
9
$PLIMMAX
10
12.0078740157
20
17.9921259843
9
$INSUNITS
70
1
9
$PSVPSCALE
40
1
0
ENDSEC
0
SECTION
2
CLASSES
0
ENDSEC
0
SECTION
2
TABLES
0
TABLE
2
VPORT
5
8
330
0
100
AcDbSymbolTable
70
1
0
VPORT
5
31
330
2
100
AcDbSymbolTableRecord
100
AcDbViewportTableRecord
2
*ACTIVE
70
0
10
0
20
0
11
1
21
1
12
21.8647857399
22
19.4834724415
13
0
23
0
14
10
24
10
15
10
25
10
16
0
26
0
36
1
17
0
27
0
37
0
40
113.437106215
41
1.13358778626
42
50
43
0
44
0
50
0
51
0
71
0
72
100
73
1
74
3
75
0
76
1
77
0
78
0
281
0
65
1
110
0
120
0
130
0
111
1
121
0
131
0
112
0
122
1
132
0
79
0
146
0
348
10020
60
7
61
5
292
1
282
1
141
0
142
0
63
250
421
3358443
0
ENDTAB
0
TABLE
2
LTYPE
5
5
330
0
100
AcDbSymbolTable
70
4
0
LTYPE
5
14
330
5
100
AcDbSymbolTableRecord
100
AcDbLinetypeTableRecord
2
ByBlock
70
0
3

72
65
73
0
40
0
0
LTYPE
5
15
330
5
100
AcDbSymbolTableRecord
100
AcDbLinetypeTableRecord
2
ByLayer
70
0
3

72
65
73
0
40
0
0
LTYPE
5
16
330
5
100
AcDbSymbolTableRecord
100
AcDbLinetypeTableRecord
2
Continuous
70
0
3
Solid line
72
65
73
0
40
0
0
LTYPE
5
32
330
5
100
AcDbSymbolTableRecord
100
AcDbLinetypeTableRecord
2
DOT
70
0
3
Dot . . . . . . . . . . . . . . . . . . . . . .
72
65
73
2
40
6.35
49
0
74
0
49
-6.35
74
0
0
LTYPE
5
33
330
5
100
AcDbSymbolTableRecord
100
AcDbLinetypeTableRecord
2
DOT2
70
0
3
Dot (.5x) .....................................
72
65
73
2
40
3.175
49
0
74
0
49
-3.175
74
0
0
LTYPE
5
34
330
5
100
AcDbSymbolTableRecord
100
AcDbLinetypeTableRecord
2
DOTX2
70
0
3
Dot (2x) .  .  .  .  .  .  .  .  .  .  .  .  .
72
65
73
2
40
12.7
49
0
74
0
49
-12.7
74
0
0
LTYPE
5
35
330
5
100
AcDbSymbolTableRecord
100
AcDbLinetypeTableRecord
2
DASHED
70
0
3
Dot . . . . . . . . . . . . . . . . . . . . . .
72
65
73
2
40
19.05
49
12.7
74
0
49
-6.35
74
0
0
LTYPE
5
36
330
5
100
AcDbSymbolTableRecord
100
AcDbLinetypeTableRecord
2
DASHED2
70
0
3
Dashed (.5x) _ _ _ _ _ _ _ _ _ _ _ _ _ _ _ _ _
72
65
73
2
40
9.525
49
6.35
74
0
49
-3.175
74
0
0
LTYPE
5
37
330
5
100
AcDbSymbolTableRecord
100
AcDbLinetypeTableRecord
2
DASHEDX2
70
0
3
Dashed (2x) ____  ____  ____  ____  ____  ___
72
65
73
2
40
38.1
49
25.4
74
0
49
-12.7
74
0
0
LTYPE
5
38
330
5
100
AcDbSymbolTableRecord
100
AcDbLinetypeTableRecord
2
DASHDOT
70
0
3
Dash dot __ . __ . __ . __ . __ . __ . __ . __
72
65
73
4
40
25.4
49
12.7
74
0
49
-6.35
74
0
49
0
74
0
49
-6.35
74
0
0
LTYPE
5
39
330
5
100
AcDbSymbolTableRecord
100
AcDbLinetypeTableRecord
2
DASHDOT2
70
0
3
Dash dot (.5x) _._._._._._._._._._._._._._._.
72
65
73
4
40
12.7
49
6.35
74
0
49
-3.175
74
0
49
0
74
0
49
-3.175
74
0
0
LTYPE
5
3A
330
5
100
AcDbSymbolTableRecord
100
AcDbLinetypeTableRecord
2
DASHDOTX2
70
0
3
Dash dot (2x) ____  .  ____  .  ____  .  ___
72
65
73
4
40
50.8
49
25.4
74
0
49
-12.7
74
0
49
0
74
0
49
-12.7
74
0
0
LTYPE
5
3B
330
5
100
AcDbSymbolTableRecord
100
AcDbLinetypeTableRecord
2
DIVIDE
70
0
3
Divide ____ . . ____ . . ____ . . ____ . . ____
72
65
73
6
40
31.75
49
12.7
74
0
49
-6.35
74
0
49
0
74
0
49
-6.35
74
0
49
0
74
0
49
-6.35
74
0
0
LTYPE
5
3C
330
5
100
AcDbSymbolTableRecord
100
AcDbLinetypeTableRecord
2
DIVIDE2
70
0
3
Divide (.5x) __..__..__..__..__..__..__..__.._
72
65
73
6
40
15.875
49
6.35
74
0
49
-3.175
74
0
49
0
74
0
49
-3.175
74
0
49
0
74
0
49
-3.175
74
0
0
LTYPE
5
3D
330
5
100
AcDbSymbolTableRecord
100
AcDbLinetypeTableRecord
2
DIVIDEX2
70
0
3
Divide (2x) ________  .  .  ________  .  .  _
72
65
73
6
40
63.5
49
25.4
74
0
49
-12.7
74
0
49
0
74
0
49
-12.7
74
0
49
0
74
0
49
-12.7
74
0
0
LTYPE
5
3E
330
5
100
AcDbSymbolTableRecord
100
AcDbLinetypeTableRecord
2
BORDER
70
0
3
Border __ __ . __ __ . __ __ . __ __ . __ __ .
72
65
73
6
40
44.45
49
12.7
74
0
49
-6.35
74
0
49
12.7
74
0
49
-6.35
74
0
49
0
74
0
49
-6.35
74
0
0
LTYPE
5
3F
330
5
100
AcDbSymbolTableRecord
100
AcDbLinetypeTableRecord
2
BORDER2
70
0
3
Border (.5x) __.__.__.__.__.__.__.__.__.__.__.
72
65
73
6
40
22.225
49
6.35
74
0
49
-3.175
74
0
49
6.35
74
0
49
-3.175
74
0
49
0
74
0
49
-3.175
74
0
0
LTYPE
5
40
330
5
100
AcDbSymbolTableRecord
100
AcDbLinetypeTableRecord
2
BORDERX2
70
0
3
Border (2x) ____  ____  .  ____  ____  .  ___
72
65
73
6
40
88.9
49
25.4
74
0
49
-12.7
74
0
49
25.4
74
0
49
-12.7
74
0
49
0
74
0
49
-12.7
74
0
0
LTYPE
5
41
330
5
100
AcDbSymbolTableRecord
100
AcDbLinetypeTableRecord
2
CENTER
70
0
3
Center ____ _ ____ _ ____ _ ____ _ ____ _ ____
72
65
73
4
40
50.8
49
31.75
74
0
49
-6.35
74
0
49
6.35
74
0
49
-6.35
74
0
0
LTYPE
5
42
330
5
100
AcDbSymbolTableRecord
100
AcDbLinetypeTableRecord
2
CENTER2
70
0
3
Center (.5x) ___ _ ___ _ ___ _ ___ _ ___ _ ___
72
65
73
4
40
28.575
49
19.05
74
0
49
-3.175
74
0
49
3.175
74
0
49
-3.175
74
0
0
LTYPE
5
43
330
5
100
AcDbSymbolTableRecord
100
AcDbLinetypeTableRecord
2
CENTERX2
70
0
3
Center (2x) ________  __  ________  __  _____
72
65
73
4
40
101.6
49
63.5
74
0
49
-12.7
74
0
49
12.7
74
0
49
-12.7
74
0
0
ENDTAB
0
TABLE
2
LAYER
5
2
330
0
100
AcDbSymbolTable
70
1
0
LAYER
5
10
330
2
100
AcDbSymbolTableRecord
100
AcDbLayerTableRecord
2
0
70
0
62
7
6
CONTINUOUS
370
0
390
F
0
ENDTAB
0
TABLE
2
STYLE
5
3
330
0
100
AcDbSymbolTable
70
3
0
STYLE
5
44
330
2
100
AcDbSymbolTableRecord
100
AcDbTextStyleTableRecord
2
unicode
70
0
40
0
41
1
50
0
71
0
42
1
3
unicode
4

0
STYLE
5
45
330
2
100
AcDbSymbolTableRecord
100
AcDbTextStyleTableRecord
2
Standard
70
0
40
0
41
1
50
0
71
0
42
1
3
txt
4

0
ENDTAB
0
TABLE
2
VIEW
5
6
330
0
100
AcDbSymbolTable
70
0
0
ENDTAB
0
TABLE
2
UCS
5
7
330
0
100
AcDbSymbolTable
70
0
0
ENDTAB
0
TABLE
2
APPID
5
9
330
0
100
AcDbSymbolTable
70
1
0
APPID
5
12
330
9
100
AcDbSymbolTableRecord
100
AcDbRegAppTableRecord
2
ACAD
70
0
0
ENDTAB
0
TABLE
2
DIMSTYLE
5
A
330
0
100
AcDbSymbolTable
70
1
100
AcDbDimStyleTable
71
1
0
DIMSTYLE
105
46
330
A
100
AcDbSymbolTableRecord
100
AcDbDimStyleTableRecord
2
Standard
70
0
40
1
41
0.1
42
0.025
43
0.38
44
0.05
45
0
46
0
47
0
48
0
140
0.1
141
0.09
142
0
143
25.4
144
1
145
0
146
1
147
0.025
148
0
71
0
72
0
73
0
74
1
75
0
76
0
77
0
78
0
79
0
170
0
171
2
172
0
173
0
174
0
175
0
176
0
177
0
178
0
179
0
271
4
272
4
273
2
274
2
275
0
276
0
277
2
278
46
279
0
280
0
281
0
282
0
283
1
284
0
285
0
286
0
288
0
289
3
340
Standard
341

371
-2
372
-2
0
ENDTAB
0
TABLE
2
BLOCK_RECORD
5
1
330
0
100
AcDbSymbolTable
70
2
0
BLOCK_RECORD
5
1F
330
1
100
AcDbSymbolTableRecord
100
AcDbBlockTableRecord
2
*Model_Space
70
0
280
1
281
0
0
BLOCK_RECORD
5
1E
330
1
100
AcDbSymbolTableRecord
100
AcDbBlockTableRecord
2
*Paper_Space
70
0
280
1
281
0
0
ENDTAB
0
ENDSEC
0
SECTION
2
BLOCKS
0
BLOCK
5
20
330
1F
100
AcDbEntity
8
0
100
AcDbBlockBegin
2
*Model_Space
70
0
10
0
20
0
30
0
3
*Model_Space
1

0
ENDBLK
5
21
330
1F
100
AcDbEntity
8
0
100
AcDbBlockEnd
0
BLOCK
5
1C
330
1B
100
AcDbEntity
8
0
100
AcDbBlockBegin
2
*Paper_Space
70
0
10
0
20
0
30
0
3
*Paper_Space
1

0
ENDBLK
5
1D
330
1F
100
AcDbEntity
8
0
100
AcDbBlockEnd
0
ENDSEC
0
SECTION
2
ENTITIES
0
LINE
5
47
100
AcDbEntity
8
0
6
ByLayer
62
256
370
9
100
AcDbLine
10
-0.584000000001
20
12.8781000001
11
-4.196
21
1.92240000005
0
LINE
5
48
100
AcDbEntity
8
0
6
ByLayer
62
256
370
9
100
AcDbLine
10
-4.4165
20
1.65600000005
11
-6.0335
21
0.879000000053
0
ELLIPSE
5
49
100
AcDbEntity
8
0
6
ByLayer
62
256
370
9
100
AcDbEllipse
10
-4.72275
20
2.17446250005
30
0
11
0
21
0.611242526667
31
0
40
0.945945945946
41
3.69979094233
42
4.28732701921
0
ELLIPSE
5
4A
100
AcDbEntity
8
0
6
ByLayer
62
256
370
9
100
AcDbEllipse
10
-6.13290460526
20
1.06864934216
30
0
11
0
21
0.216817209954
31
0
40
0.945945945946
41
1.57517487745
42
3.64757888417
0
ELLIPSE
5
4B
100
AcDbEntity
8
0
6
ByLayer
62
256
370
9
100
AcDbEllipse
10
-0.934028688526
20
12.913492623
30
0
11
0
21
0.371719089235
31
0
40
0.945945945946
41
4.61703117092
42
5.59242707828
0
ARC
5
4C
100
AcDbEntity
8
0
6
ByLayer
62
256
370
9
100
AcDbCircle
10
-2.952
20
13.8116000001
40
0.172586210341
100
AcDbArc
50
78.299420537
51
136.408628735
0
LINE
5
4D
100
AcDbEntity
8
0
6
ByLayer
62
256
370
9
100
AcDbLine
10
-6.33799999999
20
1.06770000005
11
-3.147
21
13.7806000001
0
ARC
5
4E
100
AcDbEntity
8
0
6
ByLayer
62
256
370
9
100
AcDbCircle
10
-2.64836363636
20
13.6392363637
40
0.518287469293
100
AcDbArc
50
145.794270445
51
164.171942599
0
ELLIPSE
5
4F
100
AcDbEntity
8
0
6
ByLayer
62
256
370
9
100
AcDbEllipse
10
-7.53318805309
20
1.05587743363
30
0
11
0
21
0.535321120274
31
0
40
0.945945945946
41
3.49801161667
42
4.58355403159
0
LINE
5
50
100
AcDbEntity
8
0
6
ByLayer
62
256
370
9
100
AcDbLine
10
-7.3565
20
0.5542
11
-8.69
21
0.0436
0
ELLIPSE
5
51
100
AcDbEntity
8
0
6
ByLayer
62
256
370
9
100
AcDbEllipse
10
-8.71660393258
20
0.179356741574
30
0
11
0
21
0.138639320204
31
0
40
0.945945945946
41
1.50913507116
42
3.34586883881
0
LINE
5
52
100
AcDbEntity
8
0
6
ByLayer
62
256
370
9
100
AcDbLine
10
-6.21
20
14.9
11
-4.01
21
14
0
ARC
5
53
100
AcDbEntity
8
0
6
ByLayer
62
256
370
9
100
AcDbCircle
10
-4.08303571429
20
13.7604464286
40
0.250439871317
100
AcDbArc
50
346.033115851
51
73.044448668
0
ARC
5
54
100
AcDbEntity
8
0
6
ByLayer
62
256
370
9
100
AcDbCircle
10
-6.26423076923
20
14.6742307692
40
0.232191132246
100
AcDbArc
50
76.493192218
51
158.321958658
0
LINE
5
55
100
AcDbEntity
8
0
6
ByLayer
62
256
370
9
100
AcDbLine
10
-8.8475
20
0.1879
11
-6.48
21
14.76
0
LINE
5
56
100
AcDbEntity
8
0
6
ByLayer
62
256
370
9
100
AcDbLine
10
-7.03099999999
20
0.9871
11
-3.84
21
13.7
0
ELLIPSE
5
57
100
AcDbEntity
8
0
6
ByLayer
62
256
370
9
100
AcDbEllipse
10
-10.01025
20
0.179788461538
30
0
11
0
21
0.172241108787
31
0
40
0.945945945946
41
2.48272339436
42
4.7595004968
0
ELLIPSE
5
58
100
AcDbEntity
8
0
6
ByLayer
62
256
370
9
100
AcDbEllipse
10
-8.68268478261
20
2.63448478261
30
0
11
0
21
2.83652432571
31
0
40
0.945945945946
41
1.8458825166
42
2.09729703413
0
ELLIPSE
5
59
100
AcDbEntity
8
0
6
ByLayer
62
256
370
9
100
AcDbEllipse
10
-7.1175
20
3.56917142857
30
0
11
0
21
4.7368118126
31
0
40
0.945945945946
41
2.09236458163
42
2.4102705213
0
ARC
5
5A
100
AcDbEntity
8
0
6
ByLayer
62
256
370
9
100
AcDbCircle
10
-10.165
20
16.305
40
0.137295302177
100
AcDbArc
50
79.508522988
51
146.88865804
0
LINE
5
5B
100
AcDbEntity
8
0
6
ByLayer
62
256
370
9
100
AcDbLine
10
-10.14
20
16.44
11
-7.61
21
15.1
0
ARC
5
5C
100
AcDbEntity
8
0
6
ByLayer
62
256
370
9
100
AcDbCircle
10
-7.84641104294
20
14.8147546012
40
0.370479579393
100
AcDbArc
50
351.500901826
51
50.348101664
0
LINE
5
5D
100
AcDbEntity
8
0
6
ByLayer
62
256
370
9
100
AcDbLine
10
-9.8475
20
0.1879
11
-7.48
21
14.76
0
LINE
5
5E
100
AcDbEntity
8
0
6
ByLayer
62
256
370
9
100
AcDbLine
10
-11.278
20
16.4161
11
-12.265
21
1.864
0
ELLIPSE
5
5F
100
AcDbEntity
8
0
6
ByLayer
62
256
370
9
100
AcDbEllipse
10
-12.4755833333
20
2.04715
30
0
11
0
21
0.288274353313
31
0
40
0.945945945946
41
2.48054948474
42
4.02395026479
0
ELLIPSE
5
60
100
AcDbEntity
8
0
6
ByLayer
62
256
370
9
100
AcDbEllipse
10
-13.0009308511
20
1.38736914894
30
0
11
0
21
0.574454517147
31
0
40
0.945945945946
41
5.56411681177
42
0.68921996544
0
ELLIPSE
5
61
100
AcDbEntity
8
0
6
ByLayer
62
256
370
9
100
AcDbEllipse
10
-13.5323928571
20
1.95631122449
30
0
11
0
21
0.233230455254
31
0
40
0.945945945946
41
1.9777286663
42
4.14364844257
0
LINE
5
62
100
AcDbEntity
8
0
6
ByLayer
62
256
370
9
100
AcDbLine
10
-13.735
20
1.864
11
-14.239
21
16.6048
0
ARC
5
63
100
AcDbEntity
8
0
6
ByLayer
62
256
370
9
100
AcDbCircle
10
-11.5152590674
20
16.3642746114
40
0.235784046578
100
AcDbArc
50
3.824125109
51
88.7219349311
0
LINE
5
64
100
AcDbEntity
8
0
6
ByLayer
62
256
370
9
100
AcDbLine
10
-14.01
20
16.78
11
-11.51
21
16.6
0
ARC
5
65
100
AcDbEntity
8
0
6
ByLayer
62
256
370
9
100
AcDbCircle
10
-13.9686705302
20
16.4887187867
40
0.294198691879
100
AcDbArc
50
98.0757087932
51
156.761003287
0
ELLIPSE
5
66
100
AcDbEntity
8
0
6
ByLayer
62
256
370
9
100
AcDbEllipse
10
-15.4376710526
20
16.5954526316
30
0
11
0
21
0.210231589505
31
0
40
0.945945945946
41
4.75686588786
42
6.18158108404
0
ELLIPSE
5
67
100
AcDbEntity
8
0
6
ByLayer
62
256
370
9
100
AcDbEllipse
10
-13.9236034483
20
5.53216724138
30
0
11
0
21
11.3825220834
31
0
40
0.945945945946
41
0.13919351662
42
0.38201126687
0
ELLIPSE
5
68
100
AcDbEntity
8
0
6
ByLayer
62
256
370
9
100
AcDbEllipse
10
-17.8644871134
20
15.7106206186
30
0
11
0
21
0.391268033515
31
0
40
0.945945945946
41
0.19857138884
42
1.44116313995
0
ELLIPSE
5
69
100
AcDbEntity
8
0
6
ByLayer
62
256
370
9
100
AcDbEllipse
10
-15.803375
20
1.8751
30
0
11
0
21
1.12947954413
31
0
40
0.945945945946
41
4.26522339523
42
4.70256128697
0
LINE
5
6A
100
AcDbEntity
8
0
6
ByLayer
62
256
370
9
100
AcDbLine
10
-14.735
20
1.864
11
-15.239
21
16.6048
0
LINE
5
6B
100
AcDbEntity
8
0
6
ByLayer
62
256
370
9
100
AcDbLine
10
-18.2315
20
15.7612
11
-16.205
21
0.421
0
ELLIPSE
5
6C
100
AcDbEntity
8
0
6
ByLayer
62
256
370
9
100
AcDbEllipse
10
-15.9146799065
20
0.51804719626
30
0
11
0
21
0.321887855735
31
0
40
0.945945945946
41
1.87705530639
42
3.62001396242
0
ELLIPSE
5
6D
100
AcDbEntity
8
0
6
ByLayer
62
256
370
9
100
AcDbEllipse
10
-18.4766261468
20
3.67674056357
30
0
11
0
21
4.47481324808
31
0
40
0.945945945946
41
3.83395598932
42
4.17515421291
0
ELLIPSE
5
6E
100
AcDbEntity
8
0
6
ByLayer
62
256
370
9
100
AcDbEllipse
10
-19.4923366337
20
15.5470029703
30
0
11
0
21
0.349161551101
31
0
40
0.945945945946
41
5.37282481715
42
0.10057691746
0
LINE
5
6F
100
AcDbEntity
8
0
6
ByLayer
62
256
370
9
100
AcDbLine
10
-19.2315
20
15.7612
11
-17.205
21
0.421
0
ELLIPSE
5
70
100
AcDbEntity
8
0
6
ByLayer
62
256
370
9
100
AcDbEllipse
10
-17.4754256756
20
0.51496428571
30
0
11
0
21
0.304573573599
31
0
40
0.945945945946
41
2.87437798642
42
4.36019775848
0
LINE
5
71
100
AcDbEntity
8
0
6
ByLayer
62
256
370
9
100
AcDbLine
10
-17.5515
20
0.2212
11
-18.675
21
0.754
0
ELLIPSE
5
72
100
AcDbEntity
8
0
6
ByLayer
62
256
370
9
100
AcDbEllipse
10
-17.898
20
1.65976
30
0
11
0
21
1.22274246577
31
0
40
0.945945945946
41
1.95804569004
42
2.40499889233
0
LINE
5
73
100
AcDbEntity
8
0
6
ByLayer
62
256
370
9
100
AcDbLine
10
-19.5255
20
15.8944
11
-21.72
21
14.9176
0
ELLIPSE
5
74
100
AcDbEntity
8
0
6
ByLayer
62
256
370
9
100
AcDbEllipse
10
-21.5518157895
20
14.5843078947
30
0
11
0
21
0.377749382368
31
0
40
0.945945945946
41
0.49004830013
42
1.59941151547
0
LINE
5
75
100
AcDbEntity
8
0
6
ByLayer
62
256
370
9
100
AcDbLine
10
-18.969
20
1.198
11
-21.909
21
14.5735
0
ELLIPSE
5
76
100
AcDbEntity
8
0
6
ByLayer
62
256
370
9
100
AcDbEllipse
10
-24.78535
20
13.16047
30
0
11
0
21
0.48817037784
31
0
40
0.945945945946
41
0.55835829342
42
1.74678570102
0
ELLIPSE
5
77
100
AcDbEntity
8
0
6
ByLayer
62
256
370
9
100
AcDbEllipse
10
-20.152375
20
1.17897142857
30
0
11
0
21
0.194785250176
31
0
40
0.945945945946
41
2.75995249011
42
4.81023503464
0
LINE
5
78
100
AcDbEntity
8
0
6
ByLayer
62
256
370
9
100
AcDbLine
10
-20.221
20
0.9982
11
-21.733
21
1.753
0
ELLIPSE
5
79
100
AcDbEntity
8
0
6
ByLayer
62
256
370
9
100
AcDbEllipse
10
-21.43375
20
2.3598
30
0
11
0
21
0.684312474313
31
0
40
0.945945945946
41
1.98243277474
42
2.66101800364
0
ELLIPSE
5
7A
100
AcDbEntity
8
0
6
ByLayer
62
256
370
9
100
AcDbEllipse
10
-23.063
20
14.5591625
30
0
11
0
21
0.163430119336
31
0
40
0.945945945946
41
4.80023053018
42
0.4446625485
0
ELLIPSE
5
7B
100
AcDbEntity
8
0
6
ByLayer
62
256
370
9
100
AcDbEllipse
10
-30.8084239131
20
26.7629891304
30
0
11
0
21
14.5344927168
31
0
40
0.945945945946
41
3.57535130177
42
3.73418607725
0
LINE
5
7C
100
AcDbEntity
8
0
6
ByLayer
62
256
370
9
100
AcDbLine
10
-25.24
20
13.075
11
-22.027
21
2.086
0
LINE
5
7D
100
AcDbEntity
8
0
6
ByLayer
62
256
370
9
100
AcDbLine
10
-19.969
20
1.198
11
-22.909
21
14.5735
0
ELLIPSE
5
7E
100
AcDbEntity
8
0
6
ByLayer
62
256
370
9
100
AcDbEllipse
10
-23.1592045454
20
2.05017727273
30
0
11
0
21
0.144277064293
31
0
40
0.945945945946
41
2.95517059015
42
4.96330480869
0
ELLIPSE
5
7F
100
AcDbEntity
8
0
6
ByLayer
62
256
370
9
100
AcDbEllipse
10
-23.5415
20
0.6023
30
0
11
0
21
1.35953226148
31
0
40
0.945945945946
41
6.00189500289
42
0.28129030429
0
ELLIPSE
5
80
100
AcDbEntity
8
0
6
ByLayer
62
256
370
9
100
AcDbEllipse
10
-21.96006875
20
-2.725225625
30
0
11
0
21
5.06652760278
31
0
40
0.945945945946
41
0.41638635959
42
0.57338852527
0
ELLIPSE
5
81
100
AcDbEntity
8
0
6
ByLayer
62
256
370
9
100
AcDbEllipse
10
-24.79625
20
1.89175
30
0
11
0
21
0.438766025348
31
0
40
0.945945945946
41
1.89254688119
42
3.74713731719
0
ELLIPSE
5
82
100
AcDbEntity
8
0
6
ByLayer
62
256
370
9
100
AcDbEllipse
10
-26.6075
20
12.853
30
0
11
0
21
0.447455305031
31
0
40
0.945945945946
41
5.23153509463
42
0.12435499455
0
ELLIPSE
5
83
100
AcDbEntity
8
0
6
ByLayer
62
256
370
9
100
AcDbEllipse
10
-29.99025
20
22.19365
30
0
11
0
21
9.5678970273
31
0
40
0.945945945946
41
3.30492945085
42
3.51840079615
0
ELLIPSE
5
84
100
AcDbEntity
8
0
6
ByLayer
62
256
370
9
100
AcDbEllipse
10
-28.4859073604
20
12.5354667513
30
0
11
0
21
0.220343784176
31
0
40
0.945945945946
41
0.15701399044
42
1.84595228095
0
LINE
5
85
100
AcDbEntity
8
0
6
ByLayer
62
256
370
9
100
AcDbLine
10
-25.19
20
1.753
11
-28.6865
21
12.4756
0
LINE
5
86
100
AcDbEntity
8
0
6
ByLayer
62
256
370
9
100
AcDbLine
10
-26.24
20
13.075
11
-23.027
21
2.086
0
LINE
5
87
100
AcDbEntity
8
0
6
ByLayer
62
256
370
9
100
AcDbLine
10
-0.71
20
13.2
11
-2.917
21
13.9806000001
0
LINE
5
88
100
AcDbEntity
8
0
6
ByLayer
62
256
370
9
100
AcDbLine
10
-10.28
20
16.38
11
-11.265
21
1.864
0
CIRCLE
5
89
100
AcDbEntity
8
0
6
ByLayer
62
256
370
-1
100
AcDbCircle
10
-6.48384554338
20
4.68651203374
40
0.065
0
CIRCLE
5
8A
100
AcDbEntity
8
0
6
ByLayer
62
256
370
-1
100
AcDbCircle
10
-6.0832586489
20
6.30138049718
40
0.065
0
CIRCLE
5
8B
100
AcDbEntity
8
0
6
ByLayer
62
256
370
-1
100
AcDbCircle
10
-3.56816436604
20
5.07534941463
40
0.065
0
CIRCLE
5
8C
100
AcDbEntity
8
0
6
ByLayer
62
256
370
-1
100
AcDbCircle
10
-3.04895993707
20
6.65201410999
40
0.065
0
CIRCLE
5
8D
100
AcDbEntity
8
0
6
ByLayer
62
256
370
-1
100
AcDbCircle
10
-5.68267175443
20
7.91624896061
40
0.065
0
CIRCLE
5
8E
100
AcDbEntity
8
0
6
ByLayer
62
256
370
-1
100
AcDbCircle
10
-5.28208485995
20
9.531117424
40
0.065
0
CIRCLE
5
8F
100
AcDbEntity
8
0
6
ByLayer
62
256
370
-1
100
AcDbCircle
10
-2.5297555081
20
8.22867880535
40
0.065
0
CIRCLE
5
90
100
AcDbEntity
8
0
6
ByLayer
62
256
370
-1
100
AcDbCircle
10
-2.01055107912
20
9.80534350075
40
0.065
0
CIRCLE
5
91
100
AcDbEntity
8
0
6
ByLayer
62
256
370
-1
100
AcDbCircle
10
-4.88149796548
20
11.1459858875
40
0.065
0
CIRCLE
5
92
100
AcDbEntity
8
0
6
ByLayer
62
256
370
-1
100
AcDbCircle
10
-1.48120442898
20
11.3791353047
40
0.065
0
CIRCLE
5
93
100
AcDbEntity
8
0
6
ByLayer
62
256
370
-1
100
AcDbCircle
10
-4.47058689447
20
12.7588315366
40
0.065
0
CIRCLE
5
94
100
AcDbEntity
8
0
6
ByLayer
62
256
370
-1
100
AcDbCircle
10
-4.2
20
13.66
40
0.065
0
CIRCLE
5
95
100
AcDbEntity
8
0
6
ByLayer
62
256
370
-1
100
AcDbCircle
10
-0.962000000001
20
12.9558000001
40
0.065
0
CIRCLE
5
96
100
AcDbEntity
8
0
6
ByLayer
62
256
370
-1
100
AcDbCircle
10
-4.08736879502
20
3.49868471927
40
0.065
0
CIRCLE
5
97
100
AcDbEntity
8
0
6
ByLayer
62
256
370
-1
100
AcDbCircle
10
-6.88443243785
20
3.07164357031
40
0.065
0
CIRCLE
5
98
100
AcDbEntity
8
0
6
ByLayer
62
256
370
-1
100
AcDbCircle
10
-4.60657322398
20
1.9220200239
40
0.065
0
CIRCLE
5
99
100
AcDbEntity
8
0
6
ByLayer
62
256
370
-1
100
AcDbCircle
10
-7.28501933232
20
1.45677510688
40
0.065
0
CIRCLE
5
9A
100
AcDbEntity
8
0
6
ByLayer
62
256
370
-1
100
AcDbCircle
10
-8.21630230235
20
12.3267000801
40
0.065
0
CIRCLE
5
9B
100
AcDbEntity
8
0
6
ByLayer
62
256
370
-1
100
AcDbCircle
10
-8.48222762348
20
10.6810681762
40
0.065
0
CIRCLE
5
9C
100
AcDbEntity
8
0
6
ByLayer
62
256
370
-1
100
AcDbCircle
10
-8.74815294461
20
9.03543627226
40
0.065
0
CIRCLE
5
9D
100
AcDbEntity
8
0
6
ByLayer
62
256
370
-1
100
AcDbCircle
10
-9.01407826574
20
7.38980436836
40
0.065
0
CIRCLE
5
9E
100
AcDbEntity
8
0
6
ByLayer
62
256
370
-1
100
AcDbCircle
10
-9.28000358687
20
5.74417246446
40
0.065
0
CIRCLE
5
9F
100
AcDbEntity
8
0
6
ByLayer
62
256
370
-1
100
AcDbCircle
10
-10.1100058375
20
0.7536074741
40
0.065
0
CIRCLE
5
A0
100
AcDbEntity
8
0
6
ByLayer
62
256
370
-1
100
AcDbCircle
10
-9.81185422913
20
2.45290865667
40
0.065
0
CIRCLE
5
A1
100
AcDbEntity
8
0
6
ByLayer
62
256
370
-1
100
AcDbCircle
10
-9.545928908
20
4.09854056056
40
0.065
0
CIRCLE
5
A2
100
AcDbEntity
8
0
6
ByLayer
62
256
370
-1
100
AcDbCircle
10
-7.91
20
14.5
40
0.065
0
CIRCLE
5
A3
100
AcDbEntity
8
0
6
ByLayer
62
256
370
-1
100
AcDbCircle
10
-11.7295
20
14.74
40
0.065
0
CIRCLE
5
A4
100
AcDbEntity
8
0
6
ByLayer
62
256
370
-1
100
AcDbCircle
10
-11.8555
20
13.075
40
0.065
0
CIRCLE
5
A5
100
AcDbEntity
8
0
6
ByLayer
62
256
370
-1
100
AcDbCircle
10
-11.971
20
11.41
40
0.065
0
CIRCLE
5
A6
100
AcDbEntity
8
0
6
ByLayer
62
256
370
-1
100
AcDbCircle
10
-13.9135
20
16.3051
40
0.065
0
CIRCLE
5
A7
100
AcDbEntity
8
0
6
ByLayer
62
256
370
-1
100
AcDbCircle
10
-12.202
20
8.08
40
0.065
0
CIRCLE
5
A8
100
AcDbEntity
8
0
6
ByLayer
62
256
370
-1
100
AcDbCircle
10
-13.6578566611
20
9.7315639371
40
0.065
0
CIRCLE
5
A9
100
AcDbEntity
8
0
6
ByLayer
62
256
370
-1
100
AcDbCircle
10
-12.0865
20
9.745
40
0.065
0
CIRCLE
5
AA
100
AcDbEntity
8
0
6
ByLayer
62
256
370
-1
100
AcDbCircle
10
-13.7183195943
20
11.3998108926
40
0.065
0
CIRCLE
5
AB
100
AcDbEntity
8
0
6
ByLayer
62
256
370
-1
100
AcDbCircle
10
-13.7787825275
20
13.0680578481
40
0.065
0
CIRCLE
5
AC
100
AcDbEntity
8
0
6
ByLayer
62
256
370
-1
100
AcDbCircle
10
-13.8497390644
20
14.7366921881
40
0.065
0
CIRCLE
5
AD
100
AcDbEntity
8
0
6
ByLayer
62
256
370
-1
100
AcDbCircle
10
-11.614
20
16.3051
40
0.065
0
CIRCLE
5
AE
100
AcDbEntity
8
0
6
ByLayer
62
256
370
-1
100
AcDbCircle
10
-13.5973937278
20
8.06331698154
40
0.065
0
CIRCLE
5
AF
100
AcDbEntity
8
0
6
ByLayer
62
256
370
-1
100
AcDbCircle
10
-13.5369307946
20
6.395070026
40
0.065
0
CIRCLE
5
B0
100
AcDbEntity
8
0
6
ByLayer
62
256
370
-1
100
AcDbCircle
10
-12.3175
20
6.415
40
0.065
0
CIRCLE
5
B1
100
AcDbEntity
8
0
6
ByLayer
62
256
370
-1
100
AcDbCircle
10
-12.433
20
4.75
40
0.065
0
CIRCLE
5
B2
100
AcDbEntity
8
0
6
ByLayer
62
256
370
-1
100
AcDbCircle
10
-13.4764678614
20
4.72682307046
40
0.065
0
CIRCLE
5
B3
100
AcDbEntity
8
0
6
ByLayer
62
256
370
-1
100
AcDbCircle
10
-16.1724600365
20
2.49094120583
40
0.065
0
CIRCLE
5
B4
100
AcDbEntity
8
0
6
ByLayer
62
256
370
-1
100
AcDbCircle
10
-16.3838960555
20
4.14538161852
40
0.065
0
CIRCLE
5
B5
100
AcDbEntity
8
0
6
ByLayer
62
256
370
-1
100
AcDbCircle
10
-15.8889600365
20
0.74824120583
40
0.065
0
CIRCLE
5
B6
100
AcDbEntity
8
0
6
ByLayer
62
256
370
-1
100
AcDbCircle
10
-13.4101752472
20
2.2808872891
40
0.065
0
CIRCLE
5
B7
100
AcDbEntity
8
0
6
ByLayer
62
256
370
-1
100
AcDbCircle
10
-12.58
20
2.308
40
0.065
0
CIRCLE
5
B8
100
AcDbEntity
8
0
6
ByLayer
62
256
370
-1
100
AcDbCircle
10
-17.2296401314
20
10.7631432693
40
0.065
0
CIRCLE
5
B9
100
AcDbEntity
8
0
6
ByLayer
62
256
370
-1
100
AcDbCircle
10
-17.0182041125
20
9.1087028566
40
0.065
0
CIRCLE
5
BA
100
AcDbEntity
8
0
6
ByLayer
62
256
370
-1
100
AcDbCircle
10
-16.5953320745
20
5.79982203122
40
0.065
0
CIRCLE
5
BB
100
AcDbEntity
8
0
6
ByLayer
62
256
370
-1
100
AcDbCircle
10
-21.1708529708
20
12.9507516436
40
0.065
0
CIRCLE
5
BC
100
AcDbEntity
8
0
6
ByLayer
62
256
370
-1
100
AcDbCircle
10
-16.8067680935
20
7.45426244391
40
0.065
0
CIRCLE
5
BD
100
AcDbEntity
8
0
6
ByLayer
62
256
370
-1
100
AcDbCircle
10
-20.8134371494
20
11.3237284447
40
0.065
0
CIRCLE
5
BE
100
AcDbEntity
8
0
6
ByLayer
62
256
370
-1
100
AcDbCircle
10
-20.4664059947
20
9.6950645612
40
0.065
0
CIRCLE
5
BF
100
AcDbEntity
8
0
6
ByLayer
62
256
370
-1
100
AcDbCircle
10
-20.1193748399
20
8.06640067784
40
0.065
0
CIRCLE
5
C0
100
AcDbEntity
8
0
6
ByLayer
62
256
370
-1
100
AcDbCircle
10
-19.7723436852
20
6.43773679443
40
0.065
0
CIRCLE
5
C1
100
AcDbEntity
8
0
6
ByLayer
62
256
370
-1
100
AcDbCircle
10
-19.4253125304
20
4.80907291105
40
0.065
0
CIRCLE
5
C2
100
AcDbEntity
8
0
6
ByLayer
62
256
370
-1
100
AcDbCircle
10
-19.0782813756
20
3.18040902765
40
0.065
0
CIRCLE
5
C3
100
AcDbEntity
8
0
6
ByLayer
62
256
370
-1
100
AcDbCircle
10
-18.7312502209
20
1.55174514425
40
0.065
0
CIRCLE
5
C4
100
AcDbEntity
8
0
6
ByLayer
62
256
370
-1
100
AcDbCircle
10
-17.4410761505
20
12.4175836819
40
0.065
0
CIRCLE
5
C5
100
AcDbEntity
8
0
6
ByLayer
62
256
370
-1
100
AcDbCircle
10
-17.6629925848
20
14.0713464559
40
0.065
0
CIRCLE
5
C6
100
AcDbEntity
8
0
6
ByLayer
62
256
370
-1
100
AcDbCircle
10
-17.8744286038
20
15.7257868686
40
0.065
0
CIRCLE
5
C7
100
AcDbEntity
8
0
6
ByLayer
62
256
370
-1
100
AcDbCircle
10
-21.5178841254
20
14.579415527
40
0.065
0
CIRCLE
5
C8
100
AcDbEntity
8
0
6
ByLayer
62
256
370
-1
100
AcDbCircle
10
-27.7741876864
20
10.9012975496
40
0.065
0
CIRCLE
5
C9
100
AcDbEntity
8
0
6
ByLayer
62
256
370
-1
100
AcDbCircle
10
-27.2578525773
20
9.3226823449
40
0.065
0
CIRCLE
5
CA
100
AcDbEntity
8
0
6
ByLayer
62
256
370
-1
100
AcDbCircle
10
-26.7516830185
20
7.74128792215
40
0.065
0
CIRCLE
5
CB
100
AcDbEntity
8
0
6
ByLayer
62
256
370
-1
100
AcDbCircle
10
-23.5306846765
20
8.40201025806
40
0.065
0
CIRCLE
5
CC
100
AcDbEntity
8
0
6
ByLayer
62
256
370
-1
100
AcDbCircle
10
-28.2803572453
20
12.4826919723
40
0.065
0
CIRCLE
5
CD
100
AcDbEntity
8
0
6
ByLayer
62
256
370
-1
100
AcDbCircle
10
-24.0106698504
20
9.9925024966
40
0.065
0
CIRCLE
5
CE
100
AcDbEntity
8
0
6
ByLayer
62
256
370
-1
100
AcDbCircle
10
-24.5008649084
20
11.5804034916
40
0.065
0
CIRCLE
5
CF
100
AcDbEntity
8
0
6
ByLayer
62
256
370
-1
100
AcDbCircle
10
-24.9808500823
20
13.1708957302
40
0.065
0
CIRCLE
5
D0
100
AcDbEntity
8
0
6
ByLayer
62
256
370
-1
100
AcDbCircle
10
-23.0506995026
20
6.81151801953
40
0.065
0
CIRCLE
5
D1
100
AcDbEntity
8
0
6
ByLayer
62
256
370
-1
100
AcDbCircle
10
-26.2455134597
20
6.15989349942
40
0.065
0
CIRCLE
5
D2
100
AcDbEntity
8
0
6
ByLayer
62
256
370
-1
100
AcDbCircle
10
-22.5707143287
20
5.22102578099
40
0.065
0
CIRCLE
5
D3
100
AcDbEntity
8
0
6
ByLayer
62
256
370
-1
100
AcDbCircle
10
-25.7393439009
20
4.57849907668
40
0.065
0
CIRCLE
5
D4
100
AcDbEntity
8
0
6
ByLayer
62
256
370
-1
100
AcDbCircle
10
-22.0907291549
20
3.63053354246
40
0.065
0
CIRCLE
5
D5
100
AcDbEntity
8
0
6
ByLayer
62
256
370
-1
100
AcDbCircle
10
-25.2331743419
20
2.99710465395
40
0.065
0
CIRCLE
5
D6
100
AcDbEntity
8
0
6
ByLayer
62
256
370
-1
100
AcDbCircle
10
-21.6786385521
20
2.21253630554
40
0.065
0
CIRCLE
5
D7
100
AcDbEntity
8
0
6
ByLayer
62
256
370
-1
100
AcDbCircle
10
-24.8397367393
20
1.83112632743
40
0.065
0
CIRCLE
5
D8
100
AcDbEntity
8
0
6
ByLayer
62
256
370
-1
100
AcDbCircle
10
-12.52
20
3.48
40
0.065
0
CIRCLE
5
D9
100
AcDbEntity
8
0
6
ByLayer
62
256
370
-1
100
AcDbCircle
10
-13.43
20
3.46
40
0.065
0
LINE
5
DA
100
AcDbEntity
8
0
6
ByLayer
62
256
370
9
100
AcDbLine
10
0.584000000001
20
12.8781000001
11
4.196
21
1.92240000005
0
LINE
5
DB
100
AcDbEntity
8
0
6
ByLayer
62
256
370
9
100
AcDbLine
10
4.4165
20
1.65600000005
11
6.0335
21
0.879000000053
0
ELLIPSE
5
DC
100
AcDbEntity
8
0
6
ByLayer
62
256
370
9
100
AcDbEllipse
10
4.72275
20
2.17446250005
30
0
11
0
21
0.611242526667
31
0
40
0.945945945946
41
1.99585828797
42
2.58339436485
0
ELLIPSE
5
DD
100
AcDbEntity
8
0
6
ByLayer
62
256
370
9
100
AcDbEllipse
10
6.13290460526
20
1.06864934216
30
0
11
0
21
0.216817209954
31
0
40
0.945945945946
41
2.63560642301
42
4.70801042973
0
ELLIPSE
5
DE
100
AcDbEntity
8
0
6
ByLayer
62
256
370
9
100
AcDbEllipse
10
0.934028688526
20
12.913492623
30
0
11
0
21
0.371719089235
31
0
40
0.945945945946
41
0.6907582289
42
1.66615413626
0
ARC
5
DF
100
AcDbEntity
8
0
6
ByLayer
62
256
370
9
100
AcDbCircle
10
2.952
20
13.8116000001
40
0.172586210341
100
AcDbArc
50
43.591371265
51
101.700579463
0
LINE
5
E0
100
AcDbEntity
8
0
6
ByLayer
62
256
370
9
100
AcDbLine
10
6.33799999999
20
1.06770000005
11
3.147
21
13.7806000001
0
ARC
5
E1
100
AcDbEntity
8
0
6
ByLayer
62
256
370
9
100
AcDbCircle
10
2.64836363636
20
13.6392363637
40
0.518287469293
100
AcDbArc
50
15.828057401
51
34.205729555
0
ELLIPSE
5
E2
100
AcDbEntity
8
0
6
ByLayer
62
256
370
9
100
AcDbEllipse
10
7.53318805309
20
1.05587743363
30
0
11
0
21
0.535321120274
31
0
40
0.945945945946
41
1.69963127559
42
2.78517369051
0
LINE
5
E3
100
AcDbEntity
8
0
6
ByLayer
62
256
370
9
100
AcDbLine
10
7.3565
20
0.5542
11
8.69
21
0.0436
0
ELLIPSE
5
E4
100
AcDbEntity
8
0
6
ByLayer
62
256
370
9
100
AcDbEllipse
10
8.71660393258
20
0.179356741574
30
0
11
0
21
0.138639320204
31
0
40
0.945945945946
41
2.93731646837
42
4.77405023602
0
LINE
5
E5
100
AcDbEntity
8
0
6
ByLayer
62
256
370
9
100
AcDbLine
10
6.21
20
14.9
11
4.01
21
14
0
ARC
5
E6
100
AcDbEntity
8
0
6
ByLayer
62
256
370
9
100
AcDbCircle
10
4.08303571429
20
13.7604464286
40
0.250439871317
100
AcDbArc
50
106.955551332
51
193.966884149
0
ARC
5
E7
100
AcDbEntity
8
0
6
ByLayer
62
256
370
9
100
AcDbCircle
10
6.26423076923
20
14.6742307692
40
0.232191132246
100
AcDbArc
50
21.678041342
51
103.506807782
0
LINE
5
E8
100
AcDbEntity
8
0
6
ByLayer
62
256
370
9
100
AcDbLine
10
8.8475
20
0.1879
11
6.48
21
14.76
0
LINE
5
E9
100
AcDbEntity
8
0
6
ByLayer
62
256
370
9
100
AcDbLine
10
7.03099999999
20
0.9871
11
3.84
21
13.7
0
ELLIPSE
5
EA
100
AcDbEntity
8
0
6
ByLayer
62
256
370
9
100
AcDbEllipse
10
10.01025
20
0.179788461538
30
0
11
0
21
0.172241108787
31
0
40
0.945945945946
41
1.52368481038
42
3.80046191282
0
ELLIPSE
5
EB
100
AcDbEntity
8
0
6
ByLayer
62
256
370
9
100
AcDbEllipse
10
8.68268478261
20
2.63448478261
30
0
11
0
21
2.83652432571
31
0
40
0.945945945946
41
4.18588827305
42
4.43730279058
0
ELLIPSE
5
EC
100
AcDbEntity
8
0
6
ByLayer
62
256
370
9
100
AcDbEllipse
10
7.1175
20
3.56917142857
30
0
11
0
21
4.7368118126
31
0
40
0.945945945946
41
3.87291478588
42
4.19082072555
0
ARC
5
ED
100
AcDbEntity
8
0
6
ByLayer
62
256
370
9
100
AcDbCircle
10
10.165
20
16.305
40
0.137295302177
100
AcDbArc
50
33.11134196
51
100.491477012
0
LINE
5
EE
100
AcDbEntity
8
0
6
ByLayer
62
256
370
9
100
AcDbLine
10
10.14
20
16.44
11
7.61
21
15.1
0
ARC
5
EF
100
AcDbEntity
8
0
6
ByLayer
62
256
370
9
100
AcDbCircle
10
7.84641104294
20
14.8147546012
40
0.370479579393
100
AcDbArc
50
129.651898336
51
188.499098174
0
LINE
5
F0
100
AcDbEntity
8
0
6
ByLayer
62
256
370
9
100
AcDbLine
10
9.8475
20
0.1879
11
7.48
21
14.76
0
LINE
5
F1
100
AcDbEntity
8
0
6
ByLayer
62
256
370
9
100
AcDbLine
10
11.278
20
16.4161
11
12.265
21
1.864
0
ELLIPSE
5
F2
100
AcDbEntity
8
0
6
ByLayer
62
256
370
9
100
AcDbEllipse
10
12.4755833333
20
2.04715
30
0
11
0
21
0.288274353313
31
0
40
0.945945945946
41
2.25923504239
42
3.80263582244
0
ELLIPSE
5
F3
100
AcDbEntity
8
0
6
ByLayer
62
256
370
9
100
AcDbEllipse
10
13.0009308511
20
1.38736914894
30
0
11
0
21
0.574454517147
31
0
40
0.945945945946
41
5.59396534174
42
0.71906849541
0
ELLIPSE
5
F4
100
AcDbEntity
8
0
6
ByLayer
62
256
370
9
100
AcDbEllipse
10
13.5323928571
20
1.95631122449
30
0
11
0
21
0.233230455254
31
0
40
0.945945945946
41
2.13953686461
42
4.30545664088
0
LINE
5
F5
100
AcDbEntity
8
0
6
ByLayer
62
256
370
9
100
AcDbLine
10
13.735
20
1.864
11
14.239
21
16.6048
0
ARC
5
F6
100
AcDbEntity
8
0
6
ByLayer
62
256
370
9
100
AcDbCircle
10
11.5152590674
20
16.3642746114
40
0.235784046578
100
AcDbArc
50
91.2780650689
51
176.175874891
0
LINE
5
F7
100
AcDbEntity
8
0
6
ByLayer
62
256
370
9
100
AcDbLine
10
14.01
20
16.78
11
11.51
21
16.6
0
ARC
5
F8
100
AcDbEntity
8
0
6
ByLayer
62
256
370
9
100
AcDbCircle
10
13.9686705302
20
16.4887187867
40
0.294198691879
100
AcDbArc
50
23.238996713
51
81.9242912068
0
ELLIPSE
5
F9
100
AcDbEntity
8
0
6
ByLayer
62
256
370
9
100
AcDbEllipse
10
15.4376710526
20
16.5954526316
30
0
11
0
21
0.210231589505
31
0
40
0.945945945946
41
0.10160422314
42
1.52631941932
0
ELLIPSE
5
FA
100
AcDbEntity
8
0
6
ByLayer
62
256
370
9
100
AcDbEllipse
10
13.9236034483
20
5.53216724138
30
0
11
0
21
11.3825220834
31
0
40
0.945945945946
41
5.90117404031
42
6.14399179056
0
ELLIPSE
5
FB
100
AcDbEntity
8
0
6
ByLayer
62
256
370
9
100
AcDbEllipse
10
17.8644871134
20
15.7106206186
30
0
11
0
21
0.391268033515
31
0
40
0.945945945946
41
4.84202216723
42
6.08461391834
0
ELLIPSE
5
FC
100
AcDbEntity
8
0
6
ByLayer
62
256
370
9
100
AcDbEllipse
10
15.803375
20
1.8751
30
0
11
0
21
1.12947954413
31
0
40
0.945945945946
41
1.58062402021
42
2.01796191195
0
LINE
5
FD
100
AcDbEntity
8
0
6
ByLayer
62
256
370
9
100
AcDbLine
10
14.735
20
1.864
11
15.239
21
16.6048
0
LINE
5
FE
100
AcDbEntity
8
0
6
ByLayer
62
256
370
9
100
AcDbLine
10
18.2315
20
15.7612
11
16.205
21
0.421
0
ELLIPSE
5
FF
100
AcDbEntity
8
0
6
ByLayer
62
256
370
9
100
AcDbEllipse
10
15.9146799065
20
0.51804719626
30
0
11
0
21
0.321887855735
31
0
40
0.945945945946
41
2.66317134476
42
4.40613000079
0
ELLIPSE
5
100
100
AcDbEntity
8
0
6
ByLayer
62
256
370
9
100
AcDbEllipse
10
18.4766261468
20
3.67674056357
30
0
11
0
21
4.47481324808
31
0
40
0.945945945946
41
2.10803109427
42
2.44922931786
0
ELLIPSE
5
101
100
AcDbEntity
8
0
6
ByLayer
62
256
370
9
100
AcDbEllipse
10
19.4923366337
20
15.5470029703
30
0
11
0
21
0.349161551101
31
0
40
0.945945945946
41
6.18260838972
42
0.91036049003
0
LINE
5
102
100
AcDbEntity
8
0
6
ByLayer
62
256
370
9
100
AcDbLine
10
19.2315
20
15.7612
11
17.205
21
0.421
0
ELLIPSE
5
103
100
AcDbEntity
8
0
6
ByLayer
62
256
370
9
100
AcDbEllipse
10
17.4754256756
20
0.51496428571
30
0
11
0
21
0.304573573599
31
0
40
0.945945945946
41
1.9229875487
42
3.40880732076
0
LINE
5
104
100
AcDbEntity
8
0
6
ByLayer
62
256
370
9
100
AcDbLine
10
17.5515
20
0.2212
11
18.675
21
0.754
0
ELLIPSE
5
105
100
AcDbEntity
8
0
6
ByLayer
62
256
370
9
100
AcDbEllipse
10
17.898
20
1.65976
30
0
11
0
21
1.22274246577
31
0
40
0.945945945946
41
3.87818641485
42
4.32513961714
0
LINE
5
106
100
AcDbEntity
8
0
6
ByLayer
62
256
370
9
100
AcDbLine
10
19.5255
20
15.8944
11
21.72
21
14.9176
0
ELLIPSE
5
107
100
AcDbEntity
8
0
6
ByLayer
62
256
370
9
100
AcDbEllipse
10
21.5518157895
20
14.5843078947
30
0
11
0
21
0.377749382368
31
0
40
0.945945945946
41
4.68377379171
42
5.79313700705
0
LINE
5
108
100
AcDbEntity
8
0
6
ByLayer
62
256
370
9
100
AcDbLine
10
18.969
20
1.198
11
21.909
21
14.5735
0
ELLIPSE
5
109
100
AcDbEntity
8
0
6
ByLayer
62
256
370
9
100
AcDbEllipse
10
24.78535
20
13.16047
30
0
11
0
21
0.48817037784
31
0
40
0.945945945946
41
4.53639960616
42
5.72482701376
0
ELLIPSE
5
10A
100
AcDbEntity
8
0
6
ByLayer
62
256
370
9
100
AcDbEllipse
10
20.152375
20
1.17897142857
30
0
11
0
21
0.194785250176
31
0
40
0.945945945946
41
1.47295027254
42
3.52323281707
0
LINE
5
10B
100
AcDbEntity
8
0
6
ByLayer
62
256
370
9
100
AcDbLine
10
20.221
20
0.9982
11
21.733
21
1.753
0
ELLIPSE
5
10C
100
AcDbEntity
8
0
6
ByLayer
62
256
370
9
100
AcDbEllipse
10
21.43375
20
2.3598
30
0
11
0
21
0.684312474313
31
0
40
0.945945945946
41
3.62216730354
42
4.30075253244
0
ELLIPSE
5
10D
100
AcDbEntity
8
0
6
ByLayer
62
256
370
9
100
AcDbEllipse
10
23.063
20
14.5591625
30
0
11
0
21
0.163430119336
31
0
40
0.945945945946
41
5.83852275868
42
1.482954777
0
ELLIPSE
5
10E
100
AcDbEntity
8
0
6
ByLayer
62
256
370
9
100
AcDbEllipse
10
30.8084239131
20
26.7629891304
30
0
11
0
21
14.5344927168
31
0
40
0.945945945946
41
2.54899922993
42
2.70783400541
0
LINE
5
10F
100
AcDbEntity
8
0
6
ByLayer
62
256
370
9
100
AcDbLine
10
25.24
20
13.075
11
22.027
21
2.086
0
LINE
5
110
100
AcDbEntity
8
0
6
ByLayer
62
256
370
9
100
AcDbLine
10
19.969
20
1.198
11
22.909
21
14.5735
0
ELLIPSE
5
111
100
AcDbEntity
8
0
6
ByLayer
62
256
370
9
100
AcDbEllipse
10
23.1592045454
20
2.05017727273
30
0
11
0
21
0.144277064293
31
0
40
0.945945945946
41
1.31988049849
42
3.32801471703
0
ELLIPSE
5
112
100
AcDbEntity
8
0
6
ByLayer
62
256
370
9
100
AcDbEllipse
10
23.5415
20
0.6023
30
0
11
0
21
1.35953226148
31
0
40
0.945945945946
41
6.00189500289
42
0.28129030429
0
ELLIPSE
5
113
100
AcDbEntity
8
0
6
ByLayer
62
256
370
9
100
AcDbEllipse
10
21.96006875
20
-2.725225625
30
0
11
0
21
5.06652760278
31
0
40
0.945945945946
41
5.70979678191
42
5.86679894759
0
ELLIPSE
5
114
100
AcDbEntity
8
0
6
ByLayer
62
256
370
9
100
AcDbEllipse
10
24.79625
20
1.89175
30
0
11
0
21
0.438766025348
31
0
40
0.945945945946
41
2.53604798999
42
4.39063842599
0
ELLIPSE
5
115
100
AcDbEntity
8
0
6
ByLayer
62
256
370
9
100
AcDbEllipse
10
26.6075
20
12.853
30
0
11
0
21
0.447455305031
31
0
40
0.945945945946
41
6.15883031263
42
1.05165021255
0
ELLIPSE
5
116
100
AcDbEntity
8
0
6
ByLayer
62
256
370
9
100
AcDbEllipse
10
29.99025
20
22.19365
30
0
11
0
21
9.5678970273
31
0
40
0.945945945946
41
2.76478451103
42
2.97825585633
0
ELLIPSE
5
117
100
AcDbEntity
8
0
6
ByLayer
62
256
370
9
100
AcDbEllipse
10
28.4859073604
20
12.5354667513
30
0
11
0
21
0.220343784176
31
0
40
0.945945945946
41
4.43723302623
42
6.12617131674
0
LINE
5
118
100
AcDbEntity
8
0
6
ByLayer
62
256
370
9
100
AcDbLine
10
25.19
20
1.753
11
28.6865
21
12.4756
0
LINE
5
119
100
AcDbEntity
8
0
6
ByLayer
62
256
370
9
100
AcDbLine
10
26.24
20
13.075
11
23.027
21
2.086
0
LINE
5
11A
100
AcDbEntity
8
0
6
ByLayer
62
256
370
9
100
AcDbLine
10
0.71
20
13.2
11
2.917
21
13.9806000001
0
LINE
5
11B
100
AcDbEntity
8
0
6
ByLayer
62
256
370
9
100
AcDbLine
10
10.28
20
16.38
11
11.265
21
1.864
0
CIRCLE
5
11C
100
AcDbEntity
8
0
6
ByLayer
62
256
370
-1
100
AcDbCircle
10
6.48384554338
20
4.68651203374
40
0.065
0
CIRCLE
5
11D
100
AcDbEntity
8
0
6
ByLayer
62
256
370
-1
100
AcDbCircle
10
6.0832586489
20
6.30138049718
40
0.065
0
CIRCLE
5
11E
100
AcDbEntity
8
0
6
ByLayer
62
256
370
-1
100
AcDbCircle
10
3.56816436604
20
5.07534941463
40
0.065
0
CIRCLE
5
11F
100
AcDbEntity
8
0
6
ByLayer
62
256
370
-1
100
AcDbCircle
10
3.04895993707
20
6.65201410999
40
0.065
0
CIRCLE
5
120
100
AcDbEntity
8
0
6
ByLayer
62
256
370
-1
100
AcDbCircle
10
5.68267175443
20
7.91624896061
40
0.065
0
CIRCLE
5
121
100
AcDbEntity
8
0
6
ByLayer
62
256
370
-1
100
AcDbCircle
10
5.28208485995
20
9.531117424
40
0.065
0
CIRCLE
5
122
100
AcDbEntity
8
0
6
ByLayer
62
256
370
-1
100
AcDbCircle
10
2.5297555081
20
8.22867880535
40
0.065
0
CIRCLE
5
123
100
AcDbEntity
8
0
6
ByLayer
62
256
370
-1
100
AcDbCircle
10
2.01055107912
20
9.80534350075
40
0.065
0
CIRCLE
5
124
100
AcDbEntity
8
0
6
ByLayer
62
256
370
-1
100
AcDbCircle
10
4.88149796548
20
11.1459858875
40
0.065
0
CIRCLE
5
125
100
AcDbEntity
8
0
6
ByLayer
62
256
370
-1
100
AcDbCircle
10
1.48120442898
20
11.3791353047
40
0.065
0
CIRCLE
5
126
100
AcDbEntity
8
0
6
ByLayer
62
256
370
-1
100
AcDbCircle
10
4.47058689447
20
12.7588315366
40
0.065
0
CIRCLE
5
127
100
AcDbEntity
8
0
6
ByLayer
62
256
370
-1
100
AcDbCircle
10
4.2
20
13.66
40
0.065
0
CIRCLE
5
128
100
AcDbEntity
8
0
6
ByLayer
62
256
370
-1
100
AcDbCircle
10
0.962000000001
20
12.9558000001
40
0.065
0
CIRCLE
5
129
100
AcDbEntity
8
0
6
ByLayer
62
256
370
-1
100
AcDbCircle
10
4.08736879502
20
3.49868471927
40
0.065
0
CIRCLE
5
12A
100
AcDbEntity
8
0
6
ByLayer
62
256
370
-1
100
AcDbCircle
10
6.88443243785
20
3.07164357031
40
0.065
0
CIRCLE
5
12B
100
AcDbEntity
8
0
6
ByLayer
62
256
370
-1
100
AcDbCircle
10
4.60657322398
20
1.9220200239
40
0.065
0
CIRCLE
5
12C
100
AcDbEntity
8
0
6
ByLayer
62
256
370
-1
100
AcDbCircle
10
7.28501933232
20
1.45677510688
40
0.065
0
CIRCLE
5
12D
100
AcDbEntity
8
0
6
ByLayer
62
256
370
-1
100
AcDbCircle
10
8.21630230235
20
12.3267000801
40
0.065
0
CIRCLE
5
12E
100
AcDbEntity
8
0
6
ByLayer
62
256
370
-1
100
AcDbCircle
10
8.48222762348
20
10.6810681762
40
0.065
0
CIRCLE
5
12F
100
AcDbEntity
8
0
6
ByLayer
62
256
370
-1
100
AcDbCircle
10
8.74815294461
20
9.03543627226
40
0.065
0
CIRCLE
5
130
100
AcDbEntity
8
0
6
ByLayer
62
256
370
-1
100
AcDbCircle
10
9.01407826574
20
7.38980436836
40
0.065
0
CIRCLE
5
131
100
AcDbEntity
8
0
6
ByLayer
62
256
370
-1
100
AcDbCircle
10
9.28000358687
20
5.74417246446
40
0.065
0
CIRCLE
5
132
100
AcDbEntity
8
0
6
ByLayer
62
256
370
-1
100
AcDbCircle
10
10.1100058375
20
0.7536074741
40
0.065
0
CIRCLE
5
133
100
AcDbEntity
8
0
6
ByLayer
62
256
370
-1
100
AcDbCircle
10
9.81185422913
20
2.45290865667
40
0.065
0
CIRCLE
5
134
100
AcDbEntity
8
0
6
ByLayer
62
256
370
-1
100
AcDbCircle
10
9.545928908
20
4.09854056056
40
0.065
0
CIRCLE
5
135
100
AcDbEntity
8
0
6
ByLayer
62
256
370
-1
100
AcDbCircle
10
7.91
20
14.5
40
0.065
0
CIRCLE
5
136
100
AcDbEntity
8
0
6
ByLayer
62
256
370
-1
100
AcDbCircle
10
11.7295
20
14.74
40
0.065
0
CIRCLE
5
137
100
AcDbEntity
8
0
6
ByLayer
62
256
370
-1
100
AcDbCircle
10
11.8555
20
13.075
40
0.065
0
CIRCLE
5
138
100
AcDbEntity
8
0
6
ByLayer
62
256
370
-1
100
AcDbCircle
10
11.971
20
11.41
40
0.065
0
CIRCLE
5
139
100
AcDbEntity
8
0
6
ByLayer
62
256
370
-1
100
AcDbCircle
10
13.9135
20
16.3051
40
0.065
0
CIRCLE
5
13A
100
AcDbEntity
8
0
6
ByLayer
62
256
370
-1
100
AcDbCircle
10
12.202
20
8.08
40
0.065
0
CIRCLE
5
13B
100
AcDbEntity
8
0
6
ByLayer
62
256
370
-1
100
AcDbCircle
10
13.6578566611
20
9.7315639371
40
0.065
0
CIRCLE
5
13C
100
AcDbEntity
8
0
6
ByLayer
62
256
370
-1
100
AcDbCircle
10
12.0865
20
9.745
40
0.065
0
CIRCLE
5
13D
100
AcDbEntity
8
0
6
ByLayer
62
256
370
-1
100
AcDbCircle
10
13.7183195943
20
11.3998108926
40
0.065
0
CIRCLE
5
13E
100
AcDbEntity
8
0
6
ByLayer
62
256
370
-1
100
AcDbCircle
10
13.7787825275
20
13.0680578481
40
0.065
0
CIRCLE
5
13F
100
AcDbEntity
8
0
6
ByLayer
62
256
370
-1
100
AcDbCircle
10
13.8497390644
20
14.7366921881
40
0.065
0
CIRCLE
5
140
100
AcDbEntity
8
0
6
ByLayer
62
256
370
-1
100
AcDbCircle
10
11.614
20
16.3051
40
0.065
0
CIRCLE
5
141
100
AcDbEntity
8
0
6
ByLayer
62
256
370
-1
100
AcDbCircle
10
13.5973937278
20
8.06331698154
40
0.065
0
CIRCLE
5
142
100
AcDbEntity
8
0
6
ByLayer
62
256
370
-1
100
AcDbCircle
10
13.5369307946
20
6.395070026
40
0.065
0
CIRCLE
5
143
100
AcDbEntity
8
0
6
ByLayer
62
256
370
-1
100
AcDbCircle
10
12.3175
20
6.415
40
0.065
0
CIRCLE
5
144
100
AcDbEntity
8
0
6
ByLayer
62
256
370
-1
100
AcDbCircle
10
12.433
20
4.75
40
0.065
0
CIRCLE
5
145
100
AcDbEntity
8
0
6
ByLayer
62
256
370
-1
100
AcDbCircle
10
13.4764678614
20
4.72682307046
40
0.065
0
CIRCLE
5
146
100
AcDbEntity
8
0
6
ByLayer
62
256
370
-1
100
AcDbCircle
10
16.1724600365
20
2.49094120583
40
0.065
0
CIRCLE
5
147
100
AcDbEntity
8
0
6
ByLayer
62
256
370
-1
100
AcDbCircle
10
16.3838960555
20
4.14538161852
40
0.065
0
CIRCLE
5
148
100
AcDbEntity
8
0
6
ByLayer
62
256
370
-1
100
AcDbCircle
10
15.8889600365
20
0.74824120583
40
0.065
0
CIRCLE
5
149
100
AcDbEntity
8
0
6
ByLayer
62
256
370
-1
100
AcDbCircle
10
13.4101752472
20
2.2808872891
40
0.065
0
CIRCLE
5
14A
100
AcDbEntity
8
0
6
ByLayer
62
256
370
-1
100
AcDbCircle
10
12.58
20
2.308
40
0.065
0
CIRCLE
5
14B
100
AcDbEntity
8
0
6
ByLayer
62
256
370
-1
100
AcDbCircle
10
17.2296401314
20
10.7631432693
40
0.065
0
CIRCLE
5
14C
100
AcDbEntity
8
0
6
ByLayer
62
256
370
-1
100
AcDbCircle
10
17.0182041125
20
9.1087028566
40
0.065
0
CIRCLE
5
14D
100
AcDbEntity
8
0
6
ByLayer
62
256
370
-1
100
AcDbCircle
10
16.5953320745
20
5.79982203122
40
0.065
0
CIRCLE
5
14E
100
AcDbEntity
8
0
6
ByLayer
62
256
370
-1
100
AcDbCircle
10
21.1708529708
20
12.9507516436
40
0.065
0
CIRCLE
5
14F
100
AcDbEntity
8
0
6
ByLayer
62
256
370
-1
100
AcDbCircle
10
16.8067680935
20
7.45426244391
40
0.065
0
CIRCLE
5
150
100
AcDbEntity
8
0
6
ByLayer
62
256
370
-1
100
AcDbCircle
10
20.8134371494
20
11.3237284447
40
0.065
0
CIRCLE
5
151
100
AcDbEntity
8
0
6
ByLayer
62
256
370
-1
100
AcDbCircle
10
20.4664059947
20
9.6950645612
40
0.065
0
CIRCLE
5
152
100
AcDbEntity
8
0
6
ByLayer
62
256
370
-1
100
AcDbCircle
10
20.1193748399
20
8.06640067784
40
0.065
0
CIRCLE
5
153
100
AcDbEntity
8
0
6
ByLayer
62
256
370
-1
100
AcDbCircle
10
19.7723436852
20
6.43773679443
40
0.065
0
CIRCLE
5
154
100
AcDbEntity
8
0
6
ByLayer
62
256
370
-1
100
AcDbCircle
10
19.4253125304
20
4.80907291105
40
0.065
0
CIRCLE
5
155
100
AcDbEntity
8
0
6
ByLayer
62
256
370
-1
100
AcDbCircle
10
19.0782813756
20
3.18040902765
40
0.065
0
CIRCLE
5
156
100
AcDbEntity
8
0
6
ByLayer
62
256
370
-1
100
AcDbCircle
10
18.7312502209
20
1.55174514425
40
0.065
0
CIRCLE
5
157
100
AcDbEntity
8
0
6
ByLayer
62
256
370
-1
100
AcDbCircle
10
17.4410761505
20
12.4175836819
40
0.065
0
CIRCLE
5
158
100
AcDbEntity
8
0
6
ByLayer
62
256
370
-1
100
AcDbCircle
10
17.6629925848
20
14.0713464559
40
0.065
0
CIRCLE
5
159
100
AcDbEntity
8
0
6
ByLayer
62
256
370
-1
100
AcDbCircle
10
17.8744286038
20
15.7257868686
40
0.065
0
CIRCLE
5
15A
100
AcDbEntity
8
0
6
ByLayer
62
256
370
-1
100
AcDbCircle
10
21.5178841254
20
14.579415527
40
0.065
0
CIRCLE
5
15B
100
AcDbEntity
8
0
6
ByLayer
62
256
370
-1
100
AcDbCircle
10
27.7741876864
20
10.9012975496
40
0.065
0
CIRCLE
5
15C
100
AcDbEntity
8
0
6
ByLayer
62
256
370
-1
100
AcDbCircle
10
27.2578525773
20
9.3226823449
40
0.065
0
CIRCLE
5
15D
100
AcDbEntity
8
0
6
ByLayer
62
256
370
-1
100
AcDbCircle
10
26.7516830185
20
7.74128792215
40
0.065
0
CIRCLE
5
15E
100
AcDbEntity
8
0
6
ByLayer
62
256
370
-1
100
AcDbCircle
10
23.5306846765
20
8.40201025806
40
0.065
0
CIRCLE
5
15F
100
AcDbEntity
8
0
6
ByLayer
62
256
370
-1
100
AcDbCircle
10
28.2803572453
20
12.4826919723
40
0.065
0
CIRCLE
5
160
100
AcDbEntity
8
0
6
ByLayer
62
256
370
-1
100
AcDbCircle
10
24.0106698504
20
9.9925024966
40
0.065
0
CIRCLE
5
161
100
AcDbEntity
8
0
6
ByLayer
62
256
370
-1
100
AcDbCircle
10
24.5008649084
20
11.5804034916
40
0.065
0
CIRCLE
5
162
100
AcDbEntity
8
0
6
ByLayer
62
256
370
-1
100
AcDbCircle
10
24.9808500823
20
13.1708957302
40
0.065
0
CIRCLE
5
163
100
AcDbEntity
8
0
6
ByLayer
62
256
370
-1
100
AcDbCircle
10
23.0506995026
20
6.81151801953
40
0.065
0
CIRCLE
5
164
100
AcDbEntity
8
0
6
ByLayer
62
256
370
-1
100
AcDbCircle
10
26.2455134597
20
6.15989349942
40
0.065
0
CIRCLE
5
165
100
AcDbEntity
8
0
6
ByLayer
62
256
370
-1
100
AcDbCircle
10
22.5707143287
20
5.22102578099
40
0.065
0
CIRCLE
5
166
100
AcDbEntity
8
0
6
ByLayer
62
256
370
-1
100
AcDbCircle
10
25.7393439009
20
4.57849907668
40
0.065
0
CIRCLE
5
167
100
AcDbEntity
8
0
6
ByLayer
62
256
370
-1
100
AcDbCircle
10
22.0907291549
20
3.63053354246
40
0.065
0
CIRCLE
5
168
100
AcDbEntity
8
0
6
ByLayer
62
256
370
-1
100
AcDbCircle
10
25.2331743419
20
2.99710465395
40
0.065
0
CIRCLE
5
169
100
AcDbEntity
8
0
6
ByLayer
62
256
370
-1
100
AcDbCircle
10
21.6786385521
20
2.21253630554
40
0.065
0
CIRCLE
5
16A
100
AcDbEntity
8
0
6
ByLayer
62
256
370
-1
100
AcDbCircle
10
24.8397367393
20
1.83112632743
40
0.065
0
CIRCLE
5
16B
100
AcDbEntity
8
0
6
ByLayer
62
256
370
-1
100
AcDbCircle
10
12.52
20
3.48
40
0.065
0
CIRCLE
5
16C
100
AcDbEntity
8
0
6
ByLayer
62
256
370
-1
100
AcDbCircle
10
13.43
20
3.46
40
0.065
0
MTEXT
5
16D
100
AcDbEntity
8
0
6
ByLayer
62
256
370
-1
100
AcDbMText
10
-8
20
21
30
0
40
1
41
16.0555555556
71
1
72
1
1
March 25, 2015 at 02:18
7
unicode
210
0
220
0
230
1
50
0
73
2
44
1
0
ENDSEC
0
SECTION
2
OBJECTS
0
DICTIONARY
5
C
330
0
100
AcDbDictionary
281
1
3
ACAD_GROUP
350
D
0
DICTIONARY
5
D
330
C
100
AcDbDictionary
281
1
0
ENDSEC
0
EOF
