999
dxfrw 0.5.11
0
SECTION
2
HEADER
9
$ACADVER
1
AC1021
9
$HANDSEED
5
20000
9
$DWGCODEPAGE
3
ANSI_1252
9
$INSBASE
10
0
20
0
30
0
9
$EXTMIN
10
-21.7644972631
20
0.814183414517
30
0
9
$EXTMAX
10
21.7644972631
20
21
30
0
9
$LIMMIN
10
0
20
0
9
$LIMMAX
10
420
20
297
9
$ORTHOMODE
70
0
9
$LTSCALE
40
1
9
$TEXTSTYLE
7
STANDARD
9
$CLAYER
8
0
9
$DIMASZ
40
0.1
9
$DIMLFAC
40
1
9
$DIMSCALE
40
1
9
$DIMEXO
40
0.025
9
$DIMEXE
40
0.05
9
$DIMTXT
40
0.1
9
$DIMTSZ
40
0
9
$DIMAUNIT
70
0
9
$DIMADEC
70
2
9
$DIMLUNIT
70
2
9
$DIMSTYLE
2
Standard
9
$DIMGAP
40
0.025
9
$DIMTIH
70
0
9
$LUNITS
70
2
9
$LUPREC
70
4
9
$AUNITS
70
0
9
$AUPREC
70
2
9
$SPLINESEGS
70
8
9
$GRIDMODE
70
1
9
$SNAPSTYLE
70
0
9
$GRIDUNIT
10
0
20
0
9
$PINSBASE
10
21.9431410095
20
-0.760964711599
30
0
9
$PLIMMIN
10
0
20
0
9
$PLIMMAX
10
12.0078740157
20
17.9921259843
9
$INSUNITS
70
1
9
$PSVPSCALE
40
1
0
ENDSEC
0
SECTION
2
CLASSES
0
ENDSEC
0
SECTION
2
TABLES
0
TABLE
2
VPORT
5
8
330
0
100
AcDbSymbolTable
70
1
0
VPORT
5
31
330
2
100
AcDbSymbolTableRecord
100
AcDbViewportTableRecord
2
*ACTIVE
70
0
10
0
20
0
11
1
21
1
12
25.031582433
22
12.9633758031
13
0
23
0
14
10
24
10
15
10
25
10
16
0
26
0
36
1
17
0
27
0
37
0
40
69.4916513638
41
1.13358778626
42
50
43
0
44
0
50
0
51
0
71
0
72
100
73
1
74
3
75
0
76
1
77
0
78
0
281
0
65
1
110
0
120
0
130
0
111
1
121
0
131
0
112
0
122
1
132
0
79
0
146
0
348
10020
60
7
61
5
292
1
282
1
141
0
142
0
63
250
421
3358443
0
ENDTAB
0
TABLE
2
LTYPE
5
5
330
0
100
AcDbSymbolTable
70
4
0
LTYPE
5
14
330
5
100
AcDbSymbolTableRecord
100
AcDbLinetypeTableRecord
2
ByBlock
70
0
3

72
65
73
0
40
0
0
LTYPE
5
15
330
5
100
AcDbSymbolTableRecord
100
AcDbLinetypeTableRecord
2
ByLayer
70
0
3

72
65
73
0
40
0
0
LTYPE
5
16
330
5
100
AcDbSymbolTableRecord
100
AcDbLinetypeTableRecord
2
Continuous
70
0
3
Solid line
72
65
73
0
40
0
0
LTYPE
5
32
330
5
100
AcDbSymbolTableRecord
100
AcDbLinetypeTableRecord
2
DOT
70
0
3
Dot . . . . . . . . . . . . . . . . . . . . . .
72
65
73
2
40
6.35
49
0
74
0
49
-6.35
74
0
0
LTYPE
5
33
330
5
100
AcDbSymbolTableRecord
100
AcDbLinetypeTableRecord
2
DOT2
70
0
3
Dot (.5x) .....................................
72
65
73
2
40
3.175
49
0
74
0
49
-3.175
74
0
0
LTYPE
5
34
330
5
100
AcDbSymbolTableRecord
100
AcDbLinetypeTableRecord
2
DOTX2
70
0
3
Dot (2x) .  .  .  .  .  .  .  .  .  .  .  .  .
72
65
73
2
40
12.7
49
0
74
0
49
-12.7
74
0
0
LTYPE
5
35
330
5
100
AcDbSymbolTableRecord
100
AcDbLinetypeTableRecord
2
DASHED
70
0
3
Dot . . . . . . . . . . . . . . . . . . . . . .
72
65
73
2
40
19.05
49
12.7
74
0
49
-6.35
74
0
0
LTYPE
5
36
330
5
100
AcDbSymbolTableRecord
100
AcDbLinetypeTableRecord
2
DASHED2
70
0
3
Dashed (.5x) _ _ _ _ _ _ _ _ _ _ _ _ _ _ _ _ _
72
65
73
2
40
9.525
49
6.35
74
0
49
-3.175
74
0
0
LTYPE
5
37
330
5
100
AcDbSymbolTableRecord
100
AcDbLinetypeTableRecord
2
DASHEDX2
70
0
3
Dashed (2x) ____  ____  ____  ____  ____  ___
72
65
73
2
40
38.1
49
25.4
74
0
49
-12.7
74
0
0
LTYPE
5
38
330
5
100
AcDbSymbolTableRecord
100
AcDbLinetypeTableRecord
2
DASHDOT
70
0
3
Dash dot __ . __ . __ . __ . __ . __ . __ . __
72
65
73
4
40
25.4
49
12.7
74
0
49
-6.35
74
0
49
0
74
0
49
-6.35
74
0
0
LTYPE
5
39
330
5
100
AcDbSymbolTableRecord
100
AcDbLinetypeTableRecord
2
DASHDOT2
70
0
3
Dash dot (.5x) _._._._._._._._._._._._._._._.
72
65
73
4
40
12.7
49
6.35
74
0
49
-3.175
74
0
49
0
74
0
49
-3.175
74
0
0
LTYPE
5
3A
330
5
100
AcDbSymbolTableRecord
100
AcDbLinetypeTableRecord
2
DASHDOTX2
70
0
3
Dash dot (2x) ____  .  ____  .  ____  .  ___
72
65
73
4
40
50.8
49
25.4
74
0
49
-12.7
74
0
49
0
74
0
49
-12.7
74
0
0
LTYPE
5
3B
330
5
100
AcDbSymbolTableRecord
100
AcDbLinetypeTableRecord
2
DIVIDE
70
0
3
Divide ____ . . ____ . . ____ . . ____ . . ____
72
65
73
6
40
31.75
49
12.7
74
0
49
-6.35
74
0
49
0
74
0
49
-6.35
74
0
49
0
74
0
49
-6.35
74
0
0
LTYPE
5
3C
330
5
100
AcDbSymbolTableRecord
100
AcDbLinetypeTableRecord
2
DIVIDE2
70
0
3
Divide (.5x) __..__..__..__..__..__..__..__.._
72
65
73
6
40
15.875
49
6.35
74
0
49
-3.175
74
0
49
0
74
0
49
-3.175
74
0
49
0
74
0
49
-3.175
74
0
0
LTYPE
5
3D
330
5
100
AcDbSymbolTableRecord
100
AcDbLinetypeTableRecord
2
DIVIDEX2
70
0
3
Divide (2x) ________  .  .  ________  .  .  _
72
65
73
6
40
63.5
49
25.4
74
0
49
-12.7
74
0
49
0
74
0
49
-12.7
74
0
49
0
74
0
49
-12.7
74
0
0
LTYPE
5
3E
330
5
100
AcDbSymbolTableRecord
100
AcDbLinetypeTableRecord
2
BORDER
70
0
3
Border __ __ . __ __ . __ __ . __ __ . __ __ .
72
65
73
6
40
44.45
49
12.7
74
0
49
-6.35
74
0
49
12.7
74
0
49
-6.35
74
0
49
0
74
0
49
-6.35
74
0
0
LTYPE
5
3F
330
5
100
AcDbSymbolTableRecord
100
AcDbLinetypeTableRecord
2
BORDER2
70
0
3
Border (.5x) __.__.__.__.__.__.__.__.__.__.__.
72
65
73
6
40
22.225
49
6.35
74
0
49
-3.175
74
0
49
6.35
74
0
49
-3.175
74
0
49
0
74
0
49
-3.175
74
0
0
LTYPE
5
40
330
5
100
AcDbSymbolTableRecord
100
AcDbLinetypeTableRecord
2
BORDERX2
70
0
3
Border (2x) ____  ____  .  ____  ____  .  ___
72
65
73
6
40
88.9
49
25.4
74
0
49
-12.7
74
0
49
25.4
74
0
49
-12.7
74
0
49
0
74
0
49
-12.7
74
0
0
LTYPE
5
41
330
5
100
AcDbSymbolTableRecord
100
AcDbLinetypeTableRecord
2
CENTER
70
0
3
Center ____ _ ____ _ ____ _ ____ _ ____ _ ____
72
65
73
4
40
50.8
49
31.75
74
0
49
-6.35
74
0
49
6.35
74
0
49
-6.35
74
0
0
LTYPE
5
42
330
5
100
AcDbSymbolTableRecord
100
AcDbLinetypeTableRecord
2
CENTER2
70
0
3
Center (.5x) ___ _ ___ _ ___ _ ___ _ ___ _ ___
72
65
73
4
40
28.575
49
19.05
74
0
49
-3.175
74
0
49
3.175
74
0
49
-3.175
74
0
0
LTYPE
5
43
330
5
100
AcDbSymbolTableRecord
100
AcDbLinetypeTableRecord
2
CENTERX2
70
0
3
Center (2x) ________  __  ________  __  _____
72
65
73
4
40
101.6
49
63.5
74
0
49
-12.7
74
0
49
12.7
74
0
49
-12.7
74
0
0
ENDTAB
0
TABLE
2
LAYER
5
2
330
0
100
AcDbSymbolTable
70
1
0
LAYER
5
10
330
2
100
AcDbSymbolTableRecord
100
AcDbLayerTableRecord
2
0
70
0
62
7
6
CONTINUOUS
370
0
390
F
0
ENDTAB
0
TABLE
2
STYLE
5
3
330
0
100
AcDbSymbolTable
70
3
0
STYLE
5
44
330
2
100
AcDbSymbolTableRecord
100
AcDbTextStyleTableRecord
2
unicode
70
0
40
0
41
1
50
0
71
0
42
1
3
unicode
4

0
STYLE
5
45
330
2
100
AcDbSymbolTableRecord
100
AcDbTextStyleTableRecord
2
Standard
70
0
40
0
41
1
50
0
71
0
42
1
3
txt
4

0
ENDTAB
0
TABLE
2
VIEW
5
6
330
0
100
AcDbSymbolTable
70
0
0
ENDTAB
0
TABLE
2
UCS
5
7
330
0
100
AcDbSymbolTable
70
0
0
ENDTAB
0
TABLE
2
APPID
5
9
330
0
100
AcDbSymbolTable
70
1
0
APPID
5
12
330
9
100
AcDbSymbolTableRecord
100
AcDbRegAppTableRecord
2
ACAD
70
0
0
ENDTAB
0
TABLE
2
DIMSTYLE
5
A
330
0
100
AcDbSymbolTable
70
1
100
AcDbDimStyleTable
71
1
0
DIMSTYLE
105
46
330
A
100
AcDbSymbolTableRecord
100
AcDbDimStyleTableRecord
2
Standard
70
0
40
1
41
0.1
42
0.025
43
0.38
44
0.05
45
0
46
0
47
0
48
0
140
0.1
141
0.09
142
0
143
25.4
144
1
145
0
146
1
147
0.025
148
0
71
0
72
0
73
0
74
1
75
0
76
0
77
0
78
0
79
0
170
0
171
2
172
0
173
0
174
0
175
0
176
0
177
0
178
0
179
0
271
4
272
4
273
2
274
2
275
0
276
0
277
2
278
46
279
0
280
0
281
0
282
0
283
1
284
0
285
0
286
0
288
0
289
3
340
Standard
341

371
-2
372
-2
0
ENDTAB
0
TABLE
2
BLOCK_RECORD
5
1
330
0
100
AcDbSymbolTable
70
2
0
BLOCK_RECORD
5
1F
330
1
100
AcDbSymbolTableRecord
100
AcDbBlockTableRecord
2
*Model_Space
70
0
280
1
281
0
0
BLOCK_RECORD
5
1E
330
1
100
AcDbSymbolTableRecord
100
AcDbBlockTableRecord
2
*Paper_Space
70
0
280
1
281
0
0
ENDTAB
0
ENDSEC
0
SECTION
2
BLOCKS
0
BLOCK
5
20
330
1F
100
AcDbEntity
8
0
100
AcDbBlockBegin
2
*Model_Space
70
0
10
0
20
0
30
0
3
*Model_Space
1

0
ENDBLK
5
21
330
1F
100
AcDbEntity
8
0
100
AcDbBlockEnd
0
BLOCK
5
1C
330
1B
100
AcDbEntity
8
0
100
AcDbBlockBegin
2
*Paper_Space
70
0
10
0
20
0
30
0
3
*Paper_Space
1

0
ENDBLK
5
1D
330
1F
100
AcDbEntity
8
0
100
AcDbBlockEnd
0
ENDSEC
0
SECTION
2
ENTITIES
0
LINE
5
47
100
AcDbEntity
8
0
6
ByLayer
62
256
370
-1
100
AcDbLine
10
-0.5501034
20
13.86945
11
-4.0544658
21
2.694636
0
LINE
5
48
100
AcDbEntity
8
0
6
ByLayer
62
256
370
-1
100
AcDbLine
10
-4.2683949
20
2.422908
11
-5.8372083
21
1.630368
0
ELLIPSE
5
49
100
AcDbEntity
8
0
6
ByLayer
62
256
370
-1
100
AcDbEllipse
10
21.0765641625
20
57.4375168928
30
0
11
2.72914785061e-15
21
49.5373913127
31
0
40
0.899761526233
41
2.57947742507
42
2.63185085712
0
ELLIPSE
5
4A
100
AcDbEntity
8
0
6
ByLayer
62
256
370
-1
100
AcDbEllipse
10
-0.889701233607
20
13.9055504754
30
0
11
2.08885824033e-17
21
0.37915347102
31
0
40
0.899761526233
41
4.61703117092
42
5.59242707829
0
ELLIPSE
5
4B
100
AcDbEntity
8
0
6
ByLayer
62
256
370
-1
100
AcDbEllipse
10
-12.2769924565
20
-3.34522748379
30
0
11
1.19371653564e-15
21
21.6674238185
31
0
40
0.899761526233
41
5.78755498623
42
5.90919672388
0
ELLIPSE
5
4C
100
AcDbEntity
8
0
6
ByLayer
62
256
370
-1
100
AcDbEllipse
10
-4.56551865
20
2.95173975
30
0
11
3.43484912571e-17
21
0.6234673772
31
0
40
0.899761526233
41
3.69979094233
42
4.28732701921
0
LINE
5
4D
100
AcDbEntity
8
0
6
ByLayer
62
256
370
-1
100
AcDbLine
10
-6.4484343
20
1.381284
11
-7.742196
21
0.860472
0
ELLIPSE
5
4E
100
AcDbEntity
8
0
6
ByLayer
62
256
370
-1
100
AcDbEllipse
10
-12.59940528
20
-3.3241392
30
0
11
1.19960210953e-15
21
21.774254226
31
0
40
0.899761526233
41
5.91689250409
42
6.04658055919
0
ELLIPSE
5
4F
100
AcDbEntity
8
0
6
ByLayer
62
256
370
-1
100
AcDbEllipse
10
-8.96974155
20
9.097227
30
0
11
4.86844287676e-16
21
8.83682281326
31
0
40
0.899761526233
41
6.23255510504
42
0.0506302021415
0
ELLIPSE
5
50
100
AcDbEntity
8
0
6
ByLayer
62
256
370
-1
100
AcDbEllipse
10
-10.87472925
20
8.489613
30
0
11
5.20984202782e-16
21
9.45650427669
31
0
40
0.899761526233
41
6.19747551685
42
0.0125716785027
0
ELLIPSE
5
51
100
AcDbEntity
8
0
6
ByLayer
62
256
370
-1
100
AcDbEllipse
10
-9.90923806552
20
6.45881058621
30
0
11
6.39635567242e-16
21
11.6101725251
31
0
40
0.899761526233
41
0.139193516623
42
0.382011266868
0
ELLIPSE
5
52
100
AcDbEntity
8
0
6
ByLayer
62
256
370
-1
100
AcDbEllipse
10
-9.79752557902
20
21.1507742904
30
0
11
1.79739164081e-16
21
3.26248697129
31
0
40
0.899761526233
41
3.02247939254
42
3.28702018558
0
ELLIPSE
5
53
100
AcDbEntity
8
0
6
ByLayer
62
256
370
-1
100
AcDbEllipse
10
-9.98426111175
20
2.23111653192
30
0
11
3.22812060663e-17
21
0.58594360749
31
0
40
0.899761526233
41
5.56411681176
42
0.689219965442
0
ELLIPSE
5
54
100
AcDbEntity
8
0
6
ByLayer
62
256
370
-1
100
AcDbEllipse
10
-14.3265806876
20
4.56627537484
30
0
11
2.51460062125e-16
21
4.56430951304
31
0
40
0.899761526233
41
3.83395598932
42
4.17515421291
0
LINE
5
55
100
AcDbEntity
8
0
6
ByLayer
62
256
370
-1
100
AcDbLine
10
-12.4588233
20
1.041624
11
-13.548843
21
1.58508
0
LINE
5
56
100
AcDbEntity
8
0
6
ByLayer
62
256
370
-1
100
AcDbLine
10
-14.0785722
20
1.834164
11
-15.5455146
21
2.60406
0
ELLIPSE
5
57
100
AcDbEntity
8
0
6
ByLayer
62
256
370
-1
100
AcDbEllipse
10
-14.7956167013
20
-1.9637301375
30
0
11
2.84711176784e-16
21
5.16785815484
31
0
40
0.899761526233
41
0.416386359584
42
0.573388525266
0
ELLIPSE
5
58
100
AcDbEntity
8
0
6
ByLayer
62
256
370
-1
100
AcDbEllipse
10
-17.54727975
20
2.745585
30
0
11
2.46562539877e-17
21
0.447541345855
31
0
40
0.899761526233
41
1.89254688119
42
3.74713731719
0
LINE
5
59
100
AcDbEntity
8
0
6
ByLayer
62
256
370
-1
100
AcDbLine
10
-14.3739981
20
17.028288
11
-16.503102
21
16.031952
0
ELLIPSE
5
5A
100
AcDbEntity
8
0
6
ByLayer
62
256
370
-1
100
AcDbEllipse
10
-24.3504908805
20
28.114248913
30
0
11
8.16759100078e-16
21
14.8251825711
31
0
40
0.899761526233
41
3.57535130177
42
3.73418607725
0
ELLIPSE
5
5B
100
AcDbEntity
8
0
6
ByLayer
62
256
370
-1
100
AcDbEllipse
10
-22.58649855
20
23.453523
30
0
11
5.37663550969e-16
21
9.75925496785
31
0
40
0.899761526233
41
3.30492945085
42
3.51840079615
0
ELLIPSE
5
5C
100
AcDbEntity
8
0
6
ByLayer
62
256
370
-1
100
AcDbEllipse
10
-21.1269853211
20
13.6021760863
30
0
11
1.23821171044e-17
21
0.22475065986
31
0
40
0.899761526233
41
0.157013990436
42
1.84595228095
0
LINE
5
5D
100
AcDbEntity
8
0
6
ByLayer
62
256
370
-1
100
AcDbLine
10
-17.929296
20
2.60406
11
-21.3216003
21
13.541112
0
ELLIPSE
5
5E
100
AcDbEntity
8
0
6
ByLayer
62
256
370
-1
100
AcDbEllipse
10
-5.2463565
20
4.45655485714
30
0
11
2.66182950357e-16
21
4.83154804885
31
0
40
0.899761526233
41
2.09236458163
42
2.41027052129
0
LINE
5
5F
100
AcDbEntity
8
0
6
ByLayer
62
256
370
-1
100
AcDbLine
10
-19.35549
20
14.37894
11
-18.744264
21
14.66199
0
LINE
5
60
100
AcDbEntity
8
0
6
ByLayer
62
256
370
-1
100
AcDbLine
10
-16.9003989
20
15.816834
11
-16.503102
21
16.031952
0
LINE
5
61
100
AcDbEntity
8
0
6
ByLayer
62
256
370
-1
100
AcDbLine
10
-14.3739981
20
17.028288
11
-13.8035205
21
17.232084
0
LINE
5
62
100
AcDbEntity
8
0
6
ByLayer
62
256
370
-1
100
AcDbLine
10
-10.9816938
20
17.94537
11
-11.3586165
21
17.956692
0
LINE
5
63
100
AcDbEntity
8
0
6
ByLayer
62
256
370
-1
100
AcDbLine
10
-8.0070606
20
17.843472
11
-8.5673511
21
17.922726
0
LINE
5
64
100
AcDbEntity
8
0
6
ByLayer
62
256
370
-1
100
AcDbLine
10
-5.1546726
20
16.824492
11
-5.5825308
21
17.005644
0
LINE
5
65
100
AcDbEntity
8
0
6
ByLayer
62
256
370
-1
100
AcDbLine
10
-2.6792073
20
15.522462
11
-3.0051945
21
15.714936
0
LINE
5
66
100
AcDbEntity
8
0
6
ByLayer
62
256
370
-1
100
AcDbLine
10
-14.0785722
20
1.834164
11
-13.548843
21
1.58508
0
LINE
5
67
100
AcDbEntity
8
0
6
ByLayer
62
256
370
-1
100
AcDbLine
10
-5.8372083
20
1.630368
11
-6.4484343
21
1.381284
0
LINE
5
68
100
AcDbEntity
8
0
6
ByLayer
62
256
370
-1
100
AcDbLine
10
-10.798326
20
2.230434
11
-10.3195323
21
2.683314
0
LINE
5
69
100
AcDbEntity
8
0
6
ByLayer
62
256
370
-1
100
AcDbLine
10
-9.6369966
20
2.671992
11
-9.0155835
21
2.049282
0
ELLIPSE
5
6A
100
AcDbEntity
8
0
6
ByLayer
62
256
370
-1
100
AcDbEllipse
10
-12.0921204559
20
1.8878069807
30
0
11
5.17439452008e-17
21
0.939216268884
31
0
40
0.899761526233
41
2.69274060854
42
3.61747008067
0
ELLIPSE
5
6B
100
AcDbEntity
8
0
6
ByLayer
62
256
370
-1
100
AcDbEllipse
10
-7.945938
20
1.39119075
30
0
11
3.17888828557e-17
21
0.577007335483
31
0
40
0.899761526233
41
2.73831117188
42
3.5448741353
0
ELLIPSE
5
6C
100
AcDbEntity
8
0
6
ByLayer
62
256
370
-1
100
AcDbEllipse
10
-16.2549793143
20
1.41369554508
30
0
11
7.86631047826e-17
21
1.42783213545
31
0
40
0.899761526233
41
5.6981390749
42
0.334118949191
0
LINE
5
6D
100
AcDbEntity
8
0
6
ByLayer
62
256
370
-1
100
AcDbLine
10
0.5501034
20
13.86945
11
4.0544658
21
2.694636
0
LINE
5
6E
100
AcDbEntity
8
0
6
ByLayer
62
256
370
-1
100
AcDbLine
10
4.2683949
20
2.422908
11
5.8372083
21
1.630368
0
ELLIPSE
5
6F
100
AcDbEntity
8
0
6
ByLayer
62
256
370
-1
100
AcDbEllipse
10
-21.0765641625
20
57.4375168928
30
0
11
-3.44684281117e-15
21
49.5373913127
31
0
40
0.899761526233
41
3.65133445006
42
3.70370788211
0
ELLIPSE
5
70
100
AcDbEntity
8
0
6
ByLayer
62
256
370
-1
100
AcDbEllipse
10
0.889701233607
20
13.9055504754
30
0
11
0
21
0.37915347102
31
0
40
0.899761526233
41
0.69075822889
42
1.66615413626
0
ELLIPSE
5
71
100
AcDbEntity
8
0
6
ByLayer
62
256
370
-1
100
AcDbEllipse
10
12.2769924565
20
-3.34522748379
30
0
11
-1.72342140559e-15
21
21.6674238185
31
0
40
0.899761526233
41
0.3739885833
42
0.49563032095
0
ELLIPSE
5
72
100
AcDbEntity
8
0
6
ByLayer
62
256
370
-1
100
AcDbEllipse
10
4.56551865
20
2.95173975
30
0
11
0
21
0.6234673772
31
0
40
0.899761526233
41
1.99585828797
42
2.58339436485
0
LINE
5
73
100
AcDbEntity
8
0
6
ByLayer
62
256
370
-1
100
AcDbLine
10
6.4484343
20
1.381284
11
7.742196
21
0.860472
0
ELLIPSE
5
74
100
AcDbEntity
8
0
6
ByLayer
62
256
370
-1
100
AcDbEllipse
10
12.59940528
20
-3.3241392
30
0
11
-1.72342140559e-15
21
21.774254226
31
0
40
0.899761526233
41
0.23660474799
42
0.36629280309
0
ELLIPSE
5
75
100
AcDbEntity
8
0
6
ByLayer
62
256
370
-1
100
AcDbEllipse
10
8.96974155
20
9.097227
30
0
11
0
21
8.83682281326
31
0
40
0.899761526233
41
6.23255510504
42
0.0506302021396
0
ELLIPSE
5
76
100
AcDbEntity
8
0
6
ByLayer
62
256
370
-1
100
AcDbEllipse
10
10.87472925
20
8.489613
30
0
11
0
21
9.45650427669
31
0
40
0.899761526233
41
6.27061362868
42
0.0857097903296
0
ELLIPSE
5
77
100
AcDbEntity
8
0
6
ByLayer
62
256
370
-1
100
AcDbEllipse
10
9.90923806552
20
6.45881058621
30
0
11
0
21
11.6101725251
31
0
40
0.899761526233
41
5.90117404031
42
6.14399179056
0
ELLIPSE
5
78
100
AcDbEntity
8
0
6
ByLayer
62
256
370
-1
100
AcDbEllipse
10
9.79752557902
20
21.1507742904
30
0
11
0
21
3.26248697129
31
0
40
0.899761526233
41
2.9961651216
42
3.26070591464
0
ELLIPSE
5
79
100
AcDbEntity
8
0
6
ByLayer
62
256
370
-1
100
AcDbEllipse
10
9.98426111175
20
2.23111653192
30
0
11
0
21
0.58594360749
31
0
40
0.899761526233
41
5.59396534174
42
0.71906849542
0
ELLIPSE
5
7A
100
AcDbEntity
8
0
6
ByLayer
62
256
370
-1
100
AcDbEllipse
10
14.3265806876
20
4.56627537484
30
0
11
0
21
4.56430951304
31
0
40
0.899761526233
41
2.10803109427
42
2.44922931786
0
LINE
5
7B
100
AcDbEntity
8
0
6
ByLayer
62
256
370
-1
100
AcDbLine
10
12.4588233
20
1.041624
11
13.548843
21
1.58508
0
LINE
5
7C
100
AcDbEntity
8
0
6
ByLayer
62
256
370
-1
100
AcDbLine
10
14.0785722
20
1.834164
11
15.5455146
21
2.60406
0
ELLIPSE
5
7D
100
AcDbEntity
8
0
6
ByLayer
62
256
370
-1
100
AcDbEllipse
10
14.7956167013
20
-1.9637301375
30
0
11
0
21
5.16785815484
31
0
40
0.899761526233
41
5.70979678191
42
5.8667989476
0
ELLIPSE
5
7E
100
AcDbEntity
8
0
6
ByLayer
62
256
370
-1
100
AcDbEllipse
10
17.54727975
20
2.745585
30
0
11
0
21
0.447541345855
31
0
40
0.899761526233
41
2.53604798999
42
4.39063842599
0
LINE
5
7F
100
AcDbEntity
8
0
6
ByLayer
62
256
370
-1
100
AcDbLine
10
14.3739981
20
17.028288
11
16.503102
21
16.031952
0
ELLIPSE
5
80
100
AcDbEntity
8
0
6
ByLayer
62
256
370
-1
100
AcDbEllipse
10
24.3504908805
20
28.114248913
30
0
11
0
21
14.8251825711
31
0
40
0.899761526233
41
2.54899922993
42
2.70783400541
0
ELLIPSE
5
81
100
AcDbEntity
8
0
6
ByLayer
62
256
370
-1
100
AcDbEllipse
10
22.58649855
20
23.453523
30
0
11
0
21
9.75925496785
31
0
40
0.899761526233
41
2.76478451103
42
2.97825585633
0
ELLIPSE
5
82
100
AcDbEntity
8
0
6
ByLayer
62
256
370
-1
100
AcDbEllipse
10
21.1269853211
20
13.6021760863
30
0
11
0
21
0.22475065986
31
0
40
0.899761526233
41
4.43723302623
42
6.12617131674
0
LINE
5
83
100
AcDbEntity
8
0
6
ByLayer
62
256
370
-1
100
AcDbLine
10
17.929296
20
2.60406
11
21.3216003
21
13.541112
0
ELLIPSE
5
84
100
AcDbEntity
8
0
6
ByLayer
62
256
370
-1
100
AcDbEllipse
10
5.2463565
20
4.45655485714
30
0
11
0
21
4.83154804885
31
0
40
0.899761526233
41
3.87291478589
42
4.19082072555
0
LINE
5
85
100
AcDbEntity
8
0
6
ByLayer
62
256
370
-1
100
AcDbLine
10
19.35549
20
14.37894
11
18.744264
21
14.66199
0
LINE
5
86
100
AcDbEntity
8
0
6
ByLayer
62
256
370
-1
100
AcDbLine
10
16.9003989
20
15.816834
11
16.503102
21
16.031952
0
LINE
5
87
100
AcDbEntity
8
0
6
ByLayer
62
256
370
-1
100
AcDbLine
10
14.3739981
20
17.028288
11
13.8035205
21
17.232084
0
LINE
5
88
100
AcDbEntity
8
0
6
ByLayer
62
256
370
-1
100
AcDbLine
10
10.9816938
20
17.94537
11
11.3586165
21
17.956692
0
LINE
5
89
100
AcDbEntity
8
0
6
ByLayer
62
256
370
-1
100
AcDbLine
10
8.0070606
20
17.843472
11
8.5673511
21
17.922726
0
LINE
5
8A
100
AcDbEntity
8
0
6
ByLayer
62
256
370
-1
100
AcDbLine
10
5.1546726
20
16.824492
11
5.5825308
21
17.005644
0
LINE
5
8B
100
AcDbEntity
8
0
6
ByLayer
62
256
370
-1
100
AcDbLine
10
2.6792073
20
15.522462
11
3.0051945
21
15.714936
0
LINE
5
8C
100
AcDbEntity
8
0
6
ByLayer
62
256
370
-1
100
AcDbLine
10
14.0785722
20
1.834164
11
13.548843
21
1.58508
0
LINE
5
8D
100
AcDbEntity
8
0
6
ByLayer
62
256
370
-1
100
AcDbLine
10
5.8372083
20
1.630368
11
6.4484343
21
1.381284
0
LINE
5
8E
100
AcDbEntity
8
0
6
ByLayer
62
256
370
-1
100
AcDbLine
10
10.798326
20
2.230434
11
10.3195323
21
2.683314
0
LINE
5
8F
100
AcDbEntity
8
0
6
ByLayer
62
256
370
-1
100
AcDbLine
10
9.6369966
20
2.671992
11
9.0155835
21
2.049282
0
ELLIPSE
5
90
100
AcDbEntity
8
0
6
ByLayer
62
256
370
-1
100
AcDbEllipse
10
12.0921204559
20
1.8878069807
30
0
11
0
21
0.939216268884
31
0
40
0.899761526233
41
2.66571522651
42
3.59044469864
0
ELLIPSE
5
91
100
AcDbEntity
8
0
6
ByLayer
62
256
370
-1
100
AcDbEllipse
10
7.945938
20
1.39119075
30
0
11
0
21
0.577007335483
31
0
40
0.899761526233
41
2.73831117188
42
3.5448741353
0
ELLIPSE
5
92
100
AcDbEntity
8
0
6
ByLayer
62
256
370
-1
100
AcDbEllipse
10
16.2549793143
20
1.41369554508
30
0
11
0
21
1.42783213545
31
0
40
0.899761526233
41
5.94906635799
42
0.58504623228
0
MTEXT
5
93
100
AcDbEntity
8
0
6
ByLayer
62
256
370
-1
100
AcDbMText
10
-7
20
21
30
0
40
1
41
16.3888888889
71
1
72
1
1
March 25, 2015 at 00:24
7
unicode
210
0
220
0
230
1
50
0
73
2
44
1
0
ENDSEC
0
SECTION
2
OBJECTS
0
DICTIONARY
5
C
330
0
100
AcDbDictionary
281
1
3
ACAD_GROUP
350
D
0
DICTIONARY
5
D
330
C
100
AcDbDictionary
281
1
0
ENDSEC
0
EOF
