999
dxfrw 0.6.3
  0
SECTION
  2
HEADER
  9
$ACADVER
  1
AC1021
  9
$DWGCODEPAGE
  3
ANSI_1252
  9
$INSBASE
 10
0
 20
0
 30
0
  9
$EXTMIN
 10
-63.99999999997813
 20
6.784582282565032
 30
0
  9
$EXTMAX
 10
64.00000000002187
 20
147.3500000000588
 30
0
  9
$LIMMIN
 10
0
 20
0
  9
$LIMMAX
 10
420
 20
297
  9
$ORTHOMODE
 70
    0
  9
$REGENMODE
 70
    1
  9
$FILLMODE
 70
    1
  9
$QTEXTMODE
 70
    0
  9
$MIRRTEXT
 70
    0
  9
$LTSCALE
 40
1
  9
$ATTMODE
 70
    0
  9
$TEXTSIZE
 40
2.5
  9
$TRACEWID
 40
15.68
  9
$TEXTSTYLE
  7
STANDARD
  9
$CLAYER
  8
0
  9
$CELTYPE
  6
BYLAYER
  9
$CECOLOR
 62
  256
  9
$CELTSCALE
 40
1
  9
$DISPSILH
 70
    0
  9
$DIMSCALE
 40
1
  9
$DIMASZ
 40
0.1
  9
$DIMEXO
 40
0.025
  9
$DIMDLI
 40
3.75
  9
$DIMRND
 40
0
  9
$DIMDLE
 40
0
  9
$DIMEXE
 40
0.05
  9
$DIMTP
 40
0
  9
$DIMTM
 40
0
  9
$DIMTXT
 40
0.1
  9
$DIMCEN
 40
2.5
  9
$DIMTSZ
 40
0
  9
$DIMTOL
 70
    0
  9
$DIMLIM
 70
    0
  9
$DIMTIH
 70
    0
  9
$DIMTOH
 70
    0
  9
$DIMSE1
 70
    0
  9
$DIMSE2
 70
    0
  9
$DIMTAD
 70
    1
  9
$DIMZIN
 70
    1
  9
$DIMBLK
  1

  9
$DIMASO
 70
    1
  9
$DIMSHO
 70
    1
  9
$DIMPOST
  1

  9
$DIMAPOST
  1

  9
$DIMALT
 70
    0
  9
$DIMALTD
 70
    3
  9
$DIMALTF
 40
0.03937
  9
$DIMLFAC
 40
1
  9
$DIMTOFL
 70
    1
  9
$DIMTVP
 40
0
  9
$DIMTIX
 70
    0
  9
$DIMSOXD
 70
    0
  9
$DIMSAH
 70
    0
  9
$DIMBLK1
  1

  9
$DIMBLK2
  1

  9
$DIMSTYLE
  2
STANDARD
  9
$DIMCLRD
 70
    0
  9
$DIMCLRE
 70
    0
  9
$DIMCLRT
 70
    0
  9
$DIMTFAC
 40
1
  9
$DIMGAP
 40
0.025
  9
$DIMJUST
 70
    0
  9
$DIMSD1
 70
    0
  9
$DIMSD2
 70
    0
  9
$DIMTOLJ
 70
    0
  9
$DIMTZIN
 70
    8
  9
$DIMALTZ
 70
    0
  9
$DIMALTTZ
 70
    0
  9
$DIMUPT
 70
    0
  9
$DIMDEC
 70
    4
  9
$DIMTDEC
 70
    2
  9
$DIMALTU
 70
    2
  9
$DIMALTTD
 70
    3
  9
$DIMTXSTY
  7
standard
  9
$DIMAUNIT
 70
    0
  9
$DIMADEC
 70
    2
  9
$DIMALTRND
 40
0
  9
$DIMAZIN
 70
    0
  9
$DIMDSEP
 70
    0
  9
$DIMATFIT
 70
    3
  9
$DIMFRAC
 70
    0
  9
$DIMLDRBLK
  1
STANDARD
  9
$DIMLUNIT
 70
    2
  9
$DIMLWD
 70
   -2
  9
$DIMLWE
 70
   -2
  9
$DIMTMOVE
 70
    0
  9
$DIMFXL
 40
0.04
  9
$DIMFXLON
 70
    0
  9
$DIMJOGANG
 40
0.7854
  9
$DIMTFILL
 70
    0
  9
$DIMTFILLCLR
 70
    0
  9
$DIMARCSYM
 70
    0
  9
$DIMLTYPE
  6

  9
$DIMLTEX1
  6

  9
$DIMLTEX2
  6

  9
$LUNITS
 70
    2
  9
$LUPREC
 70
    4
  9
$SKETCHINC
 40
1
  9
$FILLETRAD
 40
0
  9
$AUNITS
 70
    0
  9
$AUPREC
 70
    2
  9
$MENU
  1
.
  9
$ELEVATION
 40
0
  9
$PELEVATION
 40
0
  9
$THICKNESS
 40
0
  9
$LIMCHECK
 70
    0
  9
$CHAMFERA
 40
0
  9
$CHAMFERB
 40
0
  9
$CHAMFERC
 40
0
  9
$CHAMFERD
 40
0
  9
$SKPOLY
 70
    0
  9
$USRTIMER
 70
    1
  9
$ANGBASE
 50
0
  9
$ANGDIR
 70
    0
  9
$PDMODE
 70
   34
  9
$PDSIZE
 40
0
  9
$PLINEWID
 40
0
  9
$SPLFRAME
 70
    0
  9
$SPLINETYPE
 70
    2
  9
$SPLINESEGS
 70
    8
  9
$HANDSEED
  5
20000
  9
$SURFTAB1
 70
    6
  9
$SURFTAB2
 70
    6
  9
$SURFTYPE
 70
    6
  9
$SURFU
 70
    6
  9
$SURFV
 70
    6
  9
$UCSBASE
  2

  9
$UCSNAME
  2

  9
$UCSORG
 10
0
 20
0
 30
0
  9
$UCSXDIR
 10
1
 20
0
 30
0
  9
$UCSYDIR
 10
0
 20
1
 30
0
  9
$UCSORTHOREF
  2

  9
$UCSORTHOVIEW
 70
    0
  9
$UCSORGTOP
 10
0
 20
0
 30
0
  9
$UCSORGBOTTOM
 10
0
 20
0
 30
0
  9
$UCSORGLEFT
 10
0
 20
0
 30
0
  9
$UCSORGRIGHT
 10
0
 20
0
 30
0
  9
$UCSORGFRONT
 10
0
 20
0
 30
0
  9
$UCSORGBACK
 10
0
 20
0
 30
0
  9
$PUCSBASE
  2

  9
$PUCSNAME
  2

  9
$PUCSORG
 10
0
 20
0
 30
0
  9
$PUCSXDIR
 10
1
 20
0
 30
0
  9
$PUCSYDIR
 10
0
 20
1
 30
0
  9
$PUCSORTHOREF
  2

  9
$PUCSORTHOVIEW
 70
    0
  9
$PUCSORGTOP
 10
0
 20
0
 30
0
  9
$PUCSORGBOTTOM
 10
0
 20
0
 30
0
  9
$PUCSORGLEFT
 10
0
 20
0
 30
0
  9
$PUCSORGRIGHT
 10
0
 20
0
 30
0
  9
$PUCSORGFRONT
 10
0
 20
0
 30
0
  9
$PUCSORGBACK
 10
0
 20
0
 30
0
  9
$USERI1
 70
    0
  9
$USERI2
 70
    0
  9
$USERI3
 70
    0
  9
$USERI4
 70
    0
  9
$USERI5
 70
    0
  9
$USERR1
 40
0
  9
$USERR2
 40
0
  9
$USERR3
 40
0
  9
$USERR4
 40
0
  9
$USERR5
 40
0
  9
$WORLDVIEW
 70
    1
  9
$SHADEDGE
 70
    3
  9
$SHADEDIF
 70
   70
  9
$TILEMODE
 70
    1
  9
$MAXACTVP
 70
   64
  9
$PINSBASE
 10
82.1662622607632
 20
7.152497072279129
 30
0
  9
$PLIMCHECK
 70
    0
  9
$PEXTMIN
 10
0
 20
0
 30
0
  9
$PEXTMAX
 10
0
 20
0
 30
0
  9
$GRIDMODE
 70
    1
  9
$SNAPSTYLE
 70
    0
  9
$GRIDUNIT
 10
0
 20
0
  9
$PLIMMIN
 10
0
 20
0
  9
$PLIMMAX
 10
91.40000000000001
 20
61
  9
$UNITMODE
 70
    0
  9
$VISRETAIN
 70
    1
  9
$PLINEGEN
 70
    0
  9
$PSLTSCALE
 70
    1
  9
$TREEDEPTH
 70
 3020
  9
$CMLSTYLE
  2
Standard
  9
$CMLJUST
 70
    0
  9
$CMLSCALE
 40
20
  9
$PROXYGRAPHICS
 70
    1
  9
$MEASUREMENT
 70
    1
  9
$CELWEIGHT
370
   -1
  9
$ENDCAPS
280
    0
  9
$JOINSTYLE
280
    0
  9
$LWDISPLAY
290
    0
  9
$INSUNITS
 70
    5
  9
$HYPERLINKBASE
  1

  9
$STYLESHEET
  1

  9
$XEDIT
290
    1
  9
$CEPSNTYPE
380
    0
  9
$PSTYLEMODE
290
    1
  9
$EXTNAMES
290
    1
  9
$PSVPSCALE
 40
1
  9
$OLESTARTUP
290
    0
  9
$SORTENTS
280
  127
  9
$INDEXCTL
280
    0
  9
$HIDETEXT
280
    1
  9
$XCLIPFRAME
290
    0
  9
$HALOGAP
280
    0
  9
$OBSCOLOR
 70
  257
  9
$OBSLTYPE
280
    0
  9
$INTERSECTIONDISPLAY
280
    0
  9
$INTERSECTIONCOLOR
 70
  257
  9
$DIMASSOC
280
    1
  9
$PROJECTNAME
  1

  9
$CAMERADISPLAY
290
    0
  9
$LENSLENGTH
 40
50
  9
$CAMERAHEIGHT
 40
0
  9
$STEPSPERSEC
 40
2
  9
$STEPSIZE
 40
50
  9
$3DDWFPREC
 40
2
  9
$PSOLWIDTH
 40
5
  9
$PSOLHEIGHT
 40
80
  9
$LOFTANG1
 40
1.570796326794897
  9
$LOFTANG2
 40
1.570796326794897
  9
$LOFTMAG1
 40
0
  9
$LOFTMAG2
 40
0
  9
$LOFTPARAM
 70
    7
  9
$LOFTNORMALS
280
    1
  9
$LATITUDE
 40
1
  9
$LONGITUDE
 40
1
  9
$NORTHDIRECTION
 40
0
  9
$TIMEZONE
 70
-8000
  9
$LIGHTGLYPHDISPLAY
280
    1
  9
$TILEMODELIGHTSYNCH
280
    1
  9
$SOLIDHIST
280
    1
  9
$SHOWHIST
280
    1
  9
$DWFFRAME
280
    2
  9
$DGNFRAME
280
    0
  9
$REALWORLDSCALE
290
    1
  9
$INTERFERECOLOR
 62
    1
  9
$CSHADOW
280
    0
  9
$SHADOWPLANELOCATION
 40
0
  0
ENDSEC
  0
SECTION
  2
CLASSES
  0
ENDSEC
  0
SECTION
  2
TABLES
  0
TABLE
  2
VPORT
  5
8
330
0
100
AcDbSymbolTable
 70
    1
  0
VPORT
  5
31
330
2
100
AcDbSymbolTableRecord
100
AcDbViewportTableRecord
  2
*ACTIVE
 70
    0
 10
0
 20
0
 11
1
 21
1
 12
62.26280089032077
 22
90.99947822431497
 13
0
 23
0
 14
10
 24
10
 15
10
 25
10
 16
0
 26
0
 36
1
 17
0
 27
0
 37
0
 40
316.1034506739362
 41
0.9007314524555904
 42
50
 43
0
 44
0
 50
0
 51
0
 71
    0
 72
  100
 73
    1
 74
    3
 75
    0
 76
    1
 77
    0
 78
    0
281
    0
 65
    1
110
0
120
0
130
0
111
1
121
0
131
0
112
0
122
1
132
0
 79
    0
146
0
348
10020
 60
    7
 61
    5
292
1
282
    1
141
0
142
0
 63
  250
421
3358443
  0
ENDTAB
  0
TABLE
  2
LTYPE
  5
5
330
0
100
AcDbSymbolTable
 70
    4
  0
LTYPE
  5
14
330
5
100
AcDbSymbolTableRecord
100
AcDbLinetypeTableRecord
  2
ByBlock
 70
    0
  3

 72
   65
 73
    0
 40
0
  0
LTYPE
  5
15
330
5
100
AcDbSymbolTableRecord
100
AcDbLinetypeTableRecord
  2
ByLayer
 70
    0
  3

 72
   65
 73
    0
 40
0
  0
LTYPE
  5
16
330
5
100
AcDbSymbolTableRecord
100
AcDbLinetypeTableRecord
  2
Continuous
 70
    0
  3
Solid line
 72
   65
 73
    0
 40
0
  0
LTYPE
  5
32
330
5
100
AcDbSymbolTableRecord
100
AcDbLinetypeTableRecord
  2
DOT
 70
    0
  3
Dot . . . . . . . . . . . . . . . . . . . . . .
 72
   65
 73
    2
 40
6.35
 49
0
 74
    0
 49
-6.35
 74
    0
  0
LTYPE
  5
33
330
5
100
AcDbSymbolTableRecord
100
AcDbLinetypeTableRecord
  2
DOTTINY
 70
    0
  3
Dot (.15x) .....................................
 72
   65
 73
    2
 40
0.9525
 49
0
 74
    0
 49
-0.9525
 74
    0
  0
LTYPE
  5
34
330
5
100
AcDbSymbolTableRecord
100
AcDbLinetypeTableRecord
  2
DOT2
 70
    0
  3
Dot (.5x) .....................................
 72
   65
 73
    2
 40
3.175
 49
0
 74
    0
 49
-3.175
 74
    0
  0
LTYPE
  5
35
330
5
100
AcDbSymbolTableRecord
100
AcDbLinetypeTableRecord
  2
DOTX2
 70
    0
  3
Dot (2x) .  .  .  .  .  .  .  .  .  .  .  .  .
 72
   65
 73
    2
 40
12.7
 49
0
 74
    0
 49
-12.7
 74
    0
  0
LTYPE
  5
36
330
5
100
AcDbSymbolTableRecord
100
AcDbLinetypeTableRecord
  2
DASHED
 70
    0
  3
Dashed _ _ _ _ _ _ _ _ _ _ _ _ _ _ _ _ _
 72
   65
 73
    2
 40
19.05
 49
12.7
 74
    0
 49
-6.35
 74
    0
  0
LTYPE
  5
37
330
5
100
AcDbSymbolTableRecord
100
AcDbLinetypeTableRecord
  2
DASHEDTINY
 70
    0
  3
Dashed (.15x) _ _ _ _ _ _ _ _ _ _ _ _ _ _ _ _ _
 72
   65
 73
    2
 40
2.8575
 49
1.905
 74
    0
 49
-0.9525
 74
    0
  0
LTYPE
  5
38
330
5
100
AcDbSymbolTableRecord
100
AcDbLinetypeTableRecord
  2
DASHED2
 70
    0
  3
Dashed (.5x) _ _ _ _ _ _ _ _ _ _ _ _ _ _ _ _ _
 72
   65
 73
    2
 40
9.524999999999999
 49
6.35
 74
    0
 49
-3.175
 74
    0
  0
LTYPE
  5
39
330
5
100
AcDbSymbolTableRecord
100
AcDbLinetypeTableRecord
  2
DASHEDX2
 70
    0
  3
Dashed (2x) ____  ____  ____  ____  ____  ___
 72
   65
 73
    2
 40
38.09999999999999
 49
25.4
 74
    0
 49
-12.7
 74
    0
  0
LTYPE
  5
3A
330
5
100
AcDbSymbolTableRecord
100
AcDbLinetypeTableRecord
  2
DASHDOT
 70
    0
  3
Dash dot __ . __ . __ . __ . __ . __ . __ . __
 72
   65
 73
    4
 40
25.4
 49
12.7
 74
    0
 49
-6.35
 74
    0
 49
0
 74
    0
 49
-6.35
 74
    0
  0
LTYPE
  5
3B
330
5
100
AcDbSymbolTableRecord
100
AcDbLinetypeTableRecord
  2
DASHDOTTINY
 70
    0
  3
Dash dot (.15x) _._._._._._._._._._._._._._._.
 72
   65
 73
    4
 40
3.81
 49
1.905
 74
    0
 49
-0.9525
 74
    0
 49
0
 74
    0
 49
-0.9525
 74
    0
  0
LTYPE
  5
3C
330
5
100
AcDbSymbolTableRecord
100
AcDbLinetypeTableRecord
  2
DASHDOT2
 70
    0
  3
Dash dot (.5x) _._._._._._._._._._._._._._._.
 72
   65
 73
    4
 40
12.7
 49
6.35
 74
    0
 49
-3.175
 74
    0
 49
0
 74
    0
 49
-3.175
 74
    0
  0
LTYPE
  5
3D
330
5
100
AcDbSymbolTableRecord
100
AcDbLinetypeTableRecord
  2
DASHDOTX2
 70
    0
  3
Dash dot (2x) ____  .  ____  .  ____  .  ___
 72
   65
 73
    4
 40
50.8
 49
25.4
 74
    0
 49
-12.7
 74
    0
 49
0
 74
    0
 49
-12.7
 74
    0
  0
LTYPE
  5
3E
330
5
100
AcDbSymbolTableRecord
100
AcDbLinetypeTableRecord
  2
DIVIDE
 70
    0
  3
Divide ____ . . ____ . . ____ . . ____ . . ____
 72
   65
 73
    6
 40
31.75
 49
12.7
 74
    0
 49
-6.35
 74
    0
 49
0
 74
    0
 49
-6.35
 74
    0
 49
0
 74
    0
 49
-6.35
 74
    0
  0
LTYPE
  5
3F
330
5
100
AcDbSymbolTableRecord
100
AcDbLinetypeTableRecord
  2
DIVIDETINY
 70
    0
  3
Divide (.15x) __..__..__..__..__..__..__..__.._
 72
   65
 73
    6
 40
4.7625
 49
1.905
 74
    0
 49
-0.9525
 74
    0
 49
0
 74
    0
 49
-0.9525
 74
    0
 49
0
 74
    0
 49
-0.9525
 74
    0
  0
LTYPE
  5
40
330
5
100
AcDbSymbolTableRecord
100
AcDbLinetypeTableRecord
  2
DIVIDE2
 70
    0
  3
Divide (.5x) __..__..__..__..__..__..__..__.._
 72
   65
 73
    6
 40
15.875
 49
6.35
 74
    0
 49
-3.175
 74
    0
 49
0
 74
    0
 49
-3.175
 74
    0
 49
0
 74
    0
 49
-3.175
 74
    0
  0
LTYPE
  5
41
330
5
100
AcDbSymbolTableRecord
100
AcDbLinetypeTableRecord
  2
DIVIDEX2
 70
    0
  3
Divide (2x) ________  .  .  ________  .  .  _
 72
   65
 73
    6
 40
63.5
 49
25.4
 74
    0
 49
-12.7
 74
    0
 49
0
 74
    0
 49
-12.7
 74
    0
 49
0
 74
    0
 49
-12.7
 74
    0
  0
LTYPE
  5
42
330
5
100
AcDbSymbolTableRecord
100
AcDbLinetypeTableRecord
  2
BORDER
 70
    0
  3
Border __ __ . __ __ . __ __ . __ __ . __ __ .
 72
   65
 73
    6
 40
44.45
 49
12.7
 74
    0
 49
-6.35
 74
    0
 49
12.7
 74
    0
 49
-6.35
 74
    0
 49
0
 74
    0
 49
-6.35
 74
    0
  0
LTYPE
  5
43
330
5
100
AcDbSymbolTableRecord
100
AcDbLinetypeTableRecord
  2
BORDERTINY
 70
    0
  3
Border (.15x) __.__.__.__.__.__.__.__.__.__.__.
 72
   65
 73
    6
 40
6.6675
 49
1.905
 74
    0
 49
-0.9525
 74
    0
 49
1.905
 74
    0
 49
-0.9525
 74
    0
 49
0
 74
    0
 49
-0.9525
 74
    0
  0
LTYPE
  5
44
330
5
100
AcDbSymbolTableRecord
100
AcDbLinetypeTableRecord
  2
BORDER2
 70
    0
  3
Border (.5x) __.__.__.__.__.__.__.__.__.__.__.
 72
   65
 73
    6
 40
22.225
 49
6.35
 74
    0
 49
-3.175
 74
    0
 49
6.35
 74
    0
 49
-3.175
 74
    0
 49
0
 74
    0
 49
-3.175
 74
    0
  0
LTYPE
  5
45
330
5
100
AcDbSymbolTableRecord
100
AcDbLinetypeTableRecord
  2
BORDERX2
 70
    0
  3
Border (2x) ____  ____  .  ____  ____  .  ___
 72
   65
 73
    6
 40
88.89999999999999
 49
25.4
 74
    0
 49
-12.7
 74
    0
 49
25.4
 74
    0
 49
-12.7
 74
    0
 49
0
 74
    0
 49
-12.7
 74
    0
  0
LTYPE
  5
46
330
5
100
AcDbSymbolTableRecord
100
AcDbLinetypeTableRecord
  2
CENTER
 70
    0
  3
Center ____ _ ____ _ ____ _ ____ _ ____ _ ____
 72
   65
 73
    4
 40
50.8
 49
31.75
 74
    0
 49
-6.35
 74
    0
 49
6.35
 74
    0
 49
-6.35
 74
    0
  0
LTYPE
  5
47
330
5
100
AcDbSymbolTableRecord
100
AcDbLinetypeTableRecord
  2
CENTERTINY
 70
    0
  3
Center (.15x) ___ _ ___ _ ___ _ ___ _ ___ _ ___
 72
   65
 73
    4
 40
7.619999999999999
 49
4.7625
 74
    0
 49
-0.9525
 74
    0
 49
0.9525
 74
    0
 49
-0.9525
 74
    0
  0
LTYPE
  5
48
330
5
100
AcDbSymbolTableRecord
100
AcDbLinetypeTableRecord
  2
CENTER2
 70
    0
  3
Center (.5x) ___ _ ___ _ ___ _ ___ _ ___ _ ___
 72
   65
 73
    4
 40
28.575
 49
19.05
 74
    0
 49
-3.175
 74
    0
 49
3.175
 74
    0
 49
-3.175
 74
    0
  0
LTYPE
  5
49
330
5
100
AcDbSymbolTableRecord
100
AcDbLinetypeTableRecord
  2
CENTERX2
 70
    0
  3
Center (2x) ________  __  ________  __  _____
 72
   65
 73
    4
 40
101.6
 49
63.5
 74
    0
 49
-12.7
 74
    0
 49
12.7
 74
    0
 49
-12.7
 74
    0
  0
ENDTAB
  0
TABLE
  2
LAYER
  5
2
330
0
100
AcDbSymbolTable
 70
    1
  0
LAYER
  5
10
330
2
100
AcDbSymbolTableRecord
100
AcDbLayerTableRecord
  2
0
 70
    0
 62
    7
  6
CONTINUOUS
370
   -3
390
F
  0
ENDTAB
  0
TABLE
  2
STYLE
  5
3
330
0
100
AcDbSymbolTable
 70
    3
  0
STYLE
  5
4A
330
2
100
AcDbSymbolTableRecord
100
AcDbTextStyleTableRecord
  2
unicode
 70
    0
 40
0
 41
1
 50
0
 71
    0
 42
1
  3
unicode
  4

  0
STYLE
  5
4B
330
2
100
AcDbSymbolTableRecord
100
AcDbTextStyleTableRecord
  2
Standard
 70
    0
 40
0
 41
1
 50
0
 71
    0
 42
1
  3
txt
  4

  0
ENDTAB
  0
TABLE
  2
VIEW
  5
6
330
0
100
AcDbSymbolTable
 70
    0
  0
ENDTAB
  0
TABLE
  2
UCS
  5
7
330
0
100
AcDbSymbolTable
 70
    0
  0
ENDTAB
  0
TABLE
  2
APPID
  5
9
330
0
100
AcDbSymbolTable
 70
    1
  0
APPID
  5
12
330
9
100
AcDbSymbolTableRecord
100
AcDbRegAppTableRecord
  2
ACAD
 70
    0
  0
APPID
  5
4C
330
9
100
AcDbSymbolTableRecord
100
AcDbRegAppTableRecord
  2
LibreCad
 70
    0
  0
ENDTAB
  0
TABLE
  2
DIMSTYLE
  5
A
330
0
100
AcDbSymbolTable
 70
    1
100
AcDbDimStyleTable
 71
    1
  0
DIMSTYLE
105
4D
330
A
100
AcDbSymbolTableRecord
100
AcDbDimStyleTableRecord
  2
Standard
 70
    0
 40
1
 41
0.1
 42
0.025
 43
0.38
 44
0.05
 45
0
 46
0
 47
0
 48
0
 49
0.04
140
0.1
141
0.09
142
0
143
25.4
144
1
145
0
146
1
147
0.025
148
0
 71
    0
 72
    0
 73
    0
 74
    1
 75
    0
 76
    0
 77
    0
 78
    1
 79
    0
170
    0
171
    2
172
    0
173
    0
174
    0
175
    0
176
    0
177
    0
178
    0
179
    2
271
    4
272
    4
273
    2
274
    2
275
    0
276
    0
277
    2
278
    0
279
    0
280
    0
281
    0
282
    0
283
    1
284
    0
285
    0
286
    0
288
    0
289
    3
340
standard
341

371
   -2
372
   -2
  0
ENDTAB
  0
TABLE
  2
BLOCK_RECORD
  5
1
330
0
100
AcDbSymbolTable
 70
    2
  0
BLOCK_RECORD
  5
1F
330
1
100
AcDbSymbolTableRecord
100
AcDbBlockTableRecord
  2
*Model_Space
 70
    0
280
    1
281
    0
  0
BLOCK_RECORD
  5
1E
330
1
100
AcDbSymbolTableRecord
100
AcDbBlockTableRecord
  2
*Paper_Space
 70
    0
280
    1
281
    0
  0
ENDTAB
  0
ENDSEC
  0
SECTION
  2
BLOCKS
  0
BLOCK
  5
20
330
1F
100
AcDbEntity
  8
0
100
AcDbBlockBegin
  2
*Model_Space
 70
    0
 10
0
 20
0
 30
0
  3
*Model_Space
  1

  0
ENDBLK
  5
21
330
1F
100
AcDbEntity
  8
0
100
AcDbBlockEnd
  0
BLOCK
  5
1C
330
1B
100
AcDbEntity
  8
0
100
AcDbBlockBegin
  2
*Paper_Space
 70
    0
 10
0
 20
0
 30
0
  3
*Paper_Space
  1

  0
ENDBLK
  5
1D
330
1F
100
AcDbEntity
  8
0
100
AcDbBlockEnd
  0
ENDSEC
  0
SECTION
  2
ENTITIES
  0
ARC
  5
4E
100
AcDbEntity
  8
0
  6
ByLayer
 62
  256
370
   -1
100
AcDbCircle
 10
-9.434146341463434
 20
40.90487804878048
 40
1.3375330448419
100
AcDbArc
 50
4.078172869465383
 51
75.53296931506416
  0
ARC
  5
4F
100
AcDbEntity
  8
0
  6
ByLayer
 62
  256
370
   -1
100
AcDbCircle
 10
-30.80487804878048
 20
42.80487804878048
 40
1.210945520712823
100
AcDbArc
 50
99.27260177720058
 51
170.7273982227991
  0
ARC
  5
50
100
AcDbEntity
  8
0
  6
ByLayer
 62
  256
370
   -1
100
AcDbCircle
 10
-19.71415094339627
 20
2.023584905660575
 40
7.978579925591165
100
AcDbArc
 50
91.33473999745672
 51
131.4911989522877
  0
ARC
  5
51
100
AcDbEntity
  8
0
  6
ByLayer
 62
  256
370
   -1
100
AcDbCircle
 10
-20.28584905660373
 20
2.023584905660575
 40
7.978579925591165
100
AcDbArc
 50
48.50880104771229
 51
88.66526000254329
  0
ARC
  5
52
100
AcDbEntity
  8
0
  6
ByLayer
 62
  256
370
   -1
100
AcDbCircle
 10
-28.625
 20
8.018749999999999
 40
1.275137860193946
100
AcDbArc
 50
180.8425242607404
 51
252.8972710309476
  0
ARC
  5
53
100
AcDbEntity
  8
0
  6
ByLayer
 62
  256
370
   -1
100
AcDbCircle
 10
-28.57500000000002
 20
12.65000000000019
 40
5.865417717435158
100
AcDbArc
 50
265.8447861944156
 51
307.5537022735704
  0
ARC
  5
54
100
AcDbEntity
  8
0
  6
ByLayer
 62
  256
370
   -1
100
AcDbCircle
 10
-11.375
 20
8.018749999999999
 40
1.275137860193946
100
AcDbArc
 50
287.1027289690524
 51
359.1574757392597
  0
ARC
  5
55
100
AcDbEntity
  8
0
  6
ByLayer
 62
  256
370
   -1
100
AcDbCircle
 10
-11.42499999999998
 20
12.65000000000019
 40
5.865417717435158
100
AcDbArc
 50
232.4462977264296
 51
274.1552138055844
  0
LINE
  5
56
100
AcDbEntity
  8
0
  6
ByLayer
 62
  256
370
   -1
100
AcDbLine
 10
-3.98038402918265
 20
102.257997160226
 11
-6.160741342756991
 21
91.083141652222
  0
ARC
  5
57
100
AcDbEntity
  8
0
  6
ByLayer
 62
  256
370
   -1
100
AcDbCircle
 10
-23.02985714192299
 20
116.402571428552
 40
30.828819915008
100
AcDbArc
 50
275.640135167
 51
301.229762479
  0
ARC
  5
58
100
AcDbEntity
  8
0
  6
ByLayer
 62
  256
370
   -1
100
AcDbCircle
 10
-16.97014285619419
 20
116.402571428552
 40
30.828819915008
100
AcDbArc
 50
238.770237521
 51
264.359864833
  0
ARC
  5
59
100
AcDbEntity
  8
0
  6
ByLayer
 62
  256
370
   -1
100
AcDbCircle
 10
-32.21459634578859
 20
91.14820169177389
 40
1.33139526397834
100
AcDbArc
 50
196.133077005
 51
236.2644868
  0
ARC
  5
5A
100
AcDbEntity
  8
0
  6
ByLayer
 62
  256
370
   -1
100
AcDbCircle
 10
-7.63243104719999
 20
91.43621744898999
 40
1.51345072745622
100
AcDbArc
 50
292.797753762
 51
346.509042472
  0
CIRCLE
  5
5B
100
AcDbEntity
  8
0
  6
ByLayer
 62
  256
370
   -1
100
AcDbCircle
 10
-30.23619999905859
 20
89.583799999908
 40
0.1651
  0
CIRCLE
  5
5C
100
AcDbEntity
  8
0
  6
ByLayer
 62
  256
370
   -1
100
AcDbCircle
 10
-9.763799999058591
 20
89.583799999908
 40
0.1651
  0
CIRCLE
  5
5D
100
AcDbEntity
  8
0
  6
ByLayer
 62
  256
370
   -1
100
AcDbCircle
 10
-32.9058165040006
 20
97.8468429728519
 40
0.1651
  0
CIRCLE
  5
5E
100
AcDbEntity
  8
0
  6
ByLayer
 62
  256
370
   -1
100
AcDbCircle
 10
-32.6328837531946
 20
96.767556137018
 40
0.1651
  0
CIRCLE
  5
5F
100
AcDbEntity
  8
0
  6
ByLayer
 62
  256
370
   -1
100
AcDbCircle
 10
-33.4033093068286
 20
95.79802543295399
 40
0.1651
  0
ARC
  5
60
100
AcDbEntity
  8
0
  6
ByLayer
 62
  256
370
   -1
100
AcDbCircle
 10
-22.10227333264611
 20
90.73362000008869
 40
25.3172544008992
100
AcDbArc
 50
274.76316432
 51
293.896536299
  0
ARC
  5
61
100
AcDbEntity
  8
0
  6
ByLayer
 62
  256
370
   -1
100
AcDbCircle
 10
-10.41322203319831
 20
62.63316949167874
 40
5.1566506761624
100
AcDbArc
 50
89.8397559184
 51
106.138897614
  0
ARC
  5
62
100
AcDbEntity
  8
0
  6
ByLayer
 62
  256
370
   -1
100
AcDbCircle
 10
-11.81394285643991
 20
109.7723714287327
 40
42.006415379686
100
AcDbArc
 50
271.930587441
 51
275.959785017
  0
ARC
  5
63
100
AcDbEntity
  8
0
  6
ByLayer
 62
  256
370
   -1
100
AcDbCircle
 10
-7.52174603104631
 20
68.90881111131272
 40
0.9184328300725
100
AcDbArc
 50
274.330223992
 51
328.197239397
  0
ARC
  5
64
100
AcDbEntity
  8
0
  6
ByLayer
 62
  256
370
   -1
100
AcDbCircle
 10
-15.07484988843551
 20
70.90231374736271
 40
8.6941241561416
100
AcDbArc
 50
343.443294004
 51
1.918667245
  0
ARC
  5
65
100
AcDbEntity
  8
0
  6
ByLayer
 62
  256
370
   -1
100
AcDbCircle
 10
-22.10227333264611
 20
51.65318000008874
 40
25.3172544008992
100
AcDbArc
 50
66.103463701
 51
85.23683568
  0
ARC
  5
66
100
AcDbEntity
  8
0
  6
ByLayer
 62
  256
370
   -1
100
AcDbCircle
 10
-10.41322203319831
 20
79.75363050849873
 40
5.1566506761624
100
AcDbArc
 50
253.861102386
 51
270.160244082
  0
ARC
  5
67
100
AcDbEntity
  8
0
  6
ByLayer
 62
  256
370
   -1
100
AcDbCircle
 10
-11.81394285643991
 20
32.61442857152093
 40
42.006415379686
100
AcDbArc
 50
84.0402149831
 51
88.0694125588
  0
ARC
  5
68
100
AcDbEntity
  8
0
  6
ByLayer
 62
  256
370
   -1
100
AcDbCircle
 10
-7.52174603104631
 20
73.47798888886472
 40
0.9184328300725
100
AcDbArc
 50
31.802760603
 51
85.669776008
  0
ARC
  5
69
100
AcDbEntity
  8
0
  6
ByLayer
 62
  256
370
   -1
100
AcDbCircle
 10
-15.07484988843551
 20
71.48448625281473
 40
8.6941241561416
100
AcDbArc
 50
358.081332755
 51
16.556705996
  0
ARC
  5
6A
100
AcDbEntity
  8
0
  6
ByLayer
 62
  256
370
   -1
100
AcDbCircle
 10
-17.89772666596251
 20
90.73362000008869
 40
25.3172544008992
100
AcDbArc
 50
246.103463701
 51
265.23683568
  0
ARC
  5
6B
100
AcDbEntity
  8
0
  6
ByLayer
 62
  256
370
   -1
100
AcDbCircle
 10
-29.58677796541031
 20
62.63316949167874
 40
5.1566506761624
100
AcDbArc
 50
73.861102386
 51
90.1602440816
  0
ARC
  5
6C
100
AcDbEntity
  8
0
  6
ByLayer
 62
  256
370
   -1
100
AcDbCircle
 10
-17.89772666596251
 20
51.65318000008874
 40
25.3172544008992
100
AcDbArc
 50
94.76316432
 51
113.896536299
  0
ARC
  5
6D
100
AcDbEntity
  8
0
  6
ByLayer
 62
  256
370
   -1
100
AcDbCircle
 10
-29.58677796541031
 20
79.75363050849873
 40
5.1566506761624
100
AcDbArc
 50
269.839755918
 51
286.138897614
  0
ARC
  5
6E
100
AcDbEntity
  8
0
  6
ByLayer
 62
  256
370
   -1
100
AcDbCircle
 10
-29.78176086881431
 20
82.48149130448074
 40
7.886558524209801
100
AcDbArc
 50
263.362110685
 51
271.311887783
  0
ARC
  5
6F
100
AcDbEntity
  8
0
  6
ByLayer
 62
  256
370
   -1
100
AcDbCircle
 10
-29.90035555491631
 20
76.33266666667072
 40
1.86217485089558
100
AcDbArc
 50
213.376978951
 51
244.794254609
  0
ARC
  5
70
100
AcDbEntity
  8
0
  6
ByLayer
 62
  256
370
   -1
100
AcDbCircle
 10
-87.2591999993043
 20
51.66080000008874
 40
60.607455161784
100
AcDbArc
 50
22.965271988
 51
27.370468312
  0
ARC
  5
71
100
AcDbEntity
  8
0
  6
ByLayer
 62
  256
370
   -1
100
AcDbCircle
 10
-35.61476981059631
 20
78.3001283019707
 40
2.49875062109684
100
AcDbArc
 50
29.342788339
 51
163.337595153
  0
ARC
  5
72
100
AcDbEntity
  8
0
  6
ByLayer
 62
  256
370
   -1
100
AcDbCircle
 10
210.4198170737797
 20
-3.849289268309281
 40
261.88439055072
100
AcDbArc
 50
161.553341536
 51
163.360143033
  0
ARC
  5
73
100
AcDbEntity
  8
0
  6
ByLayer
 62
  256
370
   -1
100
AcDbCircle
 10
-29.90035555491631
 20
65.95253333350674
 40
1.86217485089558
100
AcDbArc
 50
115.205745391
 51
146.623021049
  0
ARC
  5
74
100
AcDbEntity
  8
0
  6
ByLayer
 62
  256
370
   -1
100
AcDbCircle
 10
-87.2591999993043
 20
90.6244000000887
 40
60.607455161784
100
AcDbArc
 50
332.629531688
 51
337.034728012
  0
ARC
  5
75
100
AcDbEntity
  8
0
  6
ByLayer
 62
  256
370
   -1
100
AcDbCircle
 10
-35.61476981059631
 20
63.98507169820674
 40
2.49875062109684
100
AcDbArc
 50
196.662404847
 51
330.657211661
  0
ARC
  5
76
100
AcDbEntity
  8
0
  6
ByLayer
 62
  256
370
   -1
100
AcDbCircle
 10
210.4198170737797
 20
146.1344892684868
 40
261.88439055072
100
AcDbArc
 50
196.639856967
 51
198.446658464
  0
ARC
  5
77
100
AcDbEntity
  8
0
  6
ByLayer
 62
  256
370
   -1
100
AcDbCircle
 10
-29.78881363576031
 20
65.14444772743073
 40
2.6519968935572
100
AcDbArc
 50
85.94326213870001
 51
109.943681482
  0
CIRCLE
  5
78
100
AcDbEntity
  8
0
  6
ByLayer
 62
  256
370
   -1
100
AcDbCircle
 10
-31.50619999930431
 20
73.35240000008872
 40
0.1651
  0
CIRCLE
  5
79
100
AcDbEntity
  8
0
  6
ByLayer
 62
  256
370
   -1
100
AcDbCircle
 10
-32.34439999930432
 20
71.21880000008875
 40
0.1651
  0
CIRCLE
  5
7A
100
AcDbEntity
  8
0
  6
ByLayer
 62
  256
370
   -1
100
AcDbCircle
 10
-31.50619999930431
 20
69.03440000008874
 40
0.1651
  0
CIRCLE
  5
7B
100
AcDbEntity
  8
0
  6
ByLayer
 62
  256
370
   -1
100
AcDbCircle
 10
-8.49379999930431
 20
73.35240000008872
 40
0.1651
  0
CIRCLE
  5
7C
100
AcDbEntity
  8
0
  6
ByLayer
 62
  256
370
   -1
100
AcDbCircle
 10
-7.80799999930431
 20
71.21880000008875
 40
0.1651
  0
CIRCLE
  5
7D
100
AcDbEntity
  8
0
  6
ByLayer
 62
  256
370
   -1
100
AcDbCircle
 10
-8.49379999930431
 20
69.03440000008874
 40
0.1651
  0
ARC
  5
7E
100
AcDbEntity
  8
0
  6
ByLayer
 62
  256
370
   -1
100
AcDbCircle
 10
-17.89884177775311
 20
111.3812953439747
 40
33.041171578942
100
AcDbArc
 50
245.970975872
 51
266.353979572
  0
ARC
  5
7F
100
AcDbEntity
  8
0
  6
ByLayer
 62
  256
370
   -1
100
AcDbCircle
 10
-9.722480057839711
 20
84.8893219101967
 40
0.62758731534864
100
AcDbArc
 50
8.6034219351
 51
91.31087951719999
  0
ARC
  5
80
100
AcDbEntity
  8
0
  6
ByLayer
 62
  256
370
   -1
100
AcDbCircle
 10
-30.99740509385831
 20
82.02574162365272
 40
0.8959183922795201
100
AcDbArc
 50
187.112426349
 51
246.602188943
  0
ARC
  5
81
100
AcDbEntity
  8
0
  6
ByLayer
 62
  256
370
   -1
100
AcDbCircle
 10
-21.17795826228071
 20
109.1711462910787
 40
30.786690024668
100
AcDbArc
 50
272.192782514
 51
291.559353565
  0
ARC
  5
82
100
AcDbEntity
  8
0
  6
ByLayer
 62
  256
370
   -1
100
AcDbCircle
 10
-10.17441745538551
 20
81.4420948757847
 40
0.95524595520912
100
AcDbArc
 50
288.904136043
 51
351.459541777
  0
LINE
  5
83
100
AcDbEntity
  8
0
  6
ByLayer
 62
  256
370
   -1
100
AcDbLine
 10
-9.101954701102709
 20
84.9832054554747
 11
-9.229763989222509
 21
81.30023345110074
  0
ARC
  5
84
100
AcDbEntity
  8
0
  6
ByLayer
 62
  256
370
   -1
100
AcDbCircle
 10
-17.42524912504191
 20
178.9340319870248
 40
94.40502251038001
100
AcDbArc
 50
261.83497322
 51
268.129524627
  0
ARC
  5
85
100
AcDbEntity
  8
0
  6
ByLayer
 62
  256
370
   -1
100
AcDbCircle
 10
-31.13235107949031
 20
82.93191380901874
 40
2.5715407512186
100
AcDbArc
 50
83.3173032279
 51
94.33755175829999
  0
ARC
  5
86
100
AcDbEntity
  8
0
  6
ByLayer
 62
  256
370
   -1
100
AcDbCircle
 10
-23.88137728156851
 20
174.6223396630048
 40
90.10624701650799
100
AcDbArc
 50
272.146390832
 51
278.440942239
  0
ARC
  5
87
100
AcDbEntity
  8
0
  6
ByLayer
 62
  256
370
   -1
100
AcDbCircle
 10
-10.06829176745951
 20
80.74712754486873
 40
4.7811204108414
100
AcDbArc
 50
86.0247441761
 51
97.0449927067
  0
ARC
  5
88
100
AcDbEntity
  8
0
  6
ByLayer
 62
  256
370
   -1
100
AcDbCircle
 10
-31.21095597333431
 20
84.9241355952047
 40
0.5835756196942801
100
AcDbArc
 50
101.453945432
 51
184.161403014
  0
LINE
  5
89
100
AcDbEntity
  8
0
  6
ByLayer
 62
  256
370
   -1
100
AcDbLine
 10
-31.79299304700231
 20
84.8817876453567
 11
-31.88642949055831
 21
81.91481197251274
  0
CIRCLE
  5
8A
100
AcDbEntity
  8
0
  6
ByLayer
 62
  256
370
   -1
100
AcDbCircle
 10
-9.78581541669071
 20
84.8606363132627
 40
0.1651
  0
CIRCLE
  5
8B
100
AcDbEntity
  8
0
  6
ByLayer
 62
  256
370
   -1
100
AcDbCircle
 10
-31.10563985249631
 20
84.8604880689567
 40
0.1651
  0
CIRCLE
  5
8C
100
AcDbEntity
  8
0
  6
ByLayer
 62
  256
370
   -1
100
AcDbCircle
 10
-31.32761276313431
 20
81.99086127507474
 40
0.1651
  0
CIRCLE
  5
8D
100
AcDbEntity
  8
0
  6
ByLayer
 62
  256
370
   -1
100
AcDbCircle
 10
-9.78919999930431
 20
81.30260000008874
 40
0.1651
  0
ARC
  5
8E
100
AcDbEntity
  8
0
  6
ByLayer
 62
  256
370
   -1
100
AcDbCircle
 10
-9.143503837308311
 20
57.56817206817993
 40
0.80917911577874
100
AcDbArc
 50
258.371944748
 51
352.417646942
  0
ARC
  5
8F
100
AcDbEntity
  8
0
  6
ByLayer
 62
  256
370
   -1
100
AcDbCircle
 10
-20.27471207985111
 20
-8.506491275447289
 40
66.19706129319201
100
AcDbArc
 50
80.46274903280001
 51
89.7622267867
  0
ARC
  5
90
100
AcDbEntity
  8
0
  6
ByLayer
 62
  256
370
   -1
100
AcDbCircle
 10
-9.61730281630231
 20
60.48189823911574
 40
1.17462481359302
100
AcDbArc
 50
1.341601847
 51
62.669164587
  0
LINE
  5
91
100
AcDbEntity
  8
0
  6
ByLayer
 62
  256
370
   -1
100
AcDbLine
 10
-8.442999999304311
 20
60.50939999996173
 11
-8.341399999304311
 21
57.46139999996174
  0
CIRCLE
  5
92
100
AcDbEntity
  8
0
  6
ByLayer
 62
  256
370
   -1
100
AcDbCircle
 10
-9.179599999304312
 20
57.46139999996174
 40
0.1651
  0
ARC
  5
93
100
AcDbEntity
  8
0
  6
ByLayer
 62
  256
370
   -1
100
AcDbCircle
 10
-30.85649616130031
 20
57.56817206823072
 40
0.80917911577874
100
AcDbArc
 50
187.582353058
 51
281.628055252
  0
ARC
  5
94
100
AcDbEntity
  8
0
  6
ByLayer
 62
  256
370
   -1
100
AcDbCircle
 10
-19.72528791913851
 20
-8.506491275447289
 40
66.19706129319201
100
AcDbArc
 50
90.237773213
 51
99.5372509669
  0
ARC
  5
95
100
AcDbEntity
  8
0
  6
ByLayer
 62
  256
370
   -1
100
AcDbCircle
 10
-18.86705771731431
 20
32.55542147694093
 40
31.378038323808
100
AcDbArc
 50
92.0691836382
 51
112.593095295
  0
ARC
  5
96
100
AcDbEntity
  8
0
  6
ByLayer
 62
  256
370
   -1
100
AcDbCircle
 10
-30.38269718230631
 20
60.48189823916653
 40
1.17462481359302
100
AcDbArc
 50
117.330835413
 51
178.658398153
  0
LINE
  5
97
100
AcDbEntity
  8
0
  6
ByLayer
 62
  256
370
   -1
100
AcDbLine
 10
-31.55699999930431
 20
60.50940000003794
 11
-31.65859999930431
 21
57.46140000003793
  0
CIRCLE
  5
98
100
AcDbEntity
  8
0
  6
ByLayer
 62
  256
370
   -1
100
AcDbCircle
 10
-30.82039999930431
 20
57.46140000001253
 40
0.1651
  0
CIRCLE
  5
99
100
AcDbEntity
  8
0
  6
ByLayer
 62
  256
370
   -1
100
AcDbCircle
 10
-30.76959999930431
 20
60.76340000008872
 40
0.1651
  0
ARC
  5
9A
100
AcDbEntity
  8
0
  6
ByLayer
 62
  256
370
   -1
100
AcDbCircle
 10
-21.13294159930431
 20
32.55543000008873
 40
31.378144
100
AcDbArc
 50
67.40689999999999
 51
87.9308
  0
CIRCLE
  5
9B
100
AcDbEntity
  8
0
  6
ByLayer
 62
  256
370
   -1
100
AcDbCircle
 10
-9.230399999304311
 20
60.76340000008872
 40
0.1651
  0
CIRCLE
  5
9C
100
AcDbEntity
  8
0
  6
ByLayer
 62
  256
370
   -1
100
AcDbCircle
 10
-34.09999999997813
 20
98.1500000000588
 40
0.1651
  0
CIRCLE
  5
9D
100
AcDbEntity
  8
0
  6
ByLayer
 62
  256
370
   -1
100
AcDbCircle
 10
-36.94889968025613
 20
111.5255337560768
 40
0.1651
  0
CIRCLE
  5
9E
100
AcDbEntity
  8
0
  6
ByLayer
 62
  256
370
   -1
100
AcDbCircle
 10
-37.71932523389012
 20
110.5560030520128
 40
0.1651
  0
CIRCLE
  5
9F
100
AcDbEntity
  8
0
  6
ByLayer
 62
  256
370
   -1
100
AcDbCircle
 10
-37.22183243106213
 20
112.6048205919108
 40
0.1651
  0
CIRCLE
  5
A0
100
AcDbEntity
  8
0
  6
ByLayer
 62
  256
370
   -1
100
AcDbCircle
 10
-38.41601592703965
 20
112.9079776191177
 40
0.1651
  0
ARC
  5
A1
100
AcDbEntity
  8
0
  6
ByLayer
 62
  256
370
   -1
100
AcDbCircle
 10
-8.725811075893116
 20
103.0890478693141
 40
4.817647053980523
100
AcDbArc
 50
350.066714141189
 51
26.65064547170931
  0
CIRCLE
  5
A2
100
AcDbEntity
  8
0
  6
ByLayer
 62
  256
370
   -1
100
AcDbCircle
 10
-5.999999999978129
 20
102.3500000000588
 40
0.1651
  0
CIRCLE
  5
A3
100
AcDbEntity
  8
0
  6
ByLayer
 62
  256
370
   -1
100
AcDbCircle
 10
-5.999999999978134
 20
102.3500000000588
 40
0.1651
  0
ARC
  5
A4
100
AcDbEntity
  8
0
  6
ByLayer
 62
  256
370
   -1
100
AcDbCircle
 10
-44.75357142854956
 20
116.9696428572016
 40
1.232175206614698
100
AcDbArc
 50
39.29524919749822
 51
127.2850771869879
  0
ARC
  5
A5
100
AcDbEntity
  8
0
  6
ByLayer
 62
  256
370
   -1
100
AcDbCircle
 10
-38.56961591214481
 20
119.639562920292
 40
1.64250883984748
100
AcDbArc
 50
160.827505959
 51
194.682532087
  0
ARC
  5
A6
100
AcDbEntity
  8
0
  6
ByLayer
 62
  256
370
   -1
100
AcDbCircle
 10
-40.38870669966079
 20
117.803619537322
 40
0.71280383444536
100
AcDbArc
 50
131.029533298
 51
176.269263194
  0
ARC
  5
A7
100
AcDbEntity
  8
0
  6
ByLayer
 62
  256
370
   -1
100
AcDbCircle
 10
-46.9688635964708
 20
124.400128900792
 40
8.6063000325268
100
AcDbArc
 50
315.251606214
 51
321.611266454
  0
ARC
  5
A8
100
AcDbEntity
  8
0
  6
ByLayer
 62
  256
370
   -1
100
AcDbCircle
 10
-40.52595321129881
 20
119.2687049249
 40
0.37026544532234
100
AcDbArc
 50
324.875550178
 51
352.948037114
  0
ARC
  5
A9
100
AcDbEntity
  8
0
  6
ByLayer
 62
  256
370
   -1
100
AcDbCircle
 10
-39.47574137929978
 20
119.9609827595222
 40
0.680468751648919
100
AcDbArc
 50
128.5707063626336
 51
161.2244133837619
  0
LINE
  5
AA
100
AcDbEntity
  8
0
  6
ByLayer
 62
  256
370
   -1
100
AcDbLine
 10
-33.49355979917814
 20
90.77824786514439
 11
-41.09999999997813
 21
117.8500000000588
  0
ARC
  5
AB
100
AcDbEntity
  8
0
  6
ByLayer
 62
  256
370
   -1
100
AcDbCircle
 10
-38.06843493613203
 20
117.8082969420138
 40
3.249963245227951
100
AcDbArc
 50
94.0858778346218
 51
124.3026915029625
  0
ARC
  5
AC
100
AcDbEntity
  8
0
  6
ByLayer
 62
  256
370
   -1
100
AcDbCircle
 10
-35.02360160642416
 20
83.85108718739713
 40
37.34292303606252
100
AcDbArc
 50
34.96234551149757
 51
95.03349689456182
  0
ARC
  5
AD
100
AcDbEntity
  8
0
  6
ByLayer
 62
  256
370
   -1
100
AcDbCircle
 10
-35.98333333331146
 20
90.3500000000588
 40
0.7120003121097908
100
AcDbArc
 50
302.5740571345719
 51
16.31385242626085
  0
LINE
  5
AE
100
AcDbEntity
  8
0
  6
ByLayer
 62
  256
370
   -1
100
AcDbLine
 10
-35.29999999997813
 20
90.5500000000588
 11
-43.79999999997813
 21
117.7500000000588
  0
ARC
  5
AF
100
AcDbEntity
  8
0
  6
ByLayer
 62
  256
370
   -1
100
AcDbCircle
 10
-46.74166666664471
 20
95.8391666667255
 40
2.789149238069344
100
AcDbArc
 50
212.2703119235942
 51
243.1823100642177
  0
ARC
  5
B0
100
AcDbEntity
  8
0
  6
ByLayer
 62
  256
370
   -1
100
AcDbCircle
 10
-36.44321416696884
 20
91.10928500200301
 40
1.599583023142102
100
AcDbArc
 50
257.1118050375763
 51
301.8128393784745
  0
ARC
  5
B1
100
AcDbEntity
  8
0
  6
ByLayer
 62
  256
370
   -1
100
AcDbCircle
 10
-28.37815489944786
 20
132.7775434542532
 40
44.04029959005262
100
AcDbArc
 50
243.5419180694291
 51
258.9754010401853
  0
ARC
  5
B2
100
AcDbEntity
  8
0
  6
ByLayer
 62
  256
370
   -1
100
AcDbCircle
 10
-53.94897653811864
 20
106.4006423341987
 40
1.519426375213774
100
AcDbArc
 50
159.3637265360558
 51
210.1791627539531
  0
ARC
  5
B3
100
AcDbEntity
  8
0
  6
ByLayer
 62
  256
370
   -1
100
AcDbCircle
 10
-20.20664645047715
 20
85.35121491295919
 40
41.26056862108134
100
AcDbArc
 50
127.8078385080526
 51
148.4570964491016
  0
LINE
  5
B4
100
AcDbEntity
  8
0
  6
ByLayer
 62
  256
370
   -1
100
AcDbLine
 10
-55.26245634095164
 20
105.6368181939379
 11
-49.09999999997813
 21
94.3500000000588
  0
CIRCLE
  5
B5
100
AcDbEntity
  8
0
  6
ByLayer
 62
  256
370
   -1
100
AcDbCircle
 10
-49.44044268397788
 20
96.94258840058009
 40
0.1651
  0
CIRCLE
  5
B6
100
AcDbEntity
  8
0
  6
ByLayer
 62
  256
370
   -1
100
AcDbCircle
 10
-51.37022134197801
 20
100.4462942003194
 40
0.1651
  0
CIRCLE
  5
B7
100
AcDbEntity
  8
0
  6
ByLayer
 62
  256
370
   -1
100
AcDbCircle
 10
-53.29999999997813
 20
103.9500000000588
 40
0.1651
  0
CIRCLE
  5
B8
100
AcDbEntity
  8
0
  6
ByLayer
 62
  256
370
   -1
100
AcDbCircle
 10
-42.41999999997813
 20
110.4300000000588
 40
0.1651
  0
CIRCLE
  5
B9
100
AcDbEntity
  8
0
  6
ByLayer
 62
  256
370
   -1
100
AcDbCircle
 10
-42.13726490809612
 20
109.4013488892168
 40
0.1651
  0
CIRCLE
  5
BA
100
AcDbEntity
  8
0
  6
ByLayer
 62
  256
370
   -1
100
AcDbCircle
 10
-37.48083233638835
 20
94.5820637336174
 40
0.1651
  0
CIRCLE
  5
BB
100
AcDbEntity
  8
0
  6
ByLayer
 62
  256
370
   -1
100
AcDbCircle
 10
-37.79999999997813
 20
95.6000000000588
 40
0.1651
  0
CIRCLE
  5
BC
100
AcDbEntity
  8
0
  6
ByLayer
 62
  256
370
   -1
100
AcDbCircle
 10
-19.99999999997813
 20
116.3500000000588
 40
0.1651
  0
CIRCLE
  5
BD
100
AcDbEntity
  8
0
  6
ByLayer
 62
  256
370
   -1
100
AcDbCircle
 10
-16.43273031456279
 20
114.5076738096932
 40
0.1651
  0
CIRCLE
  5
BE
100
AcDbEntity
  8
0
  6
ByLayer
 62
  256
370
   -1
100
AcDbCircle
 10
-13.13819754954779
 20
112.2194733670765
 40
0.1651
  0
CIRCLE
  5
BF
100
AcDbEntity
  8
0
  6
ByLayer
 62
  256
370
   -1
100
AcDbCircle
 10
-10.13819754954779
 20
109.8194733670766
 40
0.1651
  0
CIRCLE
  5
C0
100
AcDbEntity
  8
0
  6
ByLayer
 62
  256
370
   -1
100
AcDbCircle
 10
-23.76553417753287
 20
117.7290663486038
 40
0.1651
  0
CIRCLE
  5
C1
100
AcDbEntity
  8
0
  6
ByLayer
 62
  256
370
   -1
100
AcDbCircle
 10
-27.64896626778543
 20
118.7222277087255
 40
0.1651
  0
CIRCLE
  5
C2
100
AcDbEntity
  8
0
  6
ByLayer
 62
  256
370
   -1
100
AcDbCircle
 10
-31.61908144657092
 20
119.275038484687
 40
0.1651
  0
CIRCLE
  5
C3
100
AcDbEntity
  8
0
  6
ByLayer
 62
  256
370
   -1
100
AcDbCircle
 10
-35.63807150340639
 20
119.3174915372856
 40
0.1651
  0
CIRCLE
  5
C4
100
AcDbEntity
  8
0
  6
ByLayer
 62
  256
370
   -1
100
AcDbCircle
 10
-39.50000000000001
 20
119
 40
0.1651
  0
ELLIPSE
  5
C5
100
AcDbEntity
  8
0
  6
ByLayer
 62
  256
370
   -1
100
AcDbEllipse
 10
-37.36461719791398
 20
42.12655856234466
 30
0
 11
1.192579812040838
 21
0
 31
0
 40
0.7692307692307692
 41
0.09446158983148716
 42
1.26008267424506
  0
ELLIPSE
  5
C6
100
AcDbEntity
  8
0
  6
ByLayer
 62
  256
370
   -1
100
AcDbEllipse
 10
-50.195
 20
67.75000000000004
 30
0
 11
34.77554672467432
 21
0
 31
0
 40
0.7692307692307692
 41
4.717996398247864
 42
5.101572682221276
  0
ELLIPSE
  5
C7
100
AcDbEntity
  8
0
  6
ByLayer
 62
  256
370
   -1
100
AcDbEllipse
 10
-41.28257142857141
 20
10.77142857142856
 30
0
 11
2.334418968044782
 21
0
 31
0
 40
0.7692307692307692
 41
4.877014508487894
 42
6.243397399068278
  0
ARC
  5
C8
100
AcDbEntity
  8
0
  6
ByLayer
 62
  256
370
   -1
100
AcDbCircle
 10
-470.265135731705
 20
75.69748718765662
 40
435.3773159848896
100
AcDbArc
 50
352.1189655508096
 51
355.5890874747446
  0
ARC
  5
C9
100
AcDbEntity
  8
0
  6
ByLayer
 62
  256
370
   -1
100
AcDbCircle
 10
-12.14375000000234
 20
13.60312499999987
 40
26.96299638074371
100
AcDbArc
 50
174.8999607549736
 51
186.1810596192878
  0
ARC
  5
CA
100
AcDbEntity
  8
0
  6
ByLayer
 62
  256
370
   -1
100
AcDbCircle
 10
-51.00000000000004
 20
-6.000000000000101
 40
18.02775637732005
100
AcDbArc
 50
56.3099324740203
 51
86.82016988013569
  0
ELLIPSE
  5
CB
100
AcDbEntity
  8
0
  6
ByLayer
 62
  256
370
   -1
100
AcDbEllipse
 10
-62.63538280208602
 20
42.12655856234466
 30
0
 11
-1.19257981204084
 21
0
 31
0
 40
0.7692307692307692
 41
5.023102632934524
 42
6.1887237173481
  0
ELLIPSE
  5
CC
100
AcDbEntity
  8
0
  6
ByLayer
 62
  256
370
   -1
100
AcDbEllipse
 10
-49.805
 20
67.75000000000004
 30
0
 11
-34.77554672467432
 21
0
 31
0
 40
0.7692307692307692
 41
1.181612624958311
 42
1.565188908931722
  0
ELLIPSE
  5
CD
100
AcDbEntity
  8
0
  6
ByLayer
 62
  256
370
   -1
100
AcDbEllipse
 10
-58.71742857142859
 20
10.77142857142856
 30
0
 11
-2.33441896804478
 21
0
 31
0
 40
0.7692307692307692
 41
0.03978790811130636
 42
1.406170798691692
  0
ARC
  5
CE
100
AcDbEntity
  8
0
  6
ByLayer
 62
  256
370
   -1
100
AcDbCircle
 10
370.265135731705
 20
75.69748718765661
 40
435.3773159848896
100
AcDbArc
 50
184.4109125252554
 51
187.8810344491904
  0
ARC
  5
CF
100
AcDbEntity
  8
0
  6
ByLayer
 62
  256
370
   -1
100
AcDbCircle
 10
-87.85624999999766
 20
13.60312499999988
 40
26.96299638074371
100
AcDbArc
 50
353.8189403807121
 51
5.100039245026335
  0
ARC
  5
D0
100
AcDbEntity
  8
0
  6
ByLayer
 62
  256
370
   -1
100
AcDbCircle
 10
-48.99999999999996
 20
-6.000000000000098
 40
18.02775637732005
100
AcDbArc
 50
93.17983011986431
 51
123.6900675259797
  0
LINE
  5
D1
100
AcDbEntity
  8
0
  6
ByLayer
 62
  256
370
   -1
100
AcDbLine
 10
-31
 20
44
 11
-9.100000000000001
 21
42.2
  0
ARC
  5
D2
100
AcDbEntity
  8
0
  6
ByLayer
 62
  256
370
   -1
100
AcDbCircle
 10
-77.45000000000508
 20
9.549999999999775
 40
47.57525617377676
100
AcDbArc
 50
358.1329753339922
 51
4.158550342358271
  0
LINE
  5
D3
100
AcDbEntity
  8
0
  6
ByLayer
 62
  256
370
   -1
100
AcDbLine
 10
-32.00000000000001
 20
42.99999999999991
 11
-30
 21
13
  0
ARC
  5
D4
100
AcDbEntity
  8
0
  6
ByLayer
 62
  256
370
   -1
100
AcDbCircle
 10
37.45000000000508
 20
9.549999999999775
 40
47.57525617377676
100
AcDbArc
 50
175.8414496576417
 51
181.8670246660078
  0
LINE
  5
D5
100
AcDbEntity
  8
0
  6
ByLayer
 62
  256
370
   -1
100
AcDbLine
 10
-8.10000000000001
 20
40.99999999999999
 11
-10.10000000000002
 21
11.00000000000008
  0
ARC
  5
D6
100
AcDbEntity
  8
0
  6
ByLayer
 62
  256
370
   -1
100
AcDbCircle
 10
9.434146341463434
 20
40.90487804878048
 40
1.3375330448419
100
AcDbArc
 50
104.4670306849358
 51
175.9218271305346
  0
ARC
  5
D7
100
AcDbEntity
  8
0
  6
ByLayer
 62
  256
370
   -1
100
AcDbCircle
 10
30.80487804878048
 20
42.80487804878048
 40
1.210945520712823
100
AcDbArc
 50
9.272601777200915
 51
80.72739822279944
  0
ARC
  5
D8
100
AcDbEntity
  8
0
  6
ByLayer
 62
  256
370
   -1
100
AcDbCircle
 10
19.71415094339627
 20
2.023584905660565
 40
7.978579925591165
100
AcDbArc
 50
48.50880104771229
 51
88.66526000254329
  0
ARC
  5
D9
100
AcDbEntity
  8
0
  6
ByLayer
 62
  256
370
   -1
100
AcDbCircle
 10
20.28584905660373
 20
2.023584905660565
 40
7.978579925591165
100
AcDbArc
 50
91.33473999745671
 51
131.4911989522877
  0
ARC
  5
DA
100
AcDbEntity
  8
0
  6
ByLayer
 62
  256
370
   -1
100
AcDbCircle
 10
28.625
 20
8.018749999999995
 40
1.275137860193946
100
AcDbArc
 50
287.1027289690524
 51
359.1574757392596
  0
ARC
  5
DB
100
AcDbEntity
  8
0
  6
ByLayer
 62
  256
370
   -1
100
AcDbCircle
 10
28.57500000000002
 20
12.65000000000019
 40
5.865417717435158
100
AcDbArc
 50
232.4462977264295
 51
274.1552138055844
  0
ARC
  5
DC
100
AcDbEntity
  8
0
  6
ByLayer
 62
  256
370
   -1
100
AcDbCircle
 10
11.375
 20
8.018749999999995
 40
1.275137860193946
100
AcDbArc
 50
180.8425242607403
 51
252.8972710309476
  0
ARC
  5
DD
100
AcDbEntity
  8
0
  6
ByLayer
 62
  256
370
   -1
100
AcDbCircle
 10
11.42499999999998
 20
12.65000000000019
 40
5.865417717435158
100
AcDbArc
 50
265.8447861944156
 51
307.5537022735704
  0
LINE
  5
DE
100
AcDbEntity
  8
0
  6
ByLayer
 62
  256
370
   -1
100
AcDbLine
 10
3.98038402918265
 20
102.257997160226
 11
6.160741342756991
 21
91.083141652222
  0
ARC
  5
DF
100
AcDbEntity
  8
0
  6
ByLayer
 62
  256
370
   -1
100
AcDbCircle
 10
23.02985714192299
 20
116.402571428552
 40
30.828819915008
100
AcDbArc
 50
238.770237521
 51
264.359864833
  0
ARC
  5
E0
100
AcDbEntity
  8
0
  6
ByLayer
 62
  256
370
   -1
100
AcDbCircle
 10
16.97014285619419
 20
116.402571428552
 40
30.828819915008
100
AcDbArc
 50
275.640135167
 51
301.229762479
  0
ARC
  5
E1
100
AcDbEntity
  8
0
  6
ByLayer
 62
  256
370
   -1
100
AcDbCircle
 10
32.21459634578859
 20
91.14820169177389
 40
1.33139526397834
100
AcDbArc
 50
303.7355132
 51
343.866922995
  0
ARC
  5
E2
100
AcDbEntity
  8
0
  6
ByLayer
 62
  256
370
   -1
100
AcDbCircle
 10
7.63243104719999
 20
91.43621744898999
 40
1.51345072745622
100
AcDbArc
 50
193.490957528
 51
247.202246238
  0
CIRCLE
  5
E3
100
AcDbEntity
  8
0
  6
ByLayer
 62
  256
370
   -1
100
AcDbCircle
 10
30.23619999905859
 20
89.583799999908
 40
0.1651
  0
CIRCLE
  5
E4
100
AcDbEntity
  8
0
  6
ByLayer
 62
  256
370
   -1
100
AcDbCircle
 10
9.763799999058591
 20
89.583799999908
 40
0.1651
  0
CIRCLE
  5
E5
100
AcDbEntity
  8
0
  6
ByLayer
 62
  256
370
   -1
100
AcDbCircle
 10
32.9058165040006
 20
97.8468429728519
 40
0.1651
  0
CIRCLE
  5
E6
100
AcDbEntity
  8
0
  6
ByLayer
 62
  256
370
   -1
100
AcDbCircle
 10
32.6328837531946
 20
96.767556137018
 40
0.1651
  0
CIRCLE
  5
E7
100
AcDbEntity
  8
0
  6
ByLayer
 62
  256
370
   -1
100
AcDbCircle
 10
33.4033093068286
 20
95.79802543295399
 40
0.1651
  0
ARC
  5
E8
100
AcDbEntity
  8
0
  6
ByLayer
 62
  256
370
   -1
100
AcDbCircle
 10
22.10227333264611
 20
90.73362000008869
 40
25.3172544008992
100
AcDbArc
 50
246.103463701
 51
265.23683568
  0
ARC
  5
E9
100
AcDbEntity
  8
0
  6
ByLayer
 62
  256
370
   -1
100
AcDbCircle
 10
10.41322203319831
 20
62.63316949167874
 40
5.1566506761624
100
AcDbArc
 50
73.86110238599997
 51
90.1602440816
  0
ARC
  5
EA
100
AcDbEntity
  8
0
  6
ByLayer
 62
  256
370
   -1
100
AcDbCircle
 10
11.81394285643991
 20
109.7723714287327
 40
42.006415379686
100
AcDbArc
 50
264.040214983
 51
268.069412559
  0
ARC
  5
EB
100
AcDbEntity
  8
0
  6
ByLayer
 62
  256
370
   -1
100
AcDbCircle
 10
7.52174603104631
 20
68.90881111131272
 40
0.9184328300725
100
AcDbArc
 50
211.802760603
 51
265.669776008
  0
ARC
  5
EC
100
AcDbEntity
  8
0
  6
ByLayer
 62
  256
370
   -1
100
AcDbCircle
 10
15.07484988843551
 20
70.90231374736271
 40
8.6941241561416
100
AcDbArc
 50
178.0813327549999
 51
196.556705996
  0
ARC
  5
ED
100
AcDbEntity
  8
0
  6
ByLayer
 62
  256
370
   -1
100
AcDbCircle
 10
22.10227333264611
 20
51.65318000008874
 40
25.3172544008992
100
AcDbArc
 50
94.76316431999999
 51
113.896536299
  0
ARC
  5
EE
100
AcDbEntity
  8
0
  6
ByLayer
 62
  256
370
   -1
100
AcDbCircle
 10
10.41322203319831
 20
79.75363050849873
 40
5.1566506761624
100
AcDbArc
 50
269.839755918
 51
286.138897614
  0
ARC
  5
EF
100
AcDbEntity
  8
0
  6
ByLayer
 62
  256
370
   -1
100
AcDbCircle
 10
11.81394285643991
 20
32.61442857152093
 40
42.006415379686
100
AcDbArc
 50
91.93058744120002
 51
95.95978501690001
  0
ARC
  5
F0
100
AcDbEntity
  8
0
  6
ByLayer
 62
  256
370
   -1
100
AcDbCircle
 10
7.52174603104631
 20
73.47798888886472
 40
0.9184328300725
100
AcDbArc
 50
94.33022399200001
 51
148.197239397
  0
ARC
  5
F1
100
AcDbEntity
  8
0
  6
ByLayer
 62
  256
370
   -1
100
AcDbCircle
 10
15.07484988843551
 20
71.48448625281473
 40
8.6941241561416
100
AcDbArc
 50
163.443294004
 51
181.918667245
  0
ARC
  5
F2
100
AcDbEntity
  8
0
  6
ByLayer
 62
  256
370
   -1
100
AcDbCircle
 10
17.89772666596251
 20
90.73362000008869
 40
25.3172544008992
100
AcDbArc
 50
274.76316432
 51
293.896536299
  0
ARC
  5
F3
100
AcDbEntity
  8
0
  6
ByLayer
 62
  256
370
   -1
100
AcDbCircle
 10
29.58677796541031
 20
62.63316949167874
 40
5.1566506761624
100
AcDbArc
 50
89.8397559184
 51
106.138897614
  0
ARC
  5
F4
100
AcDbEntity
  8
0
  6
ByLayer
 62
  256
370
   -1
100
AcDbCircle
 10
17.89772666596251
 20
51.65318000008874
 40
25.3172544008992
100
AcDbArc
 50
66.103463701
 51
85.23683568000001
  0
ARC
  5
F5
100
AcDbEntity
  8
0
  6
ByLayer
 62
  256
370
   -1
100
AcDbCircle
 10
29.58677796541031
 20
79.75363050849873
 40
5.1566506761624
100
AcDbArc
 50
253.861102386
 51
270.160244082
  0
ARC
  5
F6
100
AcDbEntity
  8
0
  6
ByLayer
 62
  256
370
   -1
100
AcDbCircle
 10
29.78176086881431
 20
82.48149130448074
 40
7.886558524209801
100
AcDbArc
 50
268.688112217
 51
276.637889315
  0
ARC
  5
F7
100
AcDbEntity
  8
0
  6
ByLayer
 62
  256
370
   -1
100
AcDbCircle
 10
29.90035555491631
 20
76.33266666667072
 40
1.86217485089558
100
AcDbArc
 50
295.205745391
 51
326.623021049
  0
ARC
  5
F8
100
AcDbEntity
  8
0
  6
ByLayer
 62
  256
370
   -1
100
AcDbCircle
 10
87.2591999993043
 20
51.66080000008874
 40
60.607455161784
100
AcDbArc
 50
152.629531688
 51
157.034728012
  0
ARC
  5
F9
100
AcDbEntity
  8
0
  6
ByLayer
 62
  256
370
   -1
100
AcDbCircle
 10
35.61476981059631
 20
78.3001283019707
 40
2.49875062109684
100
AcDbArc
 50
16.662404847
 51
150.657211661
  0
ARC
  5
FA
100
AcDbEntity
  8
0
  6
ByLayer
 62
  256
370
   -1
100
AcDbCircle
 10
-210.4198170737797
 20
-3.849289268309274
 40
261.88439055072
100
AcDbArc
 50
16.63985696699999
 51
18.44665846399997
  0
ARC
  5
FB
100
AcDbEntity
  8
0
  6
ByLayer
 62
  256
370
   -1
100
AcDbCircle
 10
29.90035555491631
 20
65.95253333350674
 40
1.86217485089558
100
AcDbArc
 50
33.37697895100002
 51
64.79425460900001
  0
ARC
  5
FC
100
AcDbEntity
  8
0
  6
ByLayer
 62
  256
370
   -1
100
AcDbCircle
 10
87.2591999993043
 20
90.6244000000887
 40
60.607455161784
100
AcDbArc
 50
202.965271988
 51
207.370468312
  0
ARC
  5
FD
100
AcDbEntity
  8
0
  6
ByLayer
 62
  256
370
   -1
100
AcDbCircle
 10
35.61476981059631
 20
63.98507169820674
 40
2.49875062109684
100
AcDbArc
 50
209.342788339
 51
343.337595153
  0
ARC
  5
FE
100
AcDbEntity
  8
0
  6
ByLayer
 62
  256
370
   -1
100
AcDbCircle
 10
-210.4198170737797
 20
146.1344892684868
 40
261.88439055072
100
AcDbArc
 50
341.553341536
 51
343.360143033
  0
ARC
  5
FF
100
AcDbEntity
  8
0
  6
ByLayer
 62
  256
370
   -1
100
AcDbCircle
 10
29.78881363576031
 20
65.14444772743073
 40
2.6519968935572
100
AcDbArc
 50
70.05631851800001
 51
94.05673786130001
  0
CIRCLE
  5
100
100
AcDbEntity
  8
0
  6
ByLayer
 62
  256
370
   -1
100
AcDbCircle
 10
31.50619999930431
 20
73.35240000008872
 40
0.1651
  0
CIRCLE
  5
101
100
AcDbEntity
  8
0
  6
ByLayer
 62
  256
370
   -1
100
AcDbCircle
 10
32.34439999930432
 20
71.21880000008875
 40
0.1651
  0
CIRCLE
  5
102
100
AcDbEntity
  8
0
  6
ByLayer
 62
  256
370
   -1
100
AcDbCircle
 10
31.50619999930431
 20
69.03440000008874
 40
0.1651
  0
CIRCLE
  5
103
100
AcDbEntity
  8
0
  6
ByLayer
 62
  256
370
   -1
100
AcDbCircle
 10
8.49379999930431
 20
73.35240000008872
 40
0.1651
  0
CIRCLE
  5
104
100
AcDbEntity
  8
0
  6
ByLayer
 62
  256
370
   -1
100
AcDbCircle
 10
7.80799999930431
 20
71.21880000008875
 40
0.1651
  0
CIRCLE
  5
105
100
AcDbEntity
  8
0
  6
ByLayer
 62
  256
370
   -1
100
AcDbCircle
 10
8.49379999930431
 20
69.03440000008874
 40
0.1651
  0
ARC
  5
106
100
AcDbEntity
  8
0
  6
ByLayer
 62
  256
370
   -1
100
AcDbCircle
 10
17.89884177775311
 20
111.3812953439747
 40
33.041171578942
100
AcDbArc
 50
273.646020428
 51
294.029024128
  0
ARC
  5
107
100
AcDbEntity
  8
0
  6
ByLayer
 62
  256
370
   -1
100
AcDbCircle
 10
9.722480057839711
 20
84.8893219101967
 40
0.62758731534864
100
AcDbArc
 50
88.68912048280002
 51
171.3965780649
  0
ARC
  5
108
100
AcDbEntity
  8
0
  6
ByLayer
 62
  256
370
   -1
100
AcDbCircle
 10
30.99740509385831
 20
82.02574162365272
 40
0.8959183922795201
100
AcDbArc
 50
293.397811057
 51
352.887573651
  0
ARC
  5
109
100
AcDbEntity
  8
0
  6
ByLayer
 62
  256
370
   -1
100
AcDbCircle
 10
21.17795826228071
 20
109.1711462910787
 40
30.786690024668
100
AcDbArc
 50
248.440646435
 51
267.807217486
  0
ARC
  5
10A
100
AcDbEntity
  8
0
  6
ByLayer
 62
  256
370
   -1
100
AcDbCircle
 10
10.17441745538551
 20
81.4420948757847
 40
0.95524595520912
100
AcDbArc
 50
188.540458223
 51
251.095863957
  0
LINE
  5
10B
100
AcDbEntity
  8
0
  6
ByLayer
 62
  256
370
   -1
100
AcDbLine
 10
9.101954701102709
 20
84.9832054554747
 11
9.229763989222509
 21
81.30023345110074
  0
ARC
  5
10C
100
AcDbEntity
  8
0
  6
ByLayer
 62
  256
370
   -1
100
AcDbCircle
 10
17.42524912504191
 20
178.9340319870248
 40
94.40502251038001
100
AcDbArc
 50
271.870475373
 51
278.16502678
  0
ARC
  5
10D
100
AcDbEntity
  8
0
  6
ByLayer
 62
  256
370
   -1
100
AcDbCircle
 10
31.13235107949031
 20
82.93191380901874
 40
2.5715407512186
100
AcDbArc
 50
85.66244824169999
 51
96.68269677210002
  0
ARC
  5
10E
100
AcDbEntity
  8
0
  6
ByLayer
 62
  256
370
   -1
100
AcDbCircle
 10
23.88137728156851
 20
174.6223396630048
 40
90.10624701650799
100
AcDbArc
 50
261.559057761
 51
267.853609168
  0
ARC
  5
10F
100
AcDbEntity
  8
0
  6
ByLayer
 62
  256
370
   -1
100
AcDbCircle
 10
10.06829176745951
 20
80.74712754486873
 40
4.7811204108414
100
AcDbArc
 50
82.95500729330003
 51
93.97525582389999
  0
ARC
  5
110
100
AcDbEntity
  8
0
  6
ByLayer
 62
  256
370
   -1
100
AcDbCircle
 10
31.21095597333431
 20
84.9241355952047
 40
0.5835756196942801
100
AcDbArc
 50
355.838596986
 51
78.54605456800002
  0
LINE
  5
111
100
AcDbEntity
  8
0
  6
ByLayer
 62
  256
370
   -1
100
AcDbLine
 10
31.79299304700231
 20
84.8817876453567
 11
31.88642949055831
 21
81.91481197251274
  0
CIRCLE
  5
112
100
AcDbEntity
  8
0
  6
ByLayer
 62
  256
370
   -1
100
AcDbCircle
 10
9.78581541669071
 20
84.8606363132627
 40
0.1651
  0
CIRCLE
  5
113
100
AcDbEntity
  8
0
  6
ByLayer
 62
  256
370
   -1
100
AcDbCircle
 10
31.10563985249631
 20
84.8604880689567
 40
0.1651
  0
CIRCLE
  5
114
100
AcDbEntity
  8
0
  6
ByLayer
 62
  256
370
   -1
100
AcDbCircle
 10
31.32761276313431
 20
81.99086127507474
 40
0.1651
  0
CIRCLE
  5
115
100
AcDbEntity
  8
0
  6
ByLayer
 62
  256
370
   -1
100
AcDbCircle
 10
9.78919999930431
 20
81.30260000008874
 40
0.1651
  0
ARC
  5
116
100
AcDbEntity
  8
0
  6
ByLayer
 62
  256
370
   -1
100
AcDbCircle
 10
9.143503837308311
 20
57.56817206817993
 40
0.80917911577874
100
AcDbArc
 50
187.582353058
 51
281.628055252
  0
ARC
  5
117
100
AcDbEntity
  8
0
  6
ByLayer
 62
  256
370
   -1
100
AcDbCircle
 10
20.27471207985111
 20
-8.506491275447317
 40
66.19706129319201
100
AcDbArc
 50
90.23777321330002
 51
99.53725096719994
  0
ARC
  5
118
100
AcDbEntity
  8
0
  6
ByLayer
 62
  256
370
   -1
100
AcDbCircle
 10
9.61730281630231
 20
60.48189823911574
 40
1.17462481359302
100
AcDbArc
 50
117.330835413
 51
178.658398153
  0
LINE
  5
119
100
AcDbEntity
  8
0
  6
ByLayer
 62
  256
370
   -1
100
AcDbLine
 10
8.442999999304311
 20
60.50939999996173
 11
8.341399999304311
 21
57.46139999996174
  0
CIRCLE
  5
11A
100
AcDbEntity
  8
0
  6
ByLayer
 62
  256
370
   -1
100
AcDbCircle
 10
9.179599999304312
 20
57.46139999996174
 40
0.1651
  0
ARC
  5
11B
100
AcDbEntity
  8
0
  6
ByLayer
 62
  256
370
   -1
100
AcDbCircle
 10
30.85649616130031
 20
57.56817206823072
 40
0.80917911577874
100
AcDbArc
 50
258.371944748
 51
352.417646942
  0
ARC
  5
11C
100
AcDbEntity
  8
0
  6
ByLayer
 62
  256
370
   -1
100
AcDbCircle
 10
19.72528791913851
 20
-8.506491275447317
 40
66.19706129319201
100
AcDbArc
 50
80.4627490331
 51
89.76222678700003
  0
ARC
  5
11D
100
AcDbEntity
  8
0
  6
ByLayer
 62
  256
370
   -1
100
AcDbCircle
 10
18.86705771731431
 20
32.55542147694093
 40
31.378038323808
100
AcDbArc
 50
67.40690470500002
 51
87.9308163618
  0
ARC
  5
11E
100
AcDbEntity
  8
0
  6
ByLayer
 62
  256
370
   -1
100
AcDbCircle
 10
30.38269718230631
 20
60.48189823916653
 40
1.17462481359302
100
AcDbArc
 50
1.341601846999994
 51
62.66916458699999
  0
LINE
  5
11F
100
AcDbEntity
  8
0
  6
ByLayer
 62
  256
370
   -1
100
AcDbLine
 10
31.55699999930431
 20
60.50940000003794
 11
31.65859999930431
 21
57.46140000003793
  0
CIRCLE
  5
120
100
AcDbEntity
  8
0
  6
ByLayer
 62
  256
370
   -1
100
AcDbCircle
 10
30.82039999930431
 20
57.46140000001253
 40
0.1651
  0
CIRCLE
  5
121
100
AcDbEntity
  8
0
  6
ByLayer
 62
  256
370
   -1
100
AcDbCircle
 10
30.76959999930431
 20
60.76340000008872
 40
0.1651
  0
ARC
  5
122
100
AcDbEntity
  8
0
  6
ByLayer
 62
  256
370
   -1
100
AcDbCircle
 10
21.13294159930431
 20
32.55543000008873
 40
31.378144
100
AcDbArc
 50
92.06920000000001
 51
112.5931
  0
CIRCLE
  5
123
100
AcDbEntity
  8
0
  6
ByLayer
 62
  256
370
   -1
100
AcDbCircle
 10
9.230399999304311
 20
60.76340000008872
 40
0.1651
  0
CIRCLE
  5
124
100
AcDbEntity
  8
0
  6
ByLayer
 62
  256
370
   -1
100
AcDbCircle
 10
34.09999999997813
 20
98.1500000000588
 40
0.1651
  0
CIRCLE
  5
125
100
AcDbEntity
  8
0
  6
ByLayer
 62
  256
370
   -1
100
AcDbCircle
 10
36.94889968025613
 20
111.5255337560768
 40
0.1651
  0
CIRCLE
  5
126
100
AcDbEntity
  8
0
  6
ByLayer
 62
  256
370
   -1
100
AcDbCircle
 10
37.71932523389012
 20
110.5560030520128
 40
0.1651
  0
CIRCLE
  5
127
100
AcDbEntity
  8
0
  6
ByLayer
 62
  256
370
   -1
100
AcDbCircle
 10
37.22183243106213
 20
112.6048205919108
 40
0.1651
  0
CIRCLE
  5
128
100
AcDbEntity
  8
0
  6
ByLayer
 62
  256
370
   -1
100
AcDbCircle
 10
38.41601592703965
 20
112.9079776191177
 40
0.1651
  0
ARC
  5
129
100
AcDbEntity
  8
0
  6
ByLayer
 62
  256
370
   -1
100
AcDbCircle
 10
8.725811075893116
 20
103.0890478693141
 40
4.817647053980523
100
AcDbArc
 50
153.3493545282907
 51
189.933285858811
  0
CIRCLE
  5
12A
100
AcDbEntity
  8
0
  6
ByLayer
 62
  256
370
   -1
100
AcDbCircle
 10
5.999999999978129
 20
102.3500000000588
 40
0.1651
  0
CIRCLE
  5
12B
100
AcDbEntity
  8
0
  6
ByLayer
 62
  256
370
   -1
100
AcDbCircle
 10
5.999999999978134
 20
102.3500000000588
 40
0.1651
  0
ARC
  5
12C
100
AcDbEntity
  8
0
  6
ByLayer
 62
  256
370
   -1
100
AcDbCircle
 10
44.75357142854956
 20
116.9696428572016
 40
1.232175206614698
100
AcDbArc
 50
52.71492281301207
 51
140.7047508025018
  0
ARC
  5
12D
100
AcDbEntity
  8
0
  6
ByLayer
 62
  256
370
   -1
100
AcDbCircle
 10
38.56961591214481
 20
119.639562920292
 40
1.64250883984748
100
AcDbArc
 50
345.317467913
 51
19.17249404099996
  0
ARC
  5
12E
100
AcDbEntity
  8
0
  6
ByLayer
 62
  256
370
   -1
100
AcDbCircle
 10
40.38870669966079
 20
117.803619537322
 40
0.71280383444536
100
AcDbArc
 50
3.730736806000017
 51
48.97046670200004
  0
ARC
  5
12F
100
AcDbEntity
  8
0
  6
ByLayer
 62
  256
370
   -1
100
AcDbCircle
 10
46.9688635964708
 20
124.400128900792
 40
8.6063000325268
100
AcDbArc
 50
218.388733546
 51
224.748393786
  0
ARC
  5
130
100
AcDbEntity
  8
0
  6
ByLayer
 62
  256
370
   -1
100
AcDbCircle
 10
40.52595321129881
 20
119.2687049249
 40
0.37026544532234
100
AcDbArc
 50
187.051962886
 51
215.124449822
  0
ARC
  5
131
100
AcDbEntity
  8
0
  6
ByLayer
 62
  256
370
   -1
100
AcDbCircle
 10
39.47574137929978
 20
119.9609827595222
 40
0.680468751648919
100
AcDbArc
 50
18.77558661623807
 51
51.4292936373664
  0
LINE
  5
132
100
AcDbEntity
  8
0
  6
ByLayer
 62
  256
370
   -1
100
AcDbLine
 10
33.49355979917814
 20
90.77824786514439
 11
41.09999999997813
 21
117.8500000000588
  0
ARC
  5
133
100
AcDbEntity
  8
0
  6
ByLayer
 62
  256
370
   -1
100
AcDbCircle
 10
38.06843493613203
 20
117.8082969420138
 40
3.249963245227951
100
AcDbArc
 50
55.69730849703748
 51
85.91412216537822
  0
ARC
  5
134
100
AcDbEntity
  8
0
  6
ByLayer
 62
  256
370
   -1
100
AcDbCircle
 10
35.02360160642416
 20
83.85108718739713
 40
37.34292303606252
100
AcDbArc
 50
84.96650310543818
 51
145.0376544885024
  0
ARC
  5
135
100
AcDbEntity
  8
0
  6
ByLayer
 62
  256
370
   -1
100
AcDbCircle
 10
35.98333333331146
 20
90.3500000000588
 40
0.7120003121097908
100
AcDbArc
 50
163.6861475737392
 51
237.4259428654281
  0
LINE
  5
136
100
AcDbEntity
  8
0
  6
ByLayer
 62
  256
370
   -1
100
AcDbLine
 10
35.29999999997813
 20
90.5500000000588
 11
43.79999999997813
 21
117.7500000000588
  0
ARC
  5
137
100
AcDbEntity
  8
0
  6
ByLayer
 62
  256
370
   -1
100
AcDbCircle
 10
46.74166666664471
 20
95.8391666667255
 40
2.789149238069344
100
AcDbArc
 50
296.8176899357823
 51
327.7296880764058
  0
ARC
  5
138
100
AcDbEntity
  8
0
  6
ByLayer
 62
  256
370
   -1
100
AcDbCircle
 10
36.44321416696884
 20
91.10928500200301
 40
1.599583023142102
100
AcDbArc
 50
238.1871606215255
 51
282.8881949624237
  0
ARC
  5
139
100
AcDbEntity
  8
0
  6
ByLayer
 62
  256
370
   -1
100
AcDbCircle
 10
28.37815489944786
 20
132.7775434542532
 40
44.04029959005262
100
AcDbArc
 50
281.0245989598147
 51
296.4580819305709
  0
ARC
  5
13A
100
AcDbEntity
  8
0
  6
ByLayer
 62
  256
370
   -1
100
AcDbCircle
 10
53.94897653811864
 20
106.4006423341987
 40
1.519426375213774
100
AcDbArc
 50
329.8208372460469
 51
20.63627346394424
  0
ARC
  5
13B
100
AcDbEntity
  8
0
  6
ByLayer
 62
  256
370
   -1
100
AcDbCircle
 10
20.20664645047715
 20
85.35121491295919
 40
41.26056862108134
100
AcDbArc
 50
31.54290355089841
 51
52.19216149194737
  0
LINE
  5
13C
100
AcDbEntity
  8
0
  6
ByLayer
 62
  256
370
   -1
100
AcDbLine
 10
55.26245634095164
 20
105.6368181939379
 11
49.09999999997813
 21
94.3500000000588
  0
CIRCLE
  5
13D
100
AcDbEntity
  8
0
  6
ByLayer
 62
  256
370
   -1
100
AcDbCircle
 10
49.44044268397788
 20
96.94258840058009
 40
0.1651
  0
CIRCLE
  5
13E
100
AcDbEntity
  8
0
  6
ByLayer
 62
  256
370
   -1
100
AcDbCircle
 10
51.37022134197801
 20
100.4462942003194
 40
0.1651
  0
CIRCLE
  5
13F
100
AcDbEntity
  8
0
  6
ByLayer
 62
  256
370
   -1
100
AcDbCircle
 10
53.29999999997813
 20
103.9500000000588
 40
0.1651
  0
CIRCLE
  5
140
100
AcDbEntity
  8
0
  6
ByLayer
 62
  256
370
   -1
100
AcDbCircle
 10
42.41999999997813
 20
110.4300000000588
 40
0.1651
  0
CIRCLE
  5
141
100
AcDbEntity
  8
0
  6
ByLayer
 62
  256
370
   -1
100
AcDbCircle
 10
42.13726490809612
 20
109.4013488892168
 40
0.1651
  0
CIRCLE
  5
142
100
AcDbEntity
  8
0
  6
ByLayer
 62
  256
370
   -1
100
AcDbCircle
 10
37.48083233638835
 20
94.5820637336174
 40
0.1651
  0
CIRCLE
  5
143
100
AcDbEntity
  8
0
  6
ByLayer
 62
  256
370
   -1
100
AcDbCircle
 10
37.79999999997813
 20
95.6000000000588
 40
0.1651
  0
CIRCLE
  5
144
100
AcDbEntity
  8
0
  6
ByLayer
 62
  256
370
   -1
100
AcDbCircle
 10
19.99999999997813
 20
116.3500000000588
 40
0.1651
  0
CIRCLE
  5
145
100
AcDbEntity
  8
0
  6
ByLayer
 62
  256
370
   -1
100
AcDbCircle
 10
16.43273031456279
 20
114.5076738096932
 40
0.1651
  0
CIRCLE
  5
146
100
AcDbEntity
  8
0
  6
ByLayer
 62
  256
370
   -1
100
AcDbCircle
 10
13.13819754954779
 20
112.2194733670765
 40
0.1651
  0
CIRCLE
  5
147
100
AcDbEntity
  8
0
  6
ByLayer
 62
  256
370
   -1
100
AcDbCircle
 10
10.13819754954779
 20
109.8194733670766
 40
0.1651
  0
CIRCLE
  5
148
100
AcDbEntity
  8
0
  6
ByLayer
 62
  256
370
   -1
100
AcDbCircle
 10
23.76553417753287
 20
117.7290663486038
 40
0.1651
  0
CIRCLE
  5
149
100
AcDbEntity
  8
0
  6
ByLayer
 62
  256
370
   -1
100
AcDbCircle
 10
27.64896626778543
 20
118.7222277087255
 40
0.1651
  0
CIRCLE
  5
14A
100
AcDbEntity
  8
0
  6
ByLayer
 62
  256
370
   -1
100
AcDbCircle
 10
31.61908144657092
 20
119.275038484687
 40
0.1651
  0
CIRCLE
  5
14B
100
AcDbEntity
  8
0
  6
ByLayer
 62
  256
370
   -1
100
AcDbCircle
 10
35.63807150340639
 20
119.3174915372856
 40
0.1651
  0
CIRCLE
  5
14C
100
AcDbEntity
  8
0
  6
ByLayer
 62
  256
370
   -1
100
AcDbCircle
 10
39.50000000000001
 20
119
 40
0.1651
  0
ELLIPSE
  5
14D
100
AcDbEntity
  8
0
  6
ByLayer
 62
  256
370
   -1
100
AcDbEllipse
 10
37.36461719791398
 20
42.12655856234466
 30
0
 11
-1.19257981204084
 21
0
 31
0
 40
0.7692307692307692
 41
5.023102632934524
 42
6.1887237173481
  0
ELLIPSE
  5
14E
100
AcDbEntity
  8
0
  6
ByLayer
 62
  256
370
   -1
100
AcDbEllipse
 10
50.195
 20
67.75000000000004
 30
0
 11
-34.77554672467432
 21
0
 31
0
 40
0.7692307692307692
 41
1.181612624958311
 42
1.565188908931722
  0
ELLIPSE
  5
14F
100
AcDbEntity
  8
0
  6
ByLayer
 62
  256
370
   -1
100
AcDbEllipse
 10
41.28257142857141
 20
10.77142857142856
 30
0
 11
-2.33441896804478
 21
0
 31
0
 40
0.7692307692307692
 41
0.03978790811131427
 42
1.406170798691692
  0
ARC
  5
150
100
AcDbEntity
  8
0
  6
ByLayer
 62
  256
370
   -1
100
AcDbCircle
 10
470.265135731705
 20
75.69748718765662
 40
435.3773159848896
100
AcDbArc
 50
184.4109125252554
 51
187.8810344491904
  0
ARC
  5
151
100
AcDbEntity
  8
0
  6
ByLayer
 62
  256
370
   -1
100
AcDbCircle
 10
12.14375000000234
 20
13.60312499999988
 40
26.96299638074371
100
AcDbArc
 50
353.8189403807122
 51
5.100039245026436
  0
ARC
  5
152
100
AcDbEntity
  8
0
  6
ByLayer
 62
  256
370
   -1
100
AcDbCircle
 10
51.00000000000004
 20
-6.000000000000126
 40
18.02775637732005
100
AcDbArc
 50
93.17983011986431
 51
123.6900675259797
  0
ELLIPSE
  5
153
100
AcDbEntity
  8
0
  6
ByLayer
 62
  256
370
   -1
100
AcDbEllipse
 10
62.63538280208602
 20
42.12655856234466
 30
0
 11
1.19257981204084
 21
0
 31
0
 40
0.7692307692307692
 41
0.09446158983148716
 42
1.260082674245063
  0
ELLIPSE
  5
154
100
AcDbEntity
  8
0
  6
ByLayer
 62
  256
370
   -1
100
AcDbEllipse
 10
49.805
 20
67.75000000000004
 30
0
 11
34.77554672467432
 21
0
 31
0
 40
0.7692307692307692
 41
4.717996398247864
 42
5.101572682221276
  0
ELLIPSE
  5
155
100
AcDbEntity
  8
0
  6
ByLayer
 62
  256
370
   -1
100
AcDbEllipse
 10
58.71742857142859
 20
10.77142857142856
 30
0
 11
2.33441896804478
 21
0
 31
0
 40
0.7692307692307692
 41
4.877014508487894
 42
6.243397399068286
  0
ARC
  5
156
100
AcDbEntity
  8
0
  6
ByLayer
 62
  256
370
   -1
100
AcDbCircle
 10
-370.265135731705
 20
75.69748718765661
 40
435.3773159848896
100
AcDbArc
 50
352.1189655508096
 51
355.5890874747445
  0
ARC
  5
157
100
AcDbEntity
  8
0
  6
ByLayer
 62
  256
370
   -1
100
AcDbCircle
 10
87.85624999999766
 20
13.60312499999988
 40
26.96299638074371
100
AcDbArc
 50
174.8999607549737
 51
186.1810596192879
  0
ARC
  5
158
100
AcDbEntity
  8
0
  6
ByLayer
 62
  256
370
   -1
100
AcDbCircle
 10
48.99999999999996
 20
-6.000000000000073
 40
18.02775637732005
100
AcDbArc
 50
56.3099324740203
 51
86.82016988013569
  0
LINE
  5
159
100
AcDbEntity
  8
0
  6
ByLayer
 62
  256
370
   -1
100
AcDbLine
 10
31
 20
44
 11
9.100000000000001
 21
42.2
  0
ARC
  5
15A
100
AcDbEntity
  8
0
  6
ByLayer
 62
  256
370
   -1
100
AcDbCircle
 10
77.45000000000508
 20
9.549999999999764
 40
47.57525617377676
100
AcDbArc
 50
175.8414496576418
 51
181.8670246660078
  0
LINE
  5
15B
100
AcDbEntity
  8
0
  6
ByLayer
 62
  256
370
   -1
100
AcDbLine
 10
32.00000000000001
 20
42.99999999999991
 11
30
 21
13
  0
ARC
  5
15C
100
AcDbEntity
  8
0
  6
ByLayer
 62
  256
370
   -1
100
AcDbCircle
 10
-37.45000000000508
 20
9.549999999999764
 40
47.57525617377676
100
AcDbArc
 50
358.1329753339922
 51
4.158550342358278
  0
LINE
  5
15D
100
AcDbEntity
  8
0
  6
ByLayer
 62
  256
370
   -1
100
AcDbLine
 10
8.10000000000001
 20
40.99999999999999
 11
10.10000000000002
 21
11.00000000000009
  0
CIRCLE
  5
15E
100
AcDbEntity
  8
0
  6
ByLayer
 62
  256
370
   -1
100
AcDbCircle
 10
-9.586000000426928
 20
52.71400000017326
 40
0.1651
  0
CIRCLE
  5
15F
100
AcDbEntity
  8
0
  6
ByLayer
 62
  256
370
   -1
100
AcDbCircle
 10
-30.41400000042693
 20
52.71400000014786
 40
0.1651
  0
LINE
  5
160
100
AcDbEntity
  8
0
  6
ByLayer
 62
  256
370
   -1
100
AcDbLine
 10
-8.392199999971613
 20
46.97740000016217
 11
-8.646199999971612
 21
52.54000000016217
  0
ARC
  5
161
100
AcDbEntity
  8
0
  6
ByLayer
 62
  256
370
   -1
100
AcDbCircle
 10
-9.207029918009813
 20
46.95293688540804
 40
0.8151970555056
100
AcDbArc
 50
266.570167392
 51
1.719637814999997
  0
ARC
  5
162
100
AcDbEntity
  8
0
  6
ByLayer
 62
  256
370
   -1
100
AcDbCircle
 10
-5.834225073208812
 20
-24.71738101918382
 40
70.939144685562
100
AcDbArc
 50
92.7645934322
 51
101.51877984
  0
LINE
  5
163
100
AcDbEntity
  8
0
  6
ByLayer
 62
  256
370
   -1
100
AcDbLine
 10
-31.60779999997162
 20
46.97740000016217
 11
-31.35379999997161
 21
52.54000000016217
  0
ARC
  5
164
100
AcDbEntity
  8
0
  6
ByLayer
 62
  256
370
   -1
100
AcDbCircle
 10
-30.79297008200961
 20
46.95293688540804
 40
0.8151970555056
100
AcDbArc
 50
178.280362185
 51
273.429832608
  0
ARC
  5
165
100
AcDbEntity
  8
0
  6
ByLayer
 62
  256
370
   -1
100
AcDbCircle
 10
-34.16577492668361
 20
-24.71738101918382
 40
70.939144685562
100
AcDbArc
 50
78.48122016000001
 51
87.2354065678
  0
ARC
  5
166
100
AcDbEntity
  8
0
  6
ByLayer
 62
  256
370
   -1
100
AcDbCircle
 10
-10.37402975205221
 20
52.11192603319779
 40
1.78006824963032
100
AcDbArc
 50
13.91497667039999
 51
72.5420838494
  0
ARC
  5
167
100
AcDbEntity
  8
0
  6
ByLayer
 62
  256
370
   -1
100
AcDbCircle
 10
-29.62597024786561
 20
52.111926033274
 40
1.78006824957698
100
AcDbArc
 50
107.457916152
 51
166.085023331
  0
ARC
  5
168
100
AcDbEntity
  8
0
  6
ByLayer
 62
  256
370
   -1
100
AcDbCircle
 10
-18.06516778529021
 20
27.02067114148738
 40
29.39307923633
100
AcDbArc
 50
93.77428763979999
 51
114.298199296
  0
ARC
  5
169
100
AcDbEntity
  8
0
  6
ByLayer
 62
  256
370
   -1
100
AcDbCircle
 10
-21.93483221465301
 20
27.02067114148738
 40
29.39307923633
100
AcDbArc
 50
65.70180070390001
 51
86.22571236020001
  0
CIRCLE
  5
16A
100
AcDbEntity
  8
0
  6
ByLayer
 62
  256
370
   -1
100
AcDbCircle
 10
-30.5
 20
47.8
 40
0.1651
  0
CIRCLE
  5
16B
100
AcDbEntity
  8
0
  6
ByLayer
 62
  256
370
   -1
100
AcDbCircle
 10
-9.500000000000002
 20
47.8
 40
0.1651
  0
CIRCLE
  5
16C
100
AcDbEntity
  8
0
  6
ByLayer
 62
  256
370
   -1
100
AcDbCircle
 10
9.586000000426928
 20
52.71400000017326
 40
0.1651
  0
CIRCLE
  5
16D
100
AcDbEntity
  8
0
  6
ByLayer
 62
  256
370
   -1
100
AcDbCircle
 10
30.41400000042693
 20
52.71400000014786
 40
0.1651
  0
LINE
  5
16E
100
AcDbEntity
  8
0
  6
ByLayer
 62
  256
370
   -1
100
AcDbLine
 10
8.392199999971613
 20
46.97740000016217
 11
8.646199999971612
 21
52.54000000016217
  0
ARC
  5
16F
100
AcDbEntity
  8
0
  6
ByLayer
 62
  256
370
   -1
100
AcDbCircle
 10
9.207029918009813
 20
46.95293688540804
 40
0.8151970555056
100
AcDbArc
 50
178.2803621850001
 51
273.429832608
  0
ARC
  5
170
100
AcDbEntity
  8
0
  6
ByLayer
 62
  256
370
   -1
100
AcDbCircle
 10
5.834225073208812
 20
-24.71738101918382
 40
70.939144685562
100
AcDbArc
 50
78.48122016000001
 51
87.23540656780003
  0
LINE
  5
171
100
AcDbEntity
  8
0
  6
ByLayer
 62
  256
370
   -1
100
AcDbLine
 10
31.60779999997162
 20
46.97740000016217
 11
31.35379999997161
 21
52.54000000016217
  0
ARC
  5
172
100
AcDbEntity
  8
0
  6
ByLayer
 62
  256
370
   -1
100
AcDbCircle
 10
30.79297008200961
 20
46.95293688540804
 40
0.8151970555056
100
AcDbArc
 50
266.570167392
 51
1.719637814999997
  0
ARC
  5
173
100
AcDbEntity
  8
0
  6
ByLayer
 62
  256
370
   -1
100
AcDbCircle
 10
34.16577492668361
 20
-24.71738101918382
 40
70.939144685562
100
AcDbArc
 50
92.76459343219997
 51
101.51877984
  0
ARC
  5
174
100
AcDbEntity
  8
0
  6
ByLayer
 62
  256
370
   -1
100
AcDbCircle
 10
10.37402975205221
 20
52.11192603319779
 40
1.78006824963032
100
AcDbArc
 50
107.4579161506
 51
166.0850233296
  0
ARC
  5
175
100
AcDbEntity
  8
0
  6
ByLayer
 62
  256
370
   -1
100
AcDbCircle
 10
29.62597024786561
 20
52.111926033274
 40
1.78006824957698
100
AcDbArc
 50
13.91497666899999
 51
72.54208384799998
  0
ARC
  5
176
100
AcDbEntity
  8
0
  6
ByLayer
 62
  256
370
   -1
100
AcDbCircle
 10
18.06516778529021
 20
27.02067114148738
 40
29.39307923633
100
AcDbArc
 50
65.70180070399998
 51
86.22571236020002
  0
ARC
  5
177
100
AcDbEntity
  8
0
  6
ByLayer
 62
  256
370
   -1
100
AcDbCircle
 10
21.93483221465301
 20
27.02067114148738
 40
29.39307923633
100
AcDbArc
 50
93.77428763979997
 51
114.2981992961
  0
CIRCLE
  5
178
100
AcDbEntity
  8
0
  6
ByLayer
 62
  256
370
   -1
100
AcDbCircle
 10
30.5
 20
47.8
 40
0.1651
  0
CIRCLE
  5
179
100
AcDbEntity
  8
0
  6
ByLayer
 62
  256
370
   -1
100
AcDbCircle
 10
9.500000000000002
 20
47.8
 40
0.1651
  0
MTEXT
  5
17A
100
AcDbEntity
  8
0
  6
ByLayer
 62
  256
370
   -1
100
AcDbMText
 10
2.187050540669588e-11
 20
134.3500000000588
 30
0
 40
6
 41
128
 71
    5
 72
    1
  1
Early 15th Century Leg Armour\PNov. 02, 2017 at 08:03\PUnits = cm
  7
unicode
210
0
220
0
230
1
 50
0
 73
    2
 44
1
  0
ENDSEC
  0
SECTION
  2
OBJECTS
  0
DICTIONARY
  5
C
330
0
100
AcDbDictionary
281
    1
  3
ACAD_GROUP
350
D
  0
DICTIONARY
  5
D
330
C
100
AcDbDictionary
281
    1
  0
ENDSEC
  0
EOF
