999
dxfrw 0.5.11
0
SECTION
2
HEADER
9
$ACADVER
1
AC1021
9
$HANDSEED
5
20000
9
$DWGCODEPAGE
3
ANSI_1252
9
$INSBASE
10
0
20
0
30
0
9
$EXTMIN
10
-20
20
9.34363697525e-12
30
0
9
$EXTMAX
10
20
20
34.5
30
0
9
$LIMMIN
10
0
20
0
9
$LIMMAX
10
420
20
297
9
$ORTHOMODE
70
0
9
$LTSCALE
40
1
9
$TEXTSTYLE
7
STANDARD
9
$CLAYER
8
0
9
$DIMASZ
40
0.1
9
$DIMLFAC
40
1
9
$DIMSCALE
40
1
9
$DIMEXO
40
0.025
9
$DIMEXE
40
0.05
9
$DIMTXT
40
0.1
9
$DIMTSZ
40
0
9
$DIMAUNIT
70
0
9
$DIMADEC
70
2
9
$DIMLUNIT
70
2
9
$DIMSTYLE
2
STANDARD
9
$DIMGAP
40
0.025
9
$DIMTIH
70
0
9
$LUNITS
70
2
9
$LUPREC
70
4
9
$AUNITS
70
0
9
$AUPREC
70
2
9
$SPLINESEGS
70
8
9
$GRIDMODE
70
1
9
$SNAPSTYLE
70
0
9
$GRIDUNIT
10
0
20
0
9
$PINSBASE
10
15.5617195578
20
-2.15515390122
30
0
9
$PLIMMIN
10
0
20
0
9
$PLIMMAX
10
17.9921259843
20
12.0078740157
9
$INSUNITS
70
1
9
$PSVPSCALE
40
1
0
ENDSEC
0
SECTION
2
CLASSES
0
ENDSEC
0
SECTION
2
TABLES
0
TABLE
2
VPORT
5
8
330
0
100
AcDbSymbolTable
70
1
0
VPORT
5
31
330
2
100
AcDbSymbolTableRecord
100
AcDbViewportTableRecord
2
*ACTIVE
70
0
10
0
20
0
11
1
21
1
12
7.53126468588
22
12.4524879066
13
0
23
0
14
10
24
10
15
10
25
10
16
0
26
0
36
1
17
0
27
0
37
0
40
34.6677263318
41
0.933333333333
42
50
43
0
44
0
50
0
51
0
71
0
72
100
73
1
74
3
75
0
76
1
77
0
78
0
281
0
65
1
110
0
120
0
130
0
111
1
121
0
131
0
112
0
122
1
132
0
79
0
146
0
348
10020
60
7
61
5
292
1
282
1
141
0
142
0
63
250
421
3358443
0
ENDTAB
0
TABLE
2
LTYPE
5
5
330
0
100
AcDbSymbolTable
70
4
0
LTYPE
5
14
330
5
100
AcDbSymbolTableRecord
100
AcDbLinetypeTableRecord
2
ByBlock
70
0
3

72
65
73
0
40
0
0
LTYPE
5
15
330
5
100
AcDbSymbolTableRecord
100
AcDbLinetypeTableRecord
2
ByLayer
70
0
3

72
65
73
0
40
0
0
LTYPE
5
16
330
5
100
AcDbSymbolTableRecord
100
AcDbLinetypeTableRecord
2
Continuous
70
0
3
Solid line
72
65
73
0
40
0
0
LTYPE
5
32
330
5
100
AcDbSymbolTableRecord
100
AcDbLinetypeTableRecord
2
DOT
70
0
3
Dot . . . . . . . . . . . . . . . . . . . . . .
72
65
73
2
40
6.35
49
0
74
0
49
-6.35
74
0
0
LTYPE
5
33
330
5
100
AcDbSymbolTableRecord
100
AcDbLinetypeTableRecord
2
DOT2
70
0
3
Dot (.5x) .....................................
72
65
73
2
40
3.175
49
0
74
0
49
-3.175
74
0
0
LTYPE
5
34
330
5
100
AcDbSymbolTableRecord
100
AcDbLinetypeTableRecord
2
DOTX2
70
0
3
Dot (2x) .  .  .  .  .  .  .  .  .  .  .  .  .
72
65
73
2
40
12.7
49
0
74
0
49
-12.7
74
0
0
LTYPE
5
35
330
5
100
AcDbSymbolTableRecord
100
AcDbLinetypeTableRecord
2
DASHED
70
0
3
Dot . . . . . . . . . . . . . . . . . . . . . .
72
65
73
2
40
19.05
49
12.7
74
0
49
-6.35
74
0
0
LTYPE
5
36
330
5
100
AcDbSymbolTableRecord
100
AcDbLinetypeTableRecord
2
DASHED2
70
0
3
Dashed (.5x) _ _ _ _ _ _ _ _ _ _ _ _ _ _ _ _ _
72
65
73
2
40
9.525
49
6.35
74
0
49
-3.175
74
0
0
LTYPE
5
37
330
5
100
AcDbSymbolTableRecord
100
AcDbLinetypeTableRecord
2
DASHEDX2
70
0
3
Dashed (2x) ____  ____  ____  ____  ____  ___
72
65
73
2
40
38.1
49
25.4
74
0
49
-12.7
74
0
0
LTYPE
5
38
330
5
100
AcDbSymbolTableRecord
100
AcDbLinetypeTableRecord
2
DASHDOT
70
0
3
Dash dot __ . __ . __ . __ . __ . __ . __ . __
72
65
73
4
40
25.4
49
12.7
74
0
49
-6.35
74
0
49
0
74
0
49
-6.35
74
0
0
LTYPE
5
39
330
5
100
AcDbSymbolTableRecord
100
AcDbLinetypeTableRecord
2
DASHDOT2
70
0
3
Dash dot (.5x) _._._._._._._._._._._._._._._.
72
65
73
4
40
12.7
49
6.35
74
0
49
-3.175
74
0
49
0
74
0
49
-3.175
74
0
0
LTYPE
5
3A
330
5
100
AcDbSymbolTableRecord
100
AcDbLinetypeTableRecord
2
DASHDOTX2
70
0
3
Dash dot (2x) ____  .  ____  .  ____  .  ___
72
65
73
4
40
50.8
49
25.4
74
0
49
-12.7
74
0
49
0
74
0
49
-12.7
74
0
0
LTYPE
5
3B
330
5
100
AcDbSymbolTableRecord
100
AcDbLinetypeTableRecord
2
DIVIDE
70
0
3
Divide ____ . . ____ . . ____ . . ____ . . ____
72
65
73
6
40
31.75
49
12.7
74
0
49
-6.35
74
0
49
0
74
0
49
-6.35
74
0
49
0
74
0
49
-6.35
74
0
0
LTYPE
5
3C
330
5
100
AcDbSymbolTableRecord
100
AcDbLinetypeTableRecord
2
DIVIDE2
70
0
3
Divide (.5x) __..__..__..__..__..__..__..__.._
72
65
73
6
40
15.875
49
6.35
74
0
49
-3.175
74
0
49
0
74
0
49
-3.175
74
0
49
0
74
0
49
-3.175
74
0
0
LTYPE
5
3D
330
5
100
AcDbSymbolTableRecord
100
AcDbLinetypeTableRecord
2
DIVIDEX2
70
0
3
Divide (2x) ________  .  .  ________  .  .  _
72
65
73
6
40
63.5
49
25.4
74
0
49
-12.7
74
0
49
0
74
0
49
-12.7
74
0
49
0
74
0
49
-12.7
74
0
0
LTYPE
5
3E
330
5
100
AcDbSymbolTableRecord
100
AcDbLinetypeTableRecord
2
BORDER
70
0
3
Border __ __ . __ __ . __ __ . __ __ . __ __ .
72
65
73
6
40
44.45
49
12.7
74
0
49
-6.35
74
0
49
12.7
74
0
49
-6.35
74
0
49
0
74
0
49
-6.35
74
0
0
LTYPE
5
3F
330
5
100
AcDbSymbolTableRecord
100
AcDbLinetypeTableRecord
2
BORDER2
70
0
3
Border (.5x) __.__.__.__.__.__.__.__.__.__.__.
72
65
73
6
40
22.225
49
6.35
74
0
49
-3.175
74
0
49
6.35
74
0
49
-3.175
74
0
49
0
74
0
49
-3.175
74
0
0
LTYPE
5
40
330
5
100
AcDbSymbolTableRecord
100
AcDbLinetypeTableRecord
2
BORDERX2
70
0
3
Border (2x) ____  ____  .  ____  ____  .  ___
72
65
73
6
40
88.9
49
25.4
74
0
49
-12.7
74
0
49
25.4
74
0
49
-12.7
74
0
49
0
74
0
49
-12.7
74
0
0
LTYPE
5
41
330
5
100
AcDbSymbolTableRecord
100
AcDbLinetypeTableRecord
2
CENTER
70
0
3
Center ____ _ ____ _ ____ _ ____ _ ____ _ ____
72
65
73
4
40
50.8
49
31.75
74
0
49
-6.35
74
0
49
6.35
74
0
49
-6.35
74
0
0
LTYPE
5
42
330
5
100
AcDbSymbolTableRecord
100
AcDbLinetypeTableRecord
2
CENTER2
70
0
3
Center (.5x) ___ _ ___ _ ___ _ ___ _ ___ _ ___
72
65
73
4
40
28.575
49
19.05
74
0
49
-3.175
74
0
49
3.175
74
0
49
-3.175
74
0
0
LTYPE
5
43
330
5
100
AcDbSymbolTableRecord
100
AcDbLinetypeTableRecord
2
CENTERX2
70
0
3
Center (2x) ________  __  ________  __  _____
72
65
73
4
40
101.6
49
63.5
74
0
49
-12.7
74
0
49
12.7
74
0
49
-12.7
74
0
0
ENDTAB
0
TABLE
2
LAYER
5
2
330
0
100
AcDbSymbolTable
70
1
0
LAYER
5
10
330
2
100
AcDbSymbolTableRecord
100
AcDbLayerTableRecord
2
0
70
0
62
7
6
CONTINUOUS
370
0
390
F
0
ENDTAB
0
TABLE
2
STYLE
5
3
330
0
100
AcDbSymbolTable
70
3
0
STYLE
5
44
330
2
100
AcDbSymbolTableRecord
100
AcDbTextStyleTableRecord
2
iso
70
0
40
0
41
1
50
0
71
0
42
1
3
iso
4

0
STYLE
5
45
330
2
100
AcDbSymbolTableRecord
100
AcDbTextStyleTableRecord
2
Standard
70
0
40
0
41
1
50
0
71
0
42
1
3
txt
4

0
ENDTAB
0
TABLE
2
VIEW
5
6
330
0
100
AcDbSymbolTable
70
0
0
ENDTAB
0
TABLE
2
UCS
5
7
330
0
100
AcDbSymbolTable
70
0
0
ENDTAB
0
TABLE
2
APPID
5
9
330
0
100
AcDbSymbolTable
70
1
0
APPID
5
12
330
9
100
AcDbSymbolTableRecord
100
AcDbRegAppTableRecord
2
ACAD
70
0
0
ENDTAB
0
TABLE
2
DIMSTYLE
5
A
330
0
100
AcDbSymbolTable
70
1
100
AcDbDimStyleTable
71
1
0
DIMSTYLE
105
46
330
A
100
AcDbSymbolTableRecord
100
AcDbDimStyleTableRecord
2
Standard
70
0
40
1
41
0.1
42
0.025
43
0.38
44
0.05
45
0
46
0
47
0
48
0
140
0.1
141
0.09
142
0
143
25.4
144
1
145
0
146
1
147
0.025
148
0
71
0
72
0
73
0
74
1
75
0
76
0
77
0
78
0
79
0
170
0
171
2
172
0
173
0
174
0
175
0
176
0
177
0
178
0
179
0
271
4
272
4
273
2
274
2
275
0
276
0
277
2
278
46
279
0
280
0
281
0
282
0
283
1
284
0
285
0
286
0
288
0
289
3
340
Standard
341

371
-2
372
-2
0
ENDTAB
0
TABLE
2
BLOCK_RECORD
5
1
330
0
100
AcDbSymbolTable
70
2
0
BLOCK_RECORD
5
1F
330
1
100
AcDbSymbolTableRecord
100
AcDbBlockTableRecord
2
*Model_Space
70
0
280
1
281
0
0
BLOCK_RECORD
5
1E
330
1
100
AcDbSymbolTableRecord
100
AcDbBlockTableRecord
2
*Paper_Space
70
0
280
1
281
0
0
ENDTAB
0
ENDSEC
0
SECTION
2
BLOCKS
0
BLOCK
5
20
330
1F
100
AcDbEntity
8
0
100
AcDbBlockBegin
2
*Model_Space
70
0
10
0
20
0
30
0
3
*Model_Space
1

0
ENDBLK
5
21
330
1F
100
AcDbEntity
8
0
100
AcDbBlockEnd
0
BLOCK
5
1C
330
1B
100
AcDbEntity
8
0
100
AcDbBlockBegin
2
*Paper_Space
70
0
10
0
20
0
30
0
3
*Paper_Space
1

0
ENDBLK
5
1D
330
1F
100
AcDbEntity
8
0
100
AcDbBlockEnd
0
ENDSEC
0
SECTION
2
ENTITIES
0
LINE
5
47
100
AcDbEntity
8
0
6
ByLayer
62
256
370
-1
100
AcDbLine
10
-2.43
20
0.86
11
-2.53
21
3.05
0
ARC
5
48
100
AcDbEntity
8
0
6
ByLayer
62
256
370
-1
100
AcDbCircle
10
-2.75079918033
20
0.850368852459
40
0.32094372264
100
AcDbArc
50
266.570167392
51
1.719637815
0
ARC
5
49
100
AcDbEntity
8
0
6
ByLayer
62
256
370
-1
100
AcDbCircle
10
-1.42292325718
20
-27.3662917399
40
27.9287971203
100
AcDbArc
50
92.7645934322
51
101.51877984
0
LINE
5
4A
100
AcDbEntity
8
0
6
ByLayer
62
256
370
-1
100
AcDbLine
10
-11.57
20
0.86
11
-11.47
21
3.05
0
ARC
5
4B
100
AcDbEntity
8
0
6
ByLayer
62
256
370
-1
100
AcDbCircle
10
-11.2492008197
20
0.850368852459
40
0.32094372264
100
AcDbArc
50
178.280362185
51
273.429832608
0
ARC
5
4C
100
AcDbEntity
8
0
6
ByLayer
62
256
370
-1
100
AcDbCircle
10
-12.5770767428
20
-27.3662917399
40
27.9287971203
100
AcDbArc
50
78.48122016
51
87.2354065678
0
ARC
5
4D
100
AcDbEntity
8
0
6
ByLayer
62
256
370
-1
100
AcDbCircle
10
-3.21024793389
20
2.88146694214
40
0.700814271508
100
AcDbArc
50
13.9149766704
51
72.5420838494
0
ARC
5
4E
100
AcDbEntity
8
0
6
ByLayer
62
256
370
-1
100
AcDbCircle
10
-10.7897520661
20
2.88146694217
40
0.700814271487
100
AcDbArc
50
107.457916152
51
166.085023331
0
ARC
5
4F
100
AcDbEntity
8
0
6
ByLayer
62
256
370
-1
100
AcDbCircle
10
-6.23825503359
20
-6.99697986562
40
11.5720784395
100
AcDbArc
50
93.7742876398
51
114.298199296
0
ARC
5
50
100
AcDbEntity
8
0
6
ByLayer
62
256
370
-1
100
AcDbCircle
10
-7.76174496641
20
-6.99697986562
40
11.5720784395
100
AcDbArc
50
65.7018007039
51
86.2257123602
0
CIRCLE
5
51
100
AcDbEntity
8
0
6
ByLayer
62
256
370
-1
100
AcDbCircle
10
-10.99
20
3.25
40
0.065
0
CIRCLE
5
52
100
AcDbEntity
8
0
6
ByLayer
62
256
370
-1
100
AcDbCircle
10
-10.5
20
1.6
40
0.065
0
CIRCLE
5
53
100
AcDbEntity
8
0
6
ByLayer
62
256
370
-1
100
AcDbCircle
10
-3.5
20
1.6
40
0.065
0
CIRCLE
5
54
100
AcDbEntity
8
0
6
ByLayer
62
256
370
-1
100
AcDbCircle
10
-3.01
20
3.25
40
0.065
0
ARC
5
55
100
AcDbEntity
8
0
6
ByLayer
62
256
370
-1
100
AcDbCircle
10
-7.82766666667
20
22.153
40
9.96742299248
100
AcDbArc
50
274.76316432
51
293.896536299
0
ARC
5
56
100
AcDbEntity
8
0
6
ByLayer
62
256
370
-1
100
AcDbCircle
10
-3.2256779661
20
11.0898305085
40
2.03017743156
100
AcDbArc
50
89.8397559184
51
106.138897614
0
ARC
5
57
100
AcDbEntity
8
0
6
ByLayer
62
256
370
-1
100
AcDbCircle
10
-3.77714285714
20
29.6485714286
40
16.5379588109
100
AcDbArc
50
271.930587441
51
275.959785017
0
ARC
5
58
100
AcDbEntity
8
0
6
ByLayer
62
256
370
-1
100
AcDbCircle
10
-2.0873015873
20
13.5605555556
40
0.361587728375
100
AcDbArc
50
274.330223992
51
328.197239397
0
ARC
5
59
100
AcDbEntity
8
0
6
ByLayer
62
256
370
-1
100
AcDbCircle
10
-5.06096452328
20
14.3453991131
40
3.42288352604
100
AcDbArc
50
343.443294004
51
1.918667245
0
ARC
5
5A
100
AcDbEntity
8
0
6
ByLayer
62
256
370
-1
100
AcDbCircle
10
-7.82766666667
20
6.767
40
9.96742299248
100
AcDbArc
50
66.103463701
51
85.23683568
0
ARC
5
5B
100
AcDbEntity
8
0
6
ByLayer
62
256
370
-1
100
AcDbCircle
10
-3.2256779661
20
17.8301694915
40
2.03017743156
100
AcDbArc
50
253.861102386
51
270.160244082
0
ARC
5
5C
100
AcDbEntity
8
0
6
ByLayer
62
256
370
-1
100
AcDbCircle
10
-3.77714285714
20
-0.72857142857
40
16.5379588109
100
AcDbArc
50
84.0402149831
51
88.0694125588
0
ARC
5
5D
100
AcDbEntity
8
0
6
ByLayer
62
256
370
-1
100
AcDbCircle
10
-2.0873015873
20
15.3594444444
40
0.361587728375
100
AcDbArc
50
31.802760603
51
85.669776008
0
ARC
5
5E
100
AcDbEntity
8
0
6
ByLayer
62
256
370
-1
100
AcDbCircle
10
-5.06096452328
20
14.5746008869
40
3.42288352604
100
AcDbArc
50
358.081332755
51
16.556705996
0
ARC
5
5F
100
AcDbEntity
8
0
6
ByLayer
62
256
370
-1
100
AcDbCircle
10
-6.17233333333
20
22.153
40
9.96742299248
100
AcDbArc
50
246.103463701
51
265.23683568
0
ARC
5
60
100
AcDbEntity
8
0
6
ByLayer
62
256
370
-1
100
AcDbCircle
10
-10.7743220339
20
11.0898305085
40
2.03017743156
100
AcDbArc
50
73.861102386
51
90.1602440816
0
ARC
5
61
100
AcDbEntity
8
0
6
ByLayer
62
256
370
-1
100
AcDbCircle
10
-6.17233333333
20
6.767
40
9.96742299248
100
AcDbArc
50
94.76316432
51
113.896536299
0
ARC
5
62
100
AcDbEntity
8
0
6
ByLayer
62
256
370
-1
100
AcDbCircle
10
-10.7743220339
20
17.8301694915
40
2.03017743156
100
AcDbArc
50
269.839755918
51
286.138897614
0
ARC
5
63
100
AcDbEntity
8
0
6
ByLayer
62
256
370
-1
100
AcDbCircle
10
-10.8510869565
20
18.9041304348
40
3.10494430087
100
AcDbArc
50
263.362110685
51
271.311887783
0
ARC
5
64
100
AcDbEntity
8
0
6
ByLayer
62
256
370
-1
100
AcDbCircle
10
-10.8977777778
20
16.4833333333
40
0.733139705077
100
AcDbArc
50
213.376978951
51
244.794254609
0
ARC
5
65
100
AcDbEntity
8
0
6
ByLayer
62
256
370
-1
100
AcDbCircle
10
-33.48
20
6.77
40
23.8612028196
100
AcDbArc
50
22.965271988
51
27.370468312
0
ARC
5
66
100
AcDbEntity
8
0
6
ByLayer
62
256
370
-1
100
AcDbCircle
10
-13.1475471698
20
17.2579245283
40
0.983760087046
100
AcDbArc
50
29.342788339
51
163.337595153
0
ARC
5
67
100
AcDbEntity
8
0
6
ByLayer
62
256
370
-1
100
AcDbCircle
10
83.7164634146
20
-15.0843658537
40
103.104090768
100
AcDbArc
50
161.553341536
51
163.360143033
0
ARC
5
68
100
AcDbEntity
8
0
6
ByLayer
62
256
370
-1
100
AcDbCircle
10
-10.8977777778
20
12.3966666667
40
0.733139705077
100
AcDbArc
50
115.205745391
51
146.623021049
0
ARC
5
69
100
AcDbEntity
8
0
6
ByLayer
62
256
370
-1
100
AcDbCircle
10
-33.48
20
22.11
40
23.8612028196
100
AcDbArc
50
332.629531688
51
337.034728012
0
ARC
5
6A
100
AcDbEntity
8
0
6
ByLayer
62
256
370
-1
100
AcDbCircle
10
-13.1475471698
20
11.6220754717
40
0.983760087046
100
AcDbArc
50
196.662404847
51
330.657211661
0
ARC
5
6B
100
AcDbEntity
8
0
6
ByLayer
62
256
370
-1
100
AcDbCircle
10
83.7164634146
20
43.9643658537
40
103.104090768
100
AcDbArc
50
196.639856967
51
198.446658464
0
ARC
5
6C
100
AcDbEntity
8
0
6
ByLayer
62
256
370
-1
100
AcDbCircle
10
-10.8538636364
20
12.0785227273
40
1.04409326518
100
AcDbArc
50
85.9432621387
51
109.943681482
0
ARC
5
6D
100
AcDbEntity
8
0
6
ByLayer
62
256
370
-1
100
AcDbCircle
10
-13.6954669517
20
31.7076606217
40
0.646657023562
100
AcDbArc
50
160.827505959
51
194.682532087
0
ARC
5
6E
100
AcDbEntity
8
0
6
ByLayer
62
256
370
-1
100
AcDbCircle
10
-13.1614179048
20
31.4436839043
40
1.23998487894
100
AcDbArc
50
139.805238854
51
157.4086555
0
ARC
5
6F
100
AcDbEntity
8
0
6
ByLayer
62
256
370
-1
100
AcDbCircle
10
-11.6939532367
20
30.5304741058
40
2.96082274911
100
AcDbArc
50
107.646168742
51
144.639586653
0
ARC
5
70
100
AcDbEntity
8
0
6
ByLayer
62
256
370
-1
100
AcDbCircle
10
-10.0030784651
20
24.8746586829
40
8.86368217175
100
AcDbArc
50
81.1400030931
51
106.979198283
0
ARC
5
71
100
AcDbEntity
8
0
6
ByLayer
62
256
370
-1
100
AcDbCircle
10
-9.86402241101
20
26.430829512
40
7.30537874359
100
AcDbArc
50
56.779491374
51
80.3377557558
0
ARC
5
72
100
AcDbEntity
8
0
6
ByLayer
62
256
370
-1
100
AcDbCircle
10
-18.4163999898
20
13.3524732415
40
22.9318476311
100
AcDbArc
50
41.187185598
51
56.805715762
0
ARC
5
73
100
AcDbEntity
8
0
6
ByLayer
62
256
370
-1
100
AcDbCircle
10
-2.46965015867
20
27.2160172946
40
1.80277563773
100
AcDbArc
50
350.22172612
51
43.351828474
0
LINE
5
74
100
AcDbEntity
8
0
6
ByLayer
62
256
370
-1
100
AcDbLine
10
-0.693064578789
20
26.9098414017
11
-1.55147296996
21
22.5102919891
0
LINE
5
75
100
AcDbEntity
8
0
6
ByLayer
62
256
370
-1
100
AcDbLine
10
-12.3124251182
20
22.390255065
11
-14.6916811595
21
31.0031082909
0
ARC
5
76
100
AcDbEntity
8
0
6
ByLayer
62
256
370
-1
100
AcDbCircle
10
-14.4116444271
20
30.9848482662
40
0.280631430884
100
AcDbArc
50
131.029533298
51
176.269263194
0
ARC
5
77
100
AcDbEntity
8
0
6
ByLayer
62
256
370
-1
100
AcDbCircle
10
-17.0022573786
20
33.5818991967
40
3.38830709942
100
AcDbArc
50
315.251606214
51
321.611266454
0
ARC
5
78
100
AcDbEntity
8
0
6
ByLayer
62
256
370
-1
100
AcDbCircle
10
-14.4656784868
20
31.5616535369
40
0.145773797371
100
AcDbArc
50
324.875550178
51
352.948037114
0
ARC
5
79
100
AcDbEntity
8
0
6
ByLayer
62
256
370
-1
100
AcDbCircle
10
-18.9292490925
20
27.9106446776
40
0.2092869332
100
AcDbArc
50
130.621959395
51
195.564343976
0
LINE
5
7A
100
AcDbEntity
8
0
6
ByLayer
62
256
370
-1
100
AcDbLine
10
-16.2105821525
20
31.1150514119
11
-19.0655085254
21
28.0694980294
0
ARC
5
7B
100
AcDbEntity
8
0
6
ByLayer
62
256
370
-1
100
AcDbCircle
10
-16.0194048114
20
30.8334431104
40
0.340370403011
100
AcDbArc
50
29.344999901
51
124.171672767
0
ARC
5
7C
100
AcDbEntity
8
0
6
ByLayer
62
256
370
-1
100
AcDbCircle
10
-8.19285714286
20
32.4785714286
40
12.1373306752
100
AcDbArc
50
275.640135167
51
301.229762479
0
ARC
5
7D
100
AcDbEntity
8
0
6
ByLayer
62
256
370
-1
100
AcDbCircle
10
-5.80714285714
20
32.4785714286
40
12.1373306752
100
AcDbArc
50
238.770237521
51
264.359864833
0
ARC
5
7E
100
AcDbEntity
8
0
6
ByLayer
62
256
370
-1
100
AcDbCircle
10
-11.8088961995
20
22.5359061779
40
0.524171363771
100
AcDbArc
50
196.133077005
51
236.2644868
0
LINE
5
7F
100
AcDbEntity
8
0
6
ByLayer
62
256
370
-1
100
AcDbLine
10
-18.2
20
22.2
11
-19.8
21
22.2
0
LINE
5
80
100
AcDbEntity
8
0
6
ByLayer
62
256
370
-1
100
AcDbLine
10
-20
20
22
11
-20
21
21.4
0
LINE
5
81
100
AcDbEntity
8
0
6
ByLayer
62
256
370
-1
100
AcDbLine
10
-19.8
20
21.2
11
-19.3
21
21.2
0
LINE
5
82
100
AcDbEntity
8
0
6
ByLayer
62
256
370
-1
100
AcDbLine
10
-18.7
20
21.2
11
-18.2
21
21.2
0
LINE
5
83
100
AcDbEntity
8
0
6
ByLayer
62
256
370
-1
100
AcDbLine
10
-18
20
21.4
11
-18
21
22
0
LINE
5
84
100
AcDbEntity
8
0
6
ByLayer
62
256
370
-1
100
AcDbLine
10
-19.3
20
21.96
11
-18.7
21
21.96
0
ARC
5
85
100
AcDbEntity
8
0
6
ByLayer
62
256
370
-1
100
AcDbCircle
10
-18.2516666667
20
21.9483333333
40
0.256915463831
100
AcDbArc
50
11.601511532
51
78.398488468
0
ARC
5
86
100
AcDbEntity
8
0
6
ByLayer
62
256
370
-1
100
AcDbCircle
10
-18.2516666667
20
21.4516666667
40
0.256915463831
100
AcDbArc
50
281.601511532
51
348.398488468
0
ARC
5
87
100
AcDbEntity
8
0
6
ByLayer
62
256
370
-1
100
AcDbCircle
10
-19.7483333333
20
21.9483333333
40
0.256915463831
100
AcDbArc
50
101.601511532
51
168.398488468
0
ARC
5
88
100
AcDbEntity
8
0
6
ByLayer
62
256
370
-1
100
AcDbCircle
10
-19.7483333333
20
21.4516666667
40
0.256915463831
100
AcDbArc
50
191.601511532
51
258.398488468
0
LINE
5
89
100
AcDbEntity
8
0
6
ByLayer
62
256
370
-1
100
AcDbLine
10
-19.3
20
21.96
11
-19.3
21
21.69
0
LINE
5
8A
100
AcDbEntity
8
0
6
ByLayer
62
256
370
-1
100
AcDbLine
10
-18.7
20
21.69
11
-18.7
21
21.96
0
LINE
5
8B
100
AcDbEntity
8
0
6
ByLayer
62
256
370
-1
100
AcDbLine
10
-18.7
20
21.69
11
-19.3
21
21.69
0
LINE
5
8C
100
AcDbEntity
8
0
6
ByLayer
62
256
370
-1
100
AcDbLine
10
-19.3
20
21.46
11
-18.7
21
21.46
0
LINE
5
8D
100
AcDbEntity
8
0
6
ByLayer
62
256
370
-1
100
AcDbLine
10
-19.3
20
21.46
11
-19.3
21
21.2
0
LINE
5
8E
100
AcDbEntity
8
0
6
ByLayer
62
256
370
-1
100
AcDbLine
10
-18.7
20
21.2
11
-18.7
21
21.46
0
LINE
5
8F
100
AcDbEntity
8
0
6
ByLayer
62
256
370
-1
100
AcDbLine
10
-18.2
20
21
11
-19.8
21
21
0
LINE
5
90
100
AcDbEntity
8
0
6
ByLayer
62
256
370
-1
100
AcDbLine
10
-20
20
20.8
11
-20
21
20.2
0
LINE
5
91
100
AcDbEntity
8
0
6
ByLayer
62
256
370
-1
100
AcDbLine
10
-19.8
20
20
11
-19.3
21
20
0
LINE
5
92
100
AcDbEntity
8
0
6
ByLayer
62
256
370
-1
100
AcDbLine
10
-18.7
20
20
11
-18.2
21
20
0
LINE
5
93
100
AcDbEntity
8
0
6
ByLayer
62
256
370
-1
100
AcDbLine
10
-18
20
20.2
11
-18
21
20.8
0
LINE
5
94
100
AcDbEntity
8
0
6
ByLayer
62
256
370
-1
100
AcDbLine
10
-19.3
20
20.76
11
-18.7
21
20.76
0
ARC
5
95
100
AcDbEntity
8
0
6
ByLayer
62
256
370
-1
100
AcDbCircle
10
-18.2516666667
20
20.7483333333
40
0.256915463831
100
AcDbArc
50
11.601511532
51
78.398488468
0
ARC
5
96
100
AcDbEntity
8
0
6
ByLayer
62
256
370
-1
100
AcDbCircle
10
-18.2516666667
20
20.2516666667
40
0.256915463831
100
AcDbArc
50
281.601511532
51
348.398488468
0
ARC
5
97
100
AcDbEntity
8
0
6
ByLayer
62
256
370
-1
100
AcDbCircle
10
-19.7483333333
20
20.7483333333
40
0.256915463831
100
AcDbArc
50
101.601511532
51
168.398488468
0
ARC
5
98
100
AcDbEntity
8
0
6
ByLayer
62
256
370
-1
100
AcDbCircle
10
-19.7483333333
20
20.2516666667
40
0.256915463831
100
AcDbArc
50
191.601511532
51
258.398488468
0
LINE
5
99
100
AcDbEntity
8
0
6
ByLayer
62
256
370
-1
100
AcDbLine
10
-19.3
20
20.76
11
-19.3
21
20.49
0
LINE
5
9A
100
AcDbEntity
8
0
6
ByLayer
62
256
370
-1
100
AcDbLine
10
-18.7
20
20.49
11
-18.7
21
20.76
0
LINE
5
9B
100
AcDbEntity
8
0
6
ByLayer
62
256
370
-1
100
AcDbLine
10
-18.7
20
20.49
11
-19.3
21
20.49
0
LINE
5
9C
100
AcDbEntity
8
0
6
ByLayer
62
256
370
-1
100
AcDbLine
10
-19.3
20
20.26
11
-18.7
21
20.26
0
LINE
5
9D
100
AcDbEntity
8
0
6
ByLayer
62
256
370
-1
100
AcDbLine
10
-19.3
20
20.26
11
-19.3
21
20
0
LINE
5
9E
100
AcDbEntity
8
0
6
ByLayer
62
256
370
-1
100
AcDbLine
10
-18.7
20
20
11
-18.7
21
20.26
0
LINE
5
9F
100
AcDbEntity
8
0
6
ByLayer
62
256
370
-1
100
AcDbLine
10
-18.2
20
19.8
11
-19.8
21
19.8
0
LINE
5
A0
100
AcDbEntity
8
0
6
ByLayer
62
256
370
-1
100
AcDbLine
10
-20
20
19.6
11
-20
21
19
0
LINE
5
A1
100
AcDbEntity
8
0
6
ByLayer
62
256
370
-1
100
AcDbLine
10
-19.8
20
18.8
11
-19.3
21
18.8
0
LINE
5
A2
100
AcDbEntity
8
0
6
ByLayer
62
256
370
-1
100
AcDbLine
10
-18.7
20
18.8
11
-18.2
21
18.8
0
LINE
5
A3
100
AcDbEntity
8
0
6
ByLayer
62
256
370
-1
100
AcDbLine
10
-18
20
19
11
-18
21
19.6
0
LINE
5
A4
100
AcDbEntity
8
0
6
ByLayer
62
256
370
-1
100
AcDbLine
10
-19.3
20
19.56
11
-18.7
21
19.56
0
ARC
5
A5
100
AcDbEntity
8
0
6
ByLayer
62
256
370
-1
100
AcDbCircle
10
-18.2516666667
20
19.5483333333
40
0.256915463831
100
AcDbArc
50
11.601511532
51
78.398488468
0
ARC
5
A6
100
AcDbEntity
8
0
6
ByLayer
62
256
370
-1
100
AcDbCircle
10
-18.2516666667
20
19.0516666667
40
0.256915463831
100
AcDbArc
50
281.601511532
51
348.398488468
0
ARC
5
A7
100
AcDbEntity
8
0
6
ByLayer
62
256
370
-1
100
AcDbCircle
10
-19.7483333333
20
19.5483333333
40
0.256915463831
100
AcDbArc
50
101.601511532
51
168.398488468
0
ARC
5
A8
100
AcDbEntity
8
0
6
ByLayer
62
256
370
-1
100
AcDbCircle
10
-19.7483333333
20
19.0516666667
40
0.256915463831
100
AcDbArc
50
191.601511532
51
258.398488468
0
LINE
5
A9
100
AcDbEntity
8
0
6
ByLayer
62
256
370
-1
100
AcDbLine
10
-19.3
20
19.56
11
-19.3
21
19.29
0
LINE
5
AA
100
AcDbEntity
8
0
6
ByLayer
62
256
370
-1
100
AcDbLine
10
-18.7
20
19.29
11
-18.7
21
19.56
0
LINE
5
AB
100
AcDbEntity
8
0
6
ByLayer
62
256
370
-1
100
AcDbLine
10
-18.7
20
19.29
11
-19.3
21
19.29
0
LINE
5
AC
100
AcDbEntity
8
0
6
ByLayer
62
256
370
-1
100
AcDbLine
10
-19.3
20
19.06
11
-18.7
21
19.06
0
LINE
5
AD
100
AcDbEntity
8
0
6
ByLayer
62
256
370
-1
100
AcDbLine
10
-19.3
20
19.06
11
-19.3
21
18.8
0
LINE
5
AE
100
AcDbEntity
8
0
6
ByLayer
62
256
370
-1
100
AcDbLine
10
-18.7
20
18.8
11
-18.7
21
19.06
0
LINE
5
AF
100
AcDbEntity
8
0
6
ByLayer
62
256
370
-1
100
AcDbLine
10
-18.2
20
18.6
11
-19.8
21
18.6
0
LINE
5
B0
100
AcDbEntity
8
0
6
ByLayer
62
256
370
-1
100
AcDbLine
10
-20
20
18.4
11
-20
21
17.8
0
LINE
5
B1
100
AcDbEntity
8
0
6
ByLayer
62
256
370
-1
100
AcDbLine
10
-19.8
20
17.6
11
-19.3
21
17.6
0
LINE
5
B2
100
AcDbEntity
8
0
6
ByLayer
62
256
370
-1
100
AcDbLine
10
-18.7
20
17.6
11
-18.2
21
17.6
0
LINE
5
B3
100
AcDbEntity
8
0
6
ByLayer
62
256
370
-1
100
AcDbLine
10
-18
20
17.8
11
-18
21
18.4
0
LINE
5
B4
100
AcDbEntity
8
0
6
ByLayer
62
256
370
-1
100
AcDbLine
10
-19.3
20
18.36
11
-18.7
21
18.36
0
ARC
5
B5
100
AcDbEntity
8
0
6
ByLayer
62
256
370
-1
100
AcDbCircle
10
-18.2516666667
20
18.3483333333
40
0.256915463831
100
AcDbArc
50
11.601511532
51
78.398488468
0
ARC
5
B6
100
AcDbEntity
8
0
6
ByLayer
62
256
370
-1
100
AcDbCircle
10
-18.2516666667
20
17.8516666667
40
0.256915463831
100
AcDbArc
50
281.601511532
51
348.398488468
0
ARC
5
B7
100
AcDbEntity
8
0
6
ByLayer
62
256
370
-1
100
AcDbCircle
10
-19.7483333333
20
18.3483333333
40
0.256915463831
100
AcDbArc
50
101.601511532
51
168.398488468
0
ARC
5
B8
100
AcDbEntity
8
0
6
ByLayer
62
256
370
-1
100
AcDbCircle
10
-19.7483333333
20
17.8516666667
40
0.256915463831
100
AcDbArc
50
191.601511532
51
258.398488468
0
LINE
5
B9
100
AcDbEntity
8
0
6
ByLayer
62
256
370
-1
100
AcDbLine
10
-19.3
20
18.36
11
-19.3
21
18.09
0
LINE
5
BA
100
AcDbEntity
8
0
6
ByLayer
62
256
370
-1
100
AcDbLine
10
-18.7
20
18.09
11
-18.7
21
18.36
0
LINE
5
BB
100
AcDbEntity
8
0
6
ByLayer
62
256
370
-1
100
AcDbLine
10
-18.7
20
18.09
11
-19.3
21
18.09
0
LINE
5
BC
100
AcDbEntity
8
0
6
ByLayer
62
256
370
-1
100
AcDbLine
10
-19.3
20
17.86
11
-18.7
21
17.86
0
LINE
5
BD
100
AcDbEntity
8
0
6
ByLayer
62
256
370
-1
100
AcDbLine
10
-19.3
20
17.86
11
-19.3
21
17.6
0
LINE
5
BE
100
AcDbEntity
8
0
6
ByLayer
62
256
370
-1
100
AcDbLine
10
-18.7
20
17.6
11
-18.7
21
17.86
0
ARC
5
BF
100
AcDbEntity
8
0
6
ByLayer
62
256
370
-1
100
AcDbCircle
10
-2.13087836541
20
22.6492982083
40
0.595846743093
100
AcDbArc
50
292.797753762
51
346.509042472
0
ARC
5
C0
100
AcDbEntity
8
0
6
ByLayer
62
256
370
-1
100
AcDbCircle
10
-19.7483333333
20
16.7483333333
40
0.256915463831
100
AcDbArc
50
101.601511532
51
168.398488468
0
LINE
5
C1
100
AcDbEntity
8
0
6
ByLayer
62
256
370
-1
100
AcDbLine
10
-20
20
16.8
11
-20
21
16.5
0
ARC
5
C2
100
AcDbEntity
8
0
6
ByLayer
62
256
370
-1
100
AcDbCircle
10
-19.7483333333
20
16.5516666667
40
0.256915463831
100
AcDbArc
50
191.601511532
51
258.398488468
0
ARC
5
C3
100
AcDbEntity
8
0
6
ByLayer
62
256
370
-1
100
AcDbCircle
10
-19.5516666667
20
16.7483333333
40
0.256915463831
100
AcDbArc
50
11.601511532
51
78.398488468
0
LINE
5
C4
100
AcDbEntity
8
0
6
ByLayer
62
256
370
-1
100
AcDbLine
10
-19.3
20
16.8
11
-19.3
21
16.5
0
ARC
5
C5
100
AcDbEntity
8
0
6
ByLayer
62
256
370
-1
100
AcDbCircle
10
-19.5516666667
20
16.5516666667
40
0.256915463831
100
AcDbArc
50
281.601511532
51
348.398488468
0
LINE
5
C6
100
AcDbEntity
8
0
6
ByLayer
62
256
370
-1
100
AcDbLine
10
-19.8
20
17
11
-19.5
21
17
0
LINE
5
C7
100
AcDbEntity
8
0
6
ByLayer
62
256
370
-1
100
AcDbLine
10
-19.5
20
16.3
11
-19.8
21
16.3
0
CIRCLE
5
C8
100
AcDbEntity
8
0
6
ByLayer
62
256
370
-1
100
AcDbCircle
10
-19.65
20
16.65
40
0.065
0
ARC
5
C9
100
AcDbEntity
8
0
6
ByLayer
62
256
370
-1
100
AcDbCircle
10
-19.7483333333
20
15.7483333333
40
0.256915463831
100
AcDbArc
50
101.601511532
51
168.398488468
0
LINE
5
CA
100
AcDbEntity
8
0
6
ByLayer
62
256
370
-1
100
AcDbLine
10
-20
20
15.8
11
-20
21
15.5
0
ARC
5
CB
100
AcDbEntity
8
0
6
ByLayer
62
256
370
-1
100
AcDbCircle
10
-19.7483333333
20
15.5516666667
40
0.256915463831
100
AcDbArc
50
191.601511532
51
258.398488468
0
ARC
5
CC
100
AcDbEntity
8
0
6
ByLayer
62
256
370
-1
100
AcDbCircle
10
-19.5516666667
20
15.7483333333
40
0.256915463831
100
AcDbArc
50
11.601511532
51
78.398488468
0
LINE
5
CD
100
AcDbEntity
8
0
6
ByLayer
62
256
370
-1
100
AcDbLine
10
-19.3
20
15.8
11
-19.3
21
15.5
0
ARC
5
CE
100
AcDbEntity
8
0
6
ByLayer
62
256
370
-1
100
AcDbCircle
10
-19.5516666667
20
15.5516666667
40
0.256915463831
100
AcDbArc
50
281.601511532
51
348.398488468
0
LINE
5
CF
100
AcDbEntity
8
0
6
ByLayer
62
256
370
-1
100
AcDbLine
10
-19.8
20
16
11
-19.5
21
16
0
LINE
5
D0
100
AcDbEntity
8
0
6
ByLayer
62
256
370
-1
100
AcDbLine
10
-19.5
20
15.3
11
-19.8
21
15.3
0
CIRCLE
5
D1
100
AcDbEntity
8
0
6
ByLayer
62
256
370
-1
100
AcDbCircle
10
-19.65
20
15.65
40
0.065
0
ARC
5
D2
100
AcDbEntity
8
0
6
ByLayer
62
256
370
-1
100
AcDbCircle
10
-19.7483333333
20
14.7483333333
40
0.256915463831
100
AcDbArc
50
101.601511532
51
168.398488468
0
LINE
5
D3
100
AcDbEntity
8
0
6
ByLayer
62
256
370
-1
100
AcDbLine
10
-20
20
14.8
11
-20
21
14.5
0
ARC
5
D4
100
AcDbEntity
8
0
6
ByLayer
62
256
370
-1
100
AcDbCircle
10
-19.7483333333
20
14.5516666667
40
0.256915463831
100
AcDbArc
50
191.601511532
51
258.398488468
0
ARC
5
D5
100
AcDbEntity
8
0
6
ByLayer
62
256
370
-1
100
AcDbCircle
10
-19.5516666667
20
14.7483333333
40
0.256915463831
100
AcDbArc
50
11.601511532
51
78.398488468
0
LINE
5
D6
100
AcDbEntity
8
0
6
ByLayer
62
256
370
-1
100
AcDbLine
10
-19.3
20
14.8
11
-19.3
21
14.5
0
ARC
5
D7
100
AcDbEntity
8
0
6
ByLayer
62
256
370
-1
100
AcDbCircle
10
-19.5516666667
20
14.5516666667
40
0.256915463831
100
AcDbArc
50
281.601511532
51
348.398488468
0
LINE
5
D8
100
AcDbEntity
8
0
6
ByLayer
62
256
370
-1
100
AcDbLine
10
-19.8
20
15
11
-19.5
21
15
0
LINE
5
D9
100
AcDbEntity
8
0
6
ByLayer
62
256
370
-1
100
AcDbLine
10
-19.5
20
14.3
11
-19.8
21
14.3
0
CIRCLE
5
DA
100
AcDbEntity
8
0
6
ByLayer
62
256
370
-1
100
AcDbCircle
10
-19.65
20
14.65
40
0.065
0
ARC
5
DB
100
AcDbEntity
8
0
6
ByLayer
62
256
370
-1
100
AcDbCircle
10
-19.7483333333
20
13.7483333333
40
0.256915463831
100
AcDbArc
50
101.601511532
51
168.398488468
0
LINE
5
DC
100
AcDbEntity
8
0
6
ByLayer
62
256
370
-1
100
AcDbLine
10
-20
20
13.8
11
-20
21
13.5
0
ARC
5
DD
100
AcDbEntity
8
0
6
ByLayer
62
256
370
-1
100
AcDbCircle
10
-19.7483333333
20
13.5516666667
40
0.256915463831
100
AcDbArc
50
191.601511532
51
258.398488468
0
ARC
5
DE
100
AcDbEntity
8
0
6
ByLayer
62
256
370
-1
100
AcDbCircle
10
-19.5516666667
20
13.7483333333
40
0.256915463831
100
AcDbArc
50
11.601511532
51
78.398488468
0
LINE
5
DF
100
AcDbEntity
8
0
6
ByLayer
62
256
370
-1
100
AcDbLine
10
-19.3
20
13.8
11
-19.3
21
13.5
0
ARC
5
E0
100
AcDbEntity
8
0
6
ByLayer
62
256
370
-1
100
AcDbCircle
10
-19.5516666667
20
13.5516666667
40
0.256915463831
100
AcDbArc
50
281.601511532
51
348.398488468
0
LINE
5
E1
100
AcDbEntity
8
0
6
ByLayer
62
256
370
-1
100
AcDbLine
10
-19.8
20
14
11
-19.5
21
14
0
LINE
5
E2
100
AcDbEntity
8
0
6
ByLayer
62
256
370
-1
100
AcDbLine
10
-19.5
20
13.3
11
-19.8
21
13.3
0
CIRCLE
5
E3
100
AcDbEntity
8
0
6
ByLayer
62
256
370
-1
100
AcDbCircle
10
-19.65
20
13.65
40
0.065
0
ARC
5
E4
100
AcDbEntity
8
0
6
ByLayer
62
256
370
-1
100
AcDbCircle
10
-19.7483333333
20
12.7483333333
40
0.256915463831
100
AcDbArc
50
101.601511532
51
168.398488468
0
LINE
5
E5
100
AcDbEntity
8
0
6
ByLayer
62
256
370
-1
100
AcDbLine
10
-20
20
12.8
11
-20
21
12.5
0
ARC
5
E6
100
AcDbEntity
8
0
6
ByLayer
62
256
370
-1
100
AcDbCircle
10
-19.7483333333
20
12.5516666667
40
0.256915463831
100
AcDbArc
50
191.601511532
51
258.398488468
0
ARC
5
E7
100
AcDbEntity
8
0
6
ByLayer
62
256
370
-1
100
AcDbCircle
10
-19.5516666667
20
12.7483333333
40
0.256915463831
100
AcDbArc
50
11.601511532
51
78.398488468
0
LINE
5
E8
100
AcDbEntity
8
0
6
ByLayer
62
256
370
-1
100
AcDbLine
10
-19.3
20
12.8
11
-19.3
21
12.5
0
ARC
5
E9
100
AcDbEntity
8
0
6
ByLayer
62
256
370
-1
100
AcDbCircle
10
-19.5516666667
20
12.5516666667
40
0.256915463831
100
AcDbArc
50
281.601511532
51
348.398488468
0
LINE
5
EA
100
AcDbEntity
8
0
6
ByLayer
62
256
370
-1
100
AcDbLine
10
-19.8
20
13
11
-19.5
21
13
0
LINE
5
EB
100
AcDbEntity
8
0
6
ByLayer
62
256
370
-1
100
AcDbLine
10
-19.5
20
12.3
11
-19.8
21
12.3
0
CIRCLE
5
EC
100
AcDbEntity
8
0
6
ByLayer
62
256
370
-1
100
AcDbCircle
10
-19.65
20
12.65
40
0.065
0
ARC
5
ED
100
AcDbEntity
8
0
6
ByLayer
62
256
370
-1
100
AcDbCircle
10
-19.7483333333
20
11.7483333333
40
0.256915463831
100
AcDbArc
50
101.601511532
51
168.398488468
0
LINE
5
EE
100
AcDbEntity
8
0
6
ByLayer
62
256
370
-1
100
AcDbLine
10
-20
20
11.8
11
-20
21
11.5
0
ARC
5
EF
100
AcDbEntity
8
0
6
ByLayer
62
256
370
-1
100
AcDbCircle
10
-19.7483333333
20
11.5516666667
40
0.256915463831
100
AcDbArc
50
191.601511532
51
258.398488468
0
ARC
5
F0
100
AcDbEntity
8
0
6
ByLayer
62
256
370
-1
100
AcDbCircle
10
-19.5516666667
20
11.7483333333
40
0.256915463831
100
AcDbArc
50
11.601511532
51
78.398488468
0
LINE
5
F1
100
AcDbEntity
8
0
6
ByLayer
62
256
370
-1
100
AcDbLine
10
-19.3
20
11.8
11
-19.3
21
11.5
0
ARC
5
F2
100
AcDbEntity
8
0
6
ByLayer
62
256
370
-1
100
AcDbCircle
10
-19.5516666667
20
11.5516666667
40
0.256915463831
100
AcDbArc
50
281.601511532
51
348.398488468
0
LINE
5
F3
100
AcDbEntity
8
0
6
ByLayer
62
256
370
-1
100
AcDbLine
10
-19.8
20
12
11
-19.5
21
12
0
LINE
5
F4
100
AcDbEntity
8
0
6
ByLayer
62
256
370
-1
100
AcDbLine
10
-19.5
20
11.3
11
-19.8
21
11.3
0
CIRCLE
5
F5
100
AcDbEntity
8
0
6
ByLayer
62
256
370
-1
100
AcDbCircle
10
-19.65
20
11.65
40
0.065
0
ARC
5
F6
100
AcDbEntity
8
0
6
ByLayer
62
256
370
-1
100
AcDbCircle
10
-19.7483333333
20
10.7483333333
40
0.256915463831
100
AcDbArc
50
101.601511532
51
168.398488468
0
LINE
5
F7
100
AcDbEntity
8
0
6
ByLayer
62
256
370
-1
100
AcDbLine
10
-20
20
10.8
11
-20
21
10.5
0
ARC
5
F8
100
AcDbEntity
8
0
6
ByLayer
62
256
370
-1
100
AcDbCircle
10
-19.7483333333
20
10.5516666667
40
0.256915463831
100
AcDbArc
50
191.601511532
51
258.398488468
0
ARC
5
F9
100
AcDbEntity
8
0
6
ByLayer
62
256
370
-1
100
AcDbCircle
10
-19.5516666667
20
10.7483333333
40
0.256915463831
100
AcDbArc
50
11.601511532
51
78.398488468
0
LINE
5
FA
100
AcDbEntity
8
0
6
ByLayer
62
256
370
-1
100
AcDbLine
10
-19.3
20
10.8
11
-19.3
21
10.5
0
ARC
5
FB
100
AcDbEntity
8
0
6
ByLayer
62
256
370
-1
100
AcDbCircle
10
-19.5516666667
20
10.5516666667
40
0.256915463831
100
AcDbArc
50
281.601511532
51
348.398488468
0
LINE
5
FC
100
AcDbEntity
8
0
6
ByLayer
62
256
370
-1
100
AcDbLine
10
-19.8
20
11
11
-19.5
21
11
0
LINE
5
FD
100
AcDbEntity
8
0
6
ByLayer
62
256
370
-1
100
AcDbLine
10
-19.5
20
10.3
11
-19.8
21
10.3
0
CIRCLE
5
FE
100
AcDbEntity
8
0
6
ByLayer
62
256
370
-1
100
AcDbCircle
10
-19.65
20
10.65
40
0.065
0
ARC
5
FF
100
AcDbEntity
8
0
6
ByLayer
62
256
370
-1
100
AcDbCircle
10
-19.7483333333
20
9.7483333333
40
0.256915463831
100
AcDbArc
50
101.601511532
51
168.398488468
0
LINE
5
100
100
AcDbEntity
8
0
6
ByLayer
62
256
370
-1
100
AcDbLine
10
-20
20
9.8
11
-20
21
9.5
0
ARC
5
101
100
AcDbEntity
8
0
6
ByLayer
62
256
370
-1
100
AcDbCircle
10
-19.7483333333
20
9.5516666667
40
0.256915463831
100
AcDbArc
50
191.601511532
51
258.398488468
0
ARC
5
102
100
AcDbEntity
8
0
6
ByLayer
62
256
370
-1
100
AcDbCircle
10
-19.5516666667
20
9.7483333333
40
0.256915463831
100
AcDbArc
50
11.601511532
51
78.398488468
0
LINE
5
103
100
AcDbEntity
8
0
6
ByLayer
62
256
370
-1
100
AcDbLine
10
-19.3
20
9.8
11
-19.3
21
9.5
0
ARC
5
104
100
AcDbEntity
8
0
6
ByLayer
62
256
370
-1
100
AcDbCircle
10
-19.5516666667
20
9.5516666667
40
0.256915463831
100
AcDbArc
50
281.601511532
51
348.398488468
0
LINE
5
105
100
AcDbEntity
8
0
6
ByLayer
62
256
370
-1
100
AcDbLine
10
-19.8
20
9.99999999997
11
-19.5
21
9.99999999997
0
LINE
5
106
100
AcDbEntity
8
0
6
ByLayer
62
256
370
-1
100
AcDbLine
10
-19.5
20
9.30000000003
11
-19.8
21
9.30000000003
0
CIRCLE
5
107
100
AcDbEntity
8
0
6
ByLayer
62
256
370
-1
100
AcDbCircle
10
-19.65
20
9.65
40
0.065
0
ARC
5
108
100
AcDbEntity
8
0
6
ByLayer
62
256
370
-1
100
AcDbCircle
10
-19.7483333333
20
8.7483333333
40
0.256915463831
100
AcDbArc
50
101.601511532
51
168.398488468
0
LINE
5
109
100
AcDbEntity
8
0
6
ByLayer
62
256
370
-1
100
AcDbLine
10
-20
20
8.8
11
-20
21
8.5
0
ARC
5
10A
100
AcDbEntity
8
0
6
ByLayer
62
256
370
-1
100
AcDbCircle
10
-19.7483333333
20
8.5516666667
40
0.256915463831
100
AcDbArc
50
191.601511532
51
258.398488468
0
ARC
5
10B
100
AcDbEntity
8
0
6
ByLayer
62
256
370
-1
100
AcDbCircle
10
-19.5516666667
20
8.7483333333
40
0.256915463831
100
AcDbArc
50
11.601511532
51
78.398488468
0
LINE
5
10C
100
AcDbEntity
8
0
6
ByLayer
62
256
370
-1
100
AcDbLine
10
-19.3
20
8.8
11
-19.3
21
8.5
0
ARC
5
10D
100
AcDbEntity
8
0
6
ByLayer
62
256
370
-1
100
AcDbCircle
10
-19.5516666667
20
8.5516666667
40
0.256915463831
100
AcDbArc
50
281.601511532
51
348.398488468
0
LINE
5
10E
100
AcDbEntity
8
0
6
ByLayer
62
256
370
-1
100
AcDbLine
10
-19.8
20
8.99999999997
11
-19.5
21
8.99999999997
0
LINE
5
10F
100
AcDbEntity
8
0
6
ByLayer
62
256
370
-1
100
AcDbLine
10
-19.5
20
8.30000000003
11
-19.8
21
8.30000000003
0
CIRCLE
5
110
100
AcDbEntity
8
0
6
ByLayer
62
256
370
-1
100
AcDbCircle
10
-19.65
20
8.65
40
0.065
0
ARC
5
111
100
AcDbEntity
8
0
6
ByLayer
62
256
370
-1
100
AcDbCircle
10
-19.7483333333
20
7.7483333333
40
0.256915463831
100
AcDbArc
50
101.601511532
51
168.398488468
0
LINE
5
112
100
AcDbEntity
8
0
6
ByLayer
62
256
370
-1
100
AcDbLine
10
-20
20
7.8
11
-20
21
7.5
0
ARC
5
113
100
AcDbEntity
8
0
6
ByLayer
62
256
370
-1
100
AcDbCircle
10
-19.7483333333
20
7.5516666667
40
0.256915463831
100
AcDbArc
50
191.601511532
51
258.398488468
0
ARC
5
114
100
AcDbEntity
8
0
6
ByLayer
62
256
370
-1
100
AcDbCircle
10
-19.5516666667
20
7.7483333333
40
0.256915463831
100
AcDbArc
50
11.601511532
51
78.398488468
0
LINE
5
115
100
AcDbEntity
8
0
6
ByLayer
62
256
370
-1
100
AcDbLine
10
-19.3
20
7.8
11
-19.3
21
7.5
0
ARC
5
116
100
AcDbEntity
8
0
6
ByLayer
62
256
370
-1
100
AcDbCircle
10
-19.5516666667
20
7.5516666667
40
0.256915463831
100
AcDbArc
50
281.601511532
51
348.398488468
0
LINE
5
117
100
AcDbEntity
8
0
6
ByLayer
62
256
370
-1
100
AcDbLine
10
-19.8
20
7.99999999997
11
-19.5
21
7.99999999997
0
LINE
5
118
100
AcDbEntity
8
0
6
ByLayer
62
256
370
-1
100
AcDbLine
10
-19.5
20
7.30000000003
11
-19.8
21
7.30000000003
0
CIRCLE
5
119
100
AcDbEntity
8
0
6
ByLayer
62
256
370
-1
100
AcDbCircle
10
-19.65
20
7.65
40
0.065
0
ARC
5
11A
100
AcDbEntity
8
0
6
ByLayer
62
256
370
-1
100
AcDbCircle
10
-18.7483333333
20
16.7483333333
40
0.256915463831
100
AcDbArc
50
101.601511532
51
168.398488468
0
LINE
5
11B
100
AcDbEntity
8
0
6
ByLayer
62
256
370
-1
100
AcDbLine
10
-19
20
16.8
11
-19
21
16.5
0
ARC
5
11C
100
AcDbEntity
8
0
6
ByLayer
62
256
370
-1
100
AcDbCircle
10
-18.7483333333
20
16.5516666667
40
0.256915463831
100
AcDbArc
50
191.601511532
51
258.398488468
0
ARC
5
11D
100
AcDbEntity
8
0
6
ByLayer
62
256
370
-1
100
AcDbCircle
10
-18.5516666667
20
16.7483333333
40
0.256915463831
100
AcDbArc
50
11.601511532
51
78.398488468
0
LINE
5
11E
100
AcDbEntity
8
0
6
ByLayer
62
256
370
-1
100
AcDbLine
10
-18.3
20
16.8
11
-18.3
21
16.5
0
ARC
5
11F
100
AcDbEntity
8
0
6
ByLayer
62
256
370
-1
100
AcDbCircle
10
-18.5516666667
20
16.5516666667
40
0.256915463831
100
AcDbArc
50
281.601511532
51
348.398488468
0
LINE
5
120
100
AcDbEntity
8
0
6
ByLayer
62
256
370
-1
100
AcDbLine
10
-18.8
20
17
11
-18.5000000001
21
17
0
LINE
5
121
100
AcDbEntity
8
0
6
ByLayer
62
256
370
-1
100
AcDbLine
10
-18.5000000001
20
16.3000000001
11
-18.8
21
16.3000000001
0
CIRCLE
5
122
100
AcDbEntity
8
0
6
ByLayer
62
256
370
-1
100
AcDbCircle
10
-18.65
20
16.65
40
0.065
0
ARC
5
123
100
AcDbEntity
8
0
6
ByLayer
62
256
370
-1
100
AcDbCircle
10
-18.7483333333
20
15.7483333333
40
0.256915463831
100
AcDbArc
50
101.601511532
51
168.398488468
0
LINE
5
124
100
AcDbEntity
8
0
6
ByLayer
62
256
370
-1
100
AcDbLine
10
-19
20
15.8
11
-19
21
15.5
0
ARC
5
125
100
AcDbEntity
8
0
6
ByLayer
62
256
370
-1
100
AcDbCircle
10
-18.7483333333
20
15.5516666667
40
0.256915463831
100
AcDbArc
50
191.601511532
51
258.398488468
0
ARC
5
126
100
AcDbEntity
8
0
6
ByLayer
62
256
370
-1
100
AcDbCircle
10
-18.5516666667
20
15.7483333333
40
0.256915463831
100
AcDbArc
50
11.601511532
51
78.398488468
0
LINE
5
127
100
AcDbEntity
8
0
6
ByLayer
62
256
370
-1
100
AcDbLine
10
-18.3
20
15.8
11
-18.3
21
15.5
0
ARC
5
128
100
AcDbEntity
8
0
6
ByLayer
62
256
370
-1
100
AcDbCircle
10
-18.5516666667
20
15.5516666667
40
0.256915463831
100
AcDbArc
50
281.601511532
51
348.398488468
0
LINE
5
129
100
AcDbEntity
8
0
6
ByLayer
62
256
370
-1
100
AcDbLine
10
-18.8
20
16
11
-18.5000000001
21
16
0
LINE
5
12A
100
AcDbEntity
8
0
6
ByLayer
62
256
370
-1
100
AcDbLine
10
-18.5000000001
20
15.3000000001
11
-18.8
21
15.3000000001
0
CIRCLE
5
12B
100
AcDbEntity
8
0
6
ByLayer
62
256
370
-1
100
AcDbCircle
10
-18.65
20
15.65
40
0.065
0
ARC
5
12C
100
AcDbEntity
8
0
6
ByLayer
62
256
370
-1
100
AcDbCircle
10
-18.7483333333
20
14.7483333333
40
0.256915463831
100
AcDbArc
50
101.601511532
51
168.398488468
0
LINE
5
12D
100
AcDbEntity
8
0
6
ByLayer
62
256
370
-1
100
AcDbLine
10
-19
20
14.8
11
-19
21
14.5
0
ARC
5
12E
100
AcDbEntity
8
0
6
ByLayer
62
256
370
-1
100
AcDbCircle
10
-18.7483333333
20
14.5516666667
40
0.256915463831
100
AcDbArc
50
191.601511532
51
258.398488468
0
ARC
5
12F
100
AcDbEntity
8
0
6
ByLayer
62
256
370
-1
100
AcDbCircle
10
-18.5516666667
20
14.7483333333
40
0.256915463831
100
AcDbArc
50
11.601511532
51
78.398488468
0
LINE
5
130
100
AcDbEntity
8
0
6
ByLayer
62
256
370
-1
100
AcDbLine
10
-18.3
20
14.8
11
-18.3
21
14.5
0
ARC
5
131
100
AcDbEntity
8
0
6
ByLayer
62
256
370
-1
100
AcDbCircle
10
-18.5516666667
20
14.5516666667
40
0.256915463831
100
AcDbArc
50
281.601511532
51
348.398488468
0
LINE
5
132
100
AcDbEntity
8
0
6
ByLayer
62
256
370
-1
100
AcDbLine
10
-18.8
20
15
11
-18.5000000001
21
15
0
LINE
5
133
100
AcDbEntity
8
0
6
ByLayer
62
256
370
-1
100
AcDbLine
10
-18.5000000001
20
14.3000000001
11
-18.8
21
14.3000000001
0
CIRCLE
5
134
100
AcDbEntity
8
0
6
ByLayer
62
256
370
-1
100
AcDbCircle
10
-18.65
20
14.65
40
0.065
0
ARC
5
135
100
AcDbEntity
8
0
6
ByLayer
62
256
370
-1
100
AcDbCircle
10
-18.7483333333
20
13.7483333333
40
0.256915463831
100
AcDbArc
50
101.601511532
51
168.398488468
0
LINE
5
136
100
AcDbEntity
8
0
6
ByLayer
62
256
370
-1
100
AcDbLine
10
-19
20
13.8
11
-19
21
13.5
0
ARC
5
137
100
AcDbEntity
8
0
6
ByLayer
62
256
370
-1
100
AcDbCircle
10
-18.7483333333
20
13.5516666667
40
0.256915463831
100
AcDbArc
50
191.601511532
51
258.398488468
0
ARC
5
138
100
AcDbEntity
8
0
6
ByLayer
62
256
370
-1
100
AcDbCircle
10
-18.5516666667
20
13.7483333333
40
0.256915463831
100
AcDbArc
50
11.601511532
51
78.398488468
0
LINE
5
139
100
AcDbEntity
8
0
6
ByLayer
62
256
370
-1
100
AcDbLine
10
-18.3
20
13.8
11
-18.3
21
13.5
0
ARC
5
13A
100
AcDbEntity
8
0
6
ByLayer
62
256
370
-1
100
AcDbCircle
10
-18.5516666667
20
13.5516666667
40
0.256915463831
100
AcDbArc
50
281.601511532
51
348.398488468
0
LINE
5
13B
100
AcDbEntity
8
0
6
ByLayer
62
256
370
-1
100
AcDbLine
10
-18.8
20
14
11
-18.5000000001
21
14
0
LINE
5
13C
100
AcDbEntity
8
0
6
ByLayer
62
256
370
-1
100
AcDbLine
10
-18.5000000001
20
13.3000000001
11
-18.8
21
13.3000000001
0
CIRCLE
5
13D
100
AcDbEntity
8
0
6
ByLayer
62
256
370
-1
100
AcDbCircle
10
-18.65
20
13.65
40
0.065
0
ARC
5
13E
100
AcDbEntity
8
0
6
ByLayer
62
256
370
-1
100
AcDbCircle
10
-18.7483333333
20
12.7483333333
40
0.256915463831
100
AcDbArc
50
101.601511532
51
168.398488468
0
LINE
5
13F
100
AcDbEntity
8
0
6
ByLayer
62
256
370
-1
100
AcDbLine
10
-19
20
12.8
11
-19
21
12.5
0
ARC
5
140
100
AcDbEntity
8
0
6
ByLayer
62
256
370
-1
100
AcDbCircle
10
-18.7483333333
20
12.5516666667
40
0.256915463831
100
AcDbArc
50
191.601511532
51
258.398488468
0
ARC
5
141
100
AcDbEntity
8
0
6
ByLayer
62
256
370
-1
100
AcDbCircle
10
-18.5516666667
20
12.7483333333
40
0.256915463831
100
AcDbArc
50
11.601511532
51
78.398488468
0
LINE
5
142
100
AcDbEntity
8
0
6
ByLayer
62
256
370
-1
100
AcDbLine
10
-18.3
20
12.8
11
-18.3
21
12.5
0
ARC
5
143
100
AcDbEntity
8
0
6
ByLayer
62
256
370
-1
100
AcDbCircle
10
-18.5516666667
20
12.5516666667
40
0.256915463831
100
AcDbArc
50
281.601511532
51
348.398488468
0
LINE
5
144
100
AcDbEntity
8
0
6
ByLayer
62
256
370
-1
100
AcDbLine
10
-18.8
20
13
11
-18.5000000001
21
13
0
LINE
5
145
100
AcDbEntity
8
0
6
ByLayer
62
256
370
-1
100
AcDbLine
10
-18.5000000001
20
12.3000000001
11
-18.8
21
12.3000000001
0
CIRCLE
5
146
100
AcDbEntity
8
0
6
ByLayer
62
256
370
-1
100
AcDbCircle
10
-18.65
20
12.65
40
0.065
0
ARC
5
147
100
AcDbEntity
8
0
6
ByLayer
62
256
370
-1
100
AcDbCircle
10
-18.7483333333
20
11.7483333333
40
0.256915463831
100
AcDbArc
50
101.601511532
51
168.398488468
0
LINE
5
148
100
AcDbEntity
8
0
6
ByLayer
62
256
370
-1
100
AcDbLine
10
-19
20
11.8
11
-19
21
11.5
0
ARC
5
149
100
AcDbEntity
8
0
6
ByLayer
62
256
370
-1
100
AcDbCircle
10
-18.7483333333
20
11.5516666667
40
0.256915463831
100
AcDbArc
50
191.601511532
51
258.398488468
0
ARC
5
14A
100
AcDbEntity
8
0
6
ByLayer
62
256
370
-1
100
AcDbCircle
10
-18.5516666667
20
11.7483333333
40
0.256915463831
100
AcDbArc
50
11.601511532
51
78.398488468
0
LINE
5
14B
100
AcDbEntity
8
0
6
ByLayer
62
256
370
-1
100
AcDbLine
10
-18.3
20
11.8
11
-18.3
21
11.5
0
ARC
5
14C
100
AcDbEntity
8
0
6
ByLayer
62
256
370
-1
100
AcDbCircle
10
-18.5516666667
20
11.5516666667
40
0.256915463831
100
AcDbArc
50
281.601511532
51
348.398488468
0
LINE
5
14D
100
AcDbEntity
8
0
6
ByLayer
62
256
370
-1
100
AcDbLine
10
-18.8
20
12
11
-18.5000000001
21
12
0
LINE
5
14E
100
AcDbEntity
8
0
6
ByLayer
62
256
370
-1
100
AcDbLine
10
-18.5000000001
20
11.3000000001
11
-18.8
21
11.3000000001
0
CIRCLE
5
14F
100
AcDbEntity
8
0
6
ByLayer
62
256
370
-1
100
AcDbCircle
10
-18.65
20
11.65
40
0.065
0
ARC
5
150
100
AcDbEntity
8
0
6
ByLayer
62
256
370
-1
100
AcDbCircle
10
-18.7483333333
20
10.7483333333
40
0.256915463831
100
AcDbArc
50
101.601511532
51
168.398488468
0
LINE
5
151
100
AcDbEntity
8
0
6
ByLayer
62
256
370
-1
100
AcDbLine
10
-19
20
10.8
11
-19
21
10.5
0
ARC
5
152
100
AcDbEntity
8
0
6
ByLayer
62
256
370
-1
100
AcDbCircle
10
-18.7483333333
20
10.5516666667
40
0.256915463831
100
AcDbArc
50
191.601511532
51
258.398488468
0
ARC
5
153
100
AcDbEntity
8
0
6
ByLayer
62
256
370
-1
100
AcDbCircle
10
-18.5516666667
20
10.7483333333
40
0.256915463831
100
AcDbArc
50
11.601511532
51
78.398488468
0
LINE
5
154
100
AcDbEntity
8
0
6
ByLayer
62
256
370
-1
100
AcDbLine
10
-18.3
20
10.8
11
-18.3
21
10.5
0
ARC
5
155
100
AcDbEntity
8
0
6
ByLayer
62
256
370
-1
100
AcDbCircle
10
-18.5516666667
20
10.5516666667
40
0.256915463831
100
AcDbArc
50
281.601511532
51
348.398488468
0
LINE
5
156
100
AcDbEntity
8
0
6
ByLayer
62
256
370
-1
100
AcDbLine
10
-18.8
20
11
11
-18.5000000001
21
11
0
LINE
5
157
100
AcDbEntity
8
0
6
ByLayer
62
256
370
-1
100
AcDbLine
10
-18.5000000001
20
10.3000000001
11
-18.8
21
10.3000000001
0
CIRCLE
5
158
100
AcDbEntity
8
0
6
ByLayer
62
256
370
-1
100
AcDbCircle
10
-18.65
20
10.65
40
0.065
0
ARC
5
159
100
AcDbEntity
8
0
6
ByLayer
62
256
370
-1
100
AcDbCircle
10
-18.7483333333
20
9.74833333333
40
0.256915463831
100
AcDbArc
50
101.601511532
51
168.398488468
0
LINE
5
15A
100
AcDbEntity
8
0
6
ByLayer
62
256
370
-1
100
AcDbLine
10
-19
20
9.80000000003
11
-19
21
9.50000000003
0
ARC
5
15B
100
AcDbEntity
8
0
6
ByLayer
62
256
370
-1
100
AcDbCircle
10
-18.7483333333
20
9.55166666673
40
0.256915463831
100
AcDbArc
50
191.601511532
51
258.398488468
0
ARC
5
15C
100
AcDbEntity
8
0
6
ByLayer
62
256
370
-1
100
AcDbCircle
10
-18.5516666667
20
9.74833333333
40
0.256915463831
100
AcDbArc
50
11.601511532
51
78.398488468
0
LINE
5
15D
100
AcDbEntity
8
0
6
ByLayer
62
256
370
-1
100
AcDbLine
10
-18.3
20
9.80000000003
11
-18.3
21
9.50000000003
0
ARC
5
15E
100
AcDbEntity
8
0
6
ByLayer
62
256
370
-1
100
AcDbCircle
10
-18.5516666667
20
9.55166666673
40
0.256915463831
100
AcDbArc
50
281.601511532
51
348.398488468
0
LINE
5
15F
100
AcDbEntity
8
0
6
ByLayer
62
256
370
-1
100
AcDbLine
10
-18.8
20
10
11
-18.5000000001
21
10
0
LINE
5
160
100
AcDbEntity
8
0
6
ByLayer
62
256
370
-1
100
AcDbLine
10
-18.5000000001
20
9.30000000007
11
-18.8
21
9.30000000007
0
CIRCLE
5
161
100
AcDbEntity
8
0
6
ByLayer
62
256
370
-1
100
AcDbCircle
10
-18.65
20
9.65000000003
40
0.065
0
ARC
5
162
100
AcDbEntity
8
0
6
ByLayer
62
256
370
-1
100
AcDbCircle
10
-18.7483333333
20
8.74833333333
40
0.256915463831
100
AcDbArc
50
101.601511532
51
168.398488468
0
LINE
5
163
100
AcDbEntity
8
0
6
ByLayer
62
256
370
-1
100
AcDbLine
10
-19
20
8.80000000003
11
-19
21
8.50000000003
0
ARC
5
164
100
AcDbEntity
8
0
6
ByLayer
62
256
370
-1
100
AcDbCircle
10
-18.7483333333
20
8.55166666673
40
0.256915463831
100
AcDbArc
50
191.601511532
51
258.398488468
0
ARC
5
165
100
AcDbEntity
8
0
6
ByLayer
62
256
370
-1
100
AcDbCircle
10
-18.5516666667
20
8.74833333333
40
0.256915463831
100
AcDbArc
50
11.601511532
51
78.398488468
0
LINE
5
166
100
AcDbEntity
8
0
6
ByLayer
62
256
370
-1
100
AcDbLine
10
-18.3
20
8.80000000003
11
-18.3
21
8.50000000003
0
ARC
5
167
100
AcDbEntity
8
0
6
ByLayer
62
256
370
-1
100
AcDbCircle
10
-18.5516666667
20
8.55166666673
40
0.256915463831
100
AcDbArc
50
281.601511532
51
348.398488468
0
LINE
5
168
100
AcDbEntity
8
0
6
ByLayer
62
256
370
-1
100
AcDbLine
10
-18.8
20
9
11
-18.5000000001
21
9
0
LINE
5
169
100
AcDbEntity
8
0
6
ByLayer
62
256
370
-1
100
AcDbLine
10
-18.5000000001
20
8.30000000007
11
-18.8
21
8.30000000007
0
CIRCLE
5
16A
100
AcDbEntity
8
0
6
ByLayer
62
256
370
-1
100
AcDbCircle
10
-18.65
20
8.65000000003
40
0.065
0
ARC
5
16B
100
AcDbEntity
8
0
6
ByLayer
62
256
370
-1
100
AcDbCircle
10
-18.7483333333
20
7.74833333333
40
0.256915463831
100
AcDbArc
50
101.601511532
51
168.398488468
0
LINE
5
16C
100
AcDbEntity
8
0
6
ByLayer
62
256
370
-1
100
AcDbLine
10
-19
20
7.80000000003
11
-19
21
7.50000000003
0
ARC
5
16D
100
AcDbEntity
8
0
6
ByLayer
62
256
370
-1
100
AcDbCircle
10
-18.7483333333
20
7.55166666673
40
0.256915463831
100
AcDbArc
50
191.601511532
51
258.398488468
0
ARC
5
16E
100
AcDbEntity
8
0
6
ByLayer
62
256
370
-1
100
AcDbCircle
10
-18.5516666667
20
7.74833333333
40
0.256915463831
100
AcDbArc
50
11.601511532
51
78.398488468
0
LINE
5
16F
100
AcDbEntity
8
0
6
ByLayer
62
256
370
-1
100
AcDbLine
10
-18.3
20
7.80000000003
11
-18.3
21
7.50000000003
0
ARC
5
170
100
AcDbEntity
8
0
6
ByLayer
62
256
370
-1
100
AcDbCircle
10
-18.5516666667
20
7.55166666673
40
0.256915463831
100
AcDbArc
50
281.601511532
51
348.398488468
0
LINE
5
171
100
AcDbEntity
8
0
6
ByLayer
62
256
370
-1
100
AcDbLine
10
-18.8
20
8
11
-18.5000000001
21
8
0
LINE
5
172
100
AcDbEntity
8
0
6
ByLayer
62
256
370
-1
100
AcDbLine
10
-18.5000000001
20
7.30000000007
11
-18.8
21
7.30000000007
0
CIRCLE
5
173
100
AcDbEntity
8
0
6
ByLayer
62
256
370
-1
100
AcDbCircle
10
-18.65
20
7.65000000003
40
0.065
0
LINE
5
174
100
AcDbEntity
8
0
6
ByLayer
62
256
370
-1
100
AcDbLine
10
-18.2
20
23.4
11
-19.8
21
23.4
0
LINE
5
175
100
AcDbEntity
8
0
6
ByLayer
62
256
370
-1
100
AcDbLine
10
-20
20
23.2
11
-20
21
22.6
0
LINE
5
176
100
AcDbEntity
8
0
6
ByLayer
62
256
370
-1
100
AcDbLine
10
-19.8
20
22.4
11
-19.3
21
22.4
0
LINE
5
177
100
AcDbEntity
8
0
6
ByLayer
62
256
370
-1
100
AcDbLine
10
-18.7
20
22.4
11
-18.2
21
22.4
0
LINE
5
178
100
AcDbEntity
8
0
6
ByLayer
62
256
370
-1
100
AcDbLine
10
-18
20
22.6
11
-18
21
23.2
0
LINE
5
179
100
AcDbEntity
8
0
6
ByLayer
62
256
370
-1
100
AcDbLine
10
-19.3
20
23.16
11
-18.7
21
23.16
0
ARC
5
17A
100
AcDbEntity
8
0
6
ByLayer
62
256
370
-1
100
AcDbCircle
10
-18.2516666667
20
23.1483333333
40
0.256915463831
100
AcDbArc
50
11.601511532
51
78.398488468
0
ARC
5
17B
100
AcDbEntity
8
0
6
ByLayer
62
256
370
-1
100
AcDbCircle
10
-18.2516666667
20
22.6516666667
40
0.256915463831
100
AcDbArc
50
281.601511532
51
348.398488468
0
ARC
5
17C
100
AcDbEntity
8
0
6
ByLayer
62
256
370
-1
100
AcDbCircle
10
-19.7483333333
20
23.1483333333
40
0.256915463831
100
AcDbArc
50
101.601511532
51
168.398488468
0
ARC
5
17D
100
AcDbEntity
8
0
6
ByLayer
62
256
370
-1
100
AcDbCircle
10
-19.7483333333
20
22.6516666667
40
0.256915463831
100
AcDbArc
50
191.601511532
51
258.398488468
0
LINE
5
17E
100
AcDbEntity
8
0
6
ByLayer
62
256
370
-1
100
AcDbLine
10
-19.3
20
23.16
11
-19.3
21
22.89
0
LINE
5
17F
100
AcDbEntity
8
0
6
ByLayer
62
256
370
-1
100
AcDbLine
10
-18.7
20
22.89
11
-18.7
21
23.16
0
LINE
5
180
100
AcDbEntity
8
0
6
ByLayer
62
256
370
-1
100
AcDbLine
10
-18.7
20
22.89
11
-19.3
21
22.89
0
LINE
5
181
100
AcDbEntity
8
0
6
ByLayer
62
256
370
-1
100
AcDbLine
10
-19.3
20
22.66
11
-18.7
21
22.66
0
LINE
5
182
100
AcDbEntity
8
0
6
ByLayer
62
256
370
-1
100
AcDbLine
10
-19.3
20
22.66
11
-19.3
21
22.4
0
LINE
5
183
100
AcDbEntity
8
0
6
ByLayer
62
256
370
-1
100
AcDbLine
10
-18.7
20
22.4
11
-18.7
21
22.66
0
CIRCLE
5
184
100
AcDbEntity
8
0
6
ByLayer
62
256
370
-1
100
AcDbCircle
10
-17.7
20
16.7
40
0.25
0
CIRCLE
5
185
100
AcDbEntity
8
0
6
ByLayer
62
256
370
-1
100
AcDbCircle
10
-17.7
20
16.7
40
0.065
0
CIRCLE
5
186
100
AcDbEntity
8
0
6
ByLayer
62
256
370
-1
100
AcDbCircle
10
-17.7
20
16.1
40
0.25
0
CIRCLE
5
187
100
AcDbEntity
8
0
6
ByLayer
62
256
370
-1
100
AcDbCircle
10
-17.7
20
16.1
40
0.065
0
CIRCLE
5
188
100
AcDbEntity
8
0
6
ByLayer
62
256
370
-1
100
AcDbCircle
10
-17.7
20
15.5
40
0.25
0
CIRCLE
5
189
100
AcDbEntity
8
0
6
ByLayer
62
256
370
-1
100
AcDbCircle
10
-17.7
20
15.5
40
0.065
0
CIRCLE
5
18A
100
AcDbEntity
8
0
6
ByLayer
62
256
370
-1
100
AcDbCircle
10
-17.7
20
14.9
40
0.25
0
CIRCLE
5
18B
100
AcDbEntity
8
0
6
ByLayer
62
256
370
-1
100
AcDbCircle
10
-17.7
20
14.9
40
0.065
0
CIRCLE
5
18C
100
AcDbEntity
8
0
6
ByLayer
62
256
370
-1
100
AcDbCircle
10
-17.7
20
14.3
40
0.25
0
CIRCLE
5
18D
100
AcDbEntity
8
0
6
ByLayer
62
256
370
-1
100
AcDbCircle
10
-17.7
20
14.3
40
0.065
0
CIRCLE
5
18E
100
AcDbEntity
8
0
6
ByLayer
62
256
370
-1
100
AcDbCircle
10
-17.7
20
13.7
40
0.25
0
CIRCLE
5
18F
100
AcDbEntity
8
0
6
ByLayer
62
256
370
-1
100
AcDbCircle
10
-17.7
20
13.7
40
0.065
0
CIRCLE
5
190
100
AcDbEntity
8
0
6
ByLayer
62
256
370
-1
100
AcDbCircle
10
-17.7
20
13.1
40
0.25
0
CIRCLE
5
191
100
AcDbEntity
8
0
6
ByLayer
62
256
370
-1
100
AcDbCircle
10
-17.7
20
13.1
40
0.065
0
CIRCLE
5
192
100
AcDbEntity
8
0
6
ByLayer
62
256
370
-1
100
AcDbCircle
10
-17.7
20
12.5
40
0.25
0
CIRCLE
5
193
100
AcDbEntity
8
0
6
ByLayer
62
256
370
-1
100
AcDbCircle
10
-17.7
20
12.5
40
0.065
0
CIRCLE
5
194
100
AcDbEntity
8
0
6
ByLayer
62
256
370
-1
100
AcDbCircle
10
-17.7
20
11.9
40
0.25
0
CIRCLE
5
195
100
AcDbEntity
8
0
6
ByLayer
62
256
370
-1
100
AcDbCircle
10
-17.7
20
11.9
40
0.065
0
CIRCLE
5
196
100
AcDbEntity
8
0
6
ByLayer
62
256
370
-1
100
AcDbCircle
10
-17.7
20
11.3
40
0.25
0
CIRCLE
5
197
100
AcDbEntity
8
0
6
ByLayer
62
256
370
-1
100
AcDbCircle
10
-17.7
20
11.3
40
0.065
0
CIRCLE
5
198
100
AcDbEntity
8
0
6
ByLayer
62
256
370
-1
100
AcDbCircle
10
-17.7
20
10.7
40
0.25
0
CIRCLE
5
199
100
AcDbEntity
8
0
6
ByLayer
62
256
370
-1
100
AcDbCircle
10
-17.7
20
10.7
40
0.065
0
CIRCLE
5
19A
100
AcDbEntity
8
0
6
ByLayer
62
256
370
-1
100
AcDbCircle
10
-17.7
20
10.1
40
0.25
0
CIRCLE
5
19B
100
AcDbEntity
8
0
6
ByLayer
62
256
370
-1
100
AcDbCircle
10
-17.7
20
10.1
40
0.065
0
CIRCLE
5
19C
100
AcDbEntity
8
0
6
ByLayer
62
256
370
-1
100
AcDbCircle
10
-13.7999989473
20
29.7999979602
40
0.065
0
CIRCLE
5
19D
100
AcDbEntity
8
0
6
ByLayer
62
256
370
-1
100
AcDbCircle
10
-13.2932411146
20
29.6833939338
40
0.065
0
CIRCLE
5
19E
100
AcDbEntity
8
0
6
ByLayer
62
256
370
-1
100
AcDbCircle
10
-13.1857872757
20
29.2584778567
40
0.065
0
CIRCLE
5
19F
100
AcDbEntity
8
0
6
ByLayer
62
256
370
-1
100
AcDbCircle
10
-13.4891044228
20
28.8767728551
40
0.065
0
CIRCLE
5
1A0
100
AcDbEntity
8
0
6
ByLayer
62
256
370
-1
100
AcDbCircle
10
-12.4114089473
20
24.8141779602
40
0.065
0
CIRCLE
5
1A1
100
AcDbEntity
8
0
6
ByLayer
62
256
370
-1
100
AcDbCircle
10
-11.9046511146
20
24.6975739338
40
0.065
0
CIRCLE
5
1A2
100
AcDbEntity
8
0
6
ByLayer
62
256
370
-1
100
AcDbCircle
10
-11.7971972757
20
24.2726578567
40
0.065
0
CIRCLE
5
1A3
100
AcDbEntity
8
0
6
ByLayer
62
256
370
-1
100
AcDbCircle
10
-12.1005144228
20
23.8909528551
40
0.065
0
CIRCLE
5
1A4
100
AcDbEntity
8
0
6
ByLayer
62
256
370
-1
100
AcDbCircle
10
-11.03
20
21.92
40
0.065
0
CIRCLE
5
1A5
100
AcDbEntity
8
0
6
ByLayer
62
256
370
-1
100
AcDbCircle
10
-2.97
20
21.92
40
0.065
0
CIRCLE
5
1A6
100
AcDbEntity
8
0
6
ByLayer
62
256
370
-1
100
AcDbCircle
10
-2.0000411146
20
26.9999939338
40
0.065
0
CIRCLE
5
1A7
100
AcDbEntity
8
0
6
ByLayer
62
256
370
-1
100
AcDbCircle
10
-3.14025094468
20
29.2070960438
40
0.065
0
CIRCLE
5
1A8
100
AcDbEntity
8
0
6
ByLayer
62
256
370
-1
100
AcDbCircle
10
-3.89244902233
20
29.8624570527
40
0.065
0
CIRCLE
5
1A9
100
AcDbEntity
8
0
6
ByLayer
62
256
370
-1
100
AcDbCircle
10
-4.65887721318
20
30.5005697609
40
0.065
0
CIRCLE
5
1AA
100
AcDbEntity
8
0
6
ByLayer
62
256
370
-1
100
AcDbCircle
10
-5.49498938726
20
31.103410065
40
0.065
0
CIRCLE
5
1AB
100
AcDbEntity
8
0
6
ByLayer
62
256
370
-1
100
AcDbCircle
10
-6.19164857265
20
31.6433785636
40
0.065
0
CIRCLE
5
1AC
100
AcDbEntity
8
0
6
ByLayer
62
256
370
-1
100
AcDbCircle
10
-7.06217232603
20
32.1412624806
40
0.065
0
CIRCLE
5
1AD
100
AcDbEntity
8
0
6
ByLayer
62
256
370
-1
100
AcDbCircle
10
-8.01730095606
20
32.4944328362
40
0.065
0
CIRCLE
5
1AE
100
AcDbEntity
8
0
6
ByLayer
62
256
370
-1
100
AcDbCircle
10
-8.93784796238
20
32.6857263519
40
0.065
0
CIRCLE
5
1AF
100
AcDbEntity
8
0
6
ByLayer
62
256
370
-1
100
AcDbCircle
10
-9.86805528943
20
32.7458456392
40
0.065
0
CIRCLE
5
1B0
100
AcDbEntity
8
0
6
ByLayer
62
256
370
-1
100
AcDbCircle
10
-10.9780785374
20
32.6934205593
40
0.065
0
CIRCLE
5
1B1
100
AcDbEntity
8
0
6
ByLayer
62
256
370
-1
100
AcDbCircle
10
-12.0153996145
20
32.6447894694
40
0.065
0
CIRCLE
5
1B2
100
AcDbEntity
8
0
6
ByLayer
62
256
370
-1
100
AcDbCircle
10
-11.53
20
15.31
40
0.065
0
CIRCLE
5
1B3
100
AcDbEntity
8
0
6
ByLayer
62
256
370
-1
100
AcDbCircle
10
-11.86
20
14.47
40
0.065
0
CIRCLE
5
1B4
100
AcDbEntity
8
0
6
ByLayer
62
256
370
-1
100
AcDbCircle
10
-11.53
20
13.61
40
0.065
0
CIRCLE
5
1B5
100
AcDbEntity
8
0
6
ByLayer
62
256
370
-1
100
AcDbCircle
10
-2.47
20
15.31
40
0.065
0
CIRCLE
5
1B6
100
AcDbEntity
8
0
6
ByLayer
62
256
370
-1
100
AcDbCircle
10
-2.2
20
14.47
40
0.065
0
CIRCLE
5
1B7
100
AcDbEntity
8
0
6
ByLayer
62
256
370
-1
100
AcDbCircle
10
-2.47
20
13.61
40
0.065
0
CIRCLE
5
1B8
100
AcDbEntity
8
0
6
ByLayer
62
256
370
-1
100
AcDbCircle
10
-17.7
20
9.5
40
0.25
0
CIRCLE
5
1B9
100
AcDbEntity
8
0
6
ByLayer
62
256
370
-1
100
AcDbCircle
10
-17.7
20
9.5
40
0.065
0
CIRCLE
5
1BA
100
AcDbEntity
8
0
6
ByLayer
62
256
370
-1
100
AcDbCircle
10
-17.7
20
8.9
40
0.25
0
CIRCLE
5
1BB
100
AcDbEntity
8
0
6
ByLayer
62
256
370
-1
100
AcDbCircle
10
-17.7
20
8.9
40
0.065
0
CIRCLE
5
1BC
100
AcDbEntity
8
0
6
ByLayer
62
256
370
-1
100
AcDbCircle
10
-17.7
20
8.3
40
0.25
0
CIRCLE
5
1BD
100
AcDbEntity
8
0
6
ByLayer
62
256
370
-1
100
AcDbCircle
10
-17.7
20
8.3
40
0.065
0
CIRCLE
5
1BE
100
AcDbEntity
8
0
6
ByLayer
62
256
370
-1
100
AcDbCircle
10
-17.7
20
7.7
40
0.25
0
CIRCLE
5
1BF
100
AcDbEntity
8
0
6
ByLayer
62
256
370
-1
100
AcDbCircle
10
-17.7
20
7.7
40
0.065
0
ARC
5
1C0
100
AcDbEntity
8
0
6
ByLayer
62
256
370
-1
100
AcDbCircle
10
-19.7483333333
20
6.7483333333
40
0.256915463831
100
AcDbArc
50
101.601511532
51
168.398488468
0
LINE
5
1C1
100
AcDbEntity
8
0
6
ByLayer
62
256
370
-1
100
AcDbLine
10
-20
20
6.8
11
-20
21
6.5
0
ARC
5
1C2
100
AcDbEntity
8
0
6
ByLayer
62
256
370
-1
100
AcDbCircle
10
-19.7483333333
20
6.5516666667
40
0.256915463831
100
AcDbArc
50
191.601511532
51
258.398488468
0
ARC
5
1C3
100
AcDbEntity
8
0
6
ByLayer
62
256
370
-1
100
AcDbCircle
10
-19.5516666667
20
6.7483333333
40
0.256915463831
100
AcDbArc
50
11.601511532
51
78.398488468
0
LINE
5
1C4
100
AcDbEntity
8
0
6
ByLayer
62
256
370
-1
100
AcDbLine
10
-19.3
20
6.8
11
-19.3
21
6.5
0
ARC
5
1C5
100
AcDbEntity
8
0
6
ByLayer
62
256
370
-1
100
AcDbCircle
10
-19.5516666667
20
6.5516666667
40
0.256915463831
100
AcDbArc
50
281.601511532
51
348.398488468
0
LINE
5
1C6
100
AcDbEntity
8
0
6
ByLayer
62
256
370
-1
100
AcDbLine
10
-19.8
20
6.99999999997
11
-19.5
21
6.99999999997
0
LINE
5
1C7
100
AcDbEntity
8
0
6
ByLayer
62
256
370
-1
100
AcDbLine
10
-19.5
20
6.30000000003
11
-19.8
21
6.30000000003
0
CIRCLE
5
1C8
100
AcDbEntity
8
0
6
ByLayer
62
256
370
-1
100
AcDbCircle
10
-19.65
20
6.65
40
0.065
0
ARC
5
1C9
100
AcDbEntity
8
0
6
ByLayer
62
256
370
-1
100
AcDbCircle
10
-19.7483333333
20
5.7483333333
40
0.256915463831
100
AcDbArc
50
101.601511532
51
168.398488468
0
LINE
5
1CA
100
AcDbEntity
8
0
6
ByLayer
62
256
370
-1
100
AcDbLine
10
-20
20
5.8
11
-20
21
5.5
0
ARC
5
1CB
100
AcDbEntity
8
0
6
ByLayer
62
256
370
-1
100
AcDbCircle
10
-19.7483333333
20
5.5516666667
40
0.256915463831
100
AcDbArc
50
191.601511532
51
258.398488468
0
ARC
5
1CC
100
AcDbEntity
8
0
6
ByLayer
62
256
370
-1
100
AcDbCircle
10
-19.5516666667
20
5.7483333333
40
0.256915463831
100
AcDbArc
50
11.601511532
51
78.398488468
0
LINE
5
1CD
100
AcDbEntity
8
0
6
ByLayer
62
256
370
-1
100
AcDbLine
10
-19.3
20
5.8
11
-19.3
21
5.5
0
ARC
5
1CE
100
AcDbEntity
8
0
6
ByLayer
62
256
370
-1
100
AcDbCircle
10
-19.5516666667
20
5.5516666667
40
0.256915463831
100
AcDbArc
50
281.601511532
51
348.398488468
0
LINE
5
1CF
100
AcDbEntity
8
0
6
ByLayer
62
256
370
-1
100
AcDbLine
10
-19.8
20
5.99999999997
11
-19.5
21
5.99999999997
0
LINE
5
1D0
100
AcDbEntity
8
0
6
ByLayer
62
256
370
-1
100
AcDbLine
10
-19.5
20
5.30000000003
11
-19.8
21
5.30000000003
0
CIRCLE
5
1D1
100
AcDbEntity
8
0
6
ByLayer
62
256
370
-1
100
AcDbCircle
10
-19.65
20
5.65
40
0.065
0
ARC
5
1D2
100
AcDbEntity
8
0
6
ByLayer
62
256
370
-1
100
AcDbCircle
10
-18.7483333333
20
6.74833333333
40
0.256915463831
100
AcDbArc
50
101.601511532
51
168.398488468
0
LINE
5
1D3
100
AcDbEntity
8
0
6
ByLayer
62
256
370
-1
100
AcDbLine
10
-19
20
6.80000000003
11
-19
21
6.50000000003
0
ARC
5
1D4
100
AcDbEntity
8
0
6
ByLayer
62
256
370
-1
100
AcDbCircle
10
-18.7483333333
20
6.55166666673
40
0.256915463831
100
AcDbArc
50
191.601511532
51
258.398488468
0
ARC
5
1D5
100
AcDbEntity
8
0
6
ByLayer
62
256
370
-1
100
AcDbCircle
10
-18.5516666667
20
6.74833333333
40
0.256915463831
100
AcDbArc
50
11.601511532
51
78.398488468
0
LINE
5
1D6
100
AcDbEntity
8
0
6
ByLayer
62
256
370
-1
100
AcDbLine
10
-18.3
20
6.80000000003
11
-18.3
21
6.50000000003
0
ARC
5
1D7
100
AcDbEntity
8
0
6
ByLayer
62
256
370
-1
100
AcDbCircle
10
-18.5516666667
20
6.55166666673
40
0.256915463831
100
AcDbArc
50
281.601511532
51
348.398488468
0
LINE
5
1D8
100
AcDbEntity
8
0
6
ByLayer
62
256
370
-1
100
AcDbLine
10
-18.8
20
7
11
-18.5000000001
21
7
0
LINE
5
1D9
100
AcDbEntity
8
0
6
ByLayer
62
256
370
-1
100
AcDbLine
10
-18.5000000001
20
6.30000000007
11
-18.8
21
6.30000000007
0
CIRCLE
5
1DA
100
AcDbEntity
8
0
6
ByLayer
62
256
370
-1
100
AcDbCircle
10
-18.65
20
6.65000000003
40
0.065
0
ARC
5
1DB
100
AcDbEntity
8
0
6
ByLayer
62
256
370
-1
100
AcDbCircle
10
-18.7483333333
20
5.74833333333
40
0.256915463831
100
AcDbArc
50
101.601511532
51
168.398488468
0
LINE
5
1DC
100
AcDbEntity
8
0
6
ByLayer
62
256
370
-1
100
AcDbLine
10
-19
20
5.80000000003
11
-19
21
5.50000000003
0
ARC
5
1DD
100
AcDbEntity
8
0
6
ByLayer
62
256
370
-1
100
AcDbCircle
10
-18.7483333333
20
5.55166666673
40
0.256915463831
100
AcDbArc
50
191.601511532
51
258.398488468
0
ARC
5
1DE
100
AcDbEntity
8
0
6
ByLayer
62
256
370
-1
100
AcDbCircle
10
-18.5516666667
20
5.74833333333
40
0.256915463831
100
AcDbArc
50
11.601511532
51
78.398488468
0
LINE
5
1DF
100
AcDbEntity
8
0
6
ByLayer
62
256
370
-1
100
AcDbLine
10
-18.3
20
5.80000000003
11
-18.3
21
5.50000000003
0
ARC
5
1E0
100
AcDbEntity
8
0
6
ByLayer
62
256
370
-1
100
AcDbCircle
10
-18.5516666667
20
5.55166666673
40
0.256915463831
100
AcDbArc
50
281.601511532
51
348.398488468
0
LINE
5
1E1
100
AcDbEntity
8
0
6
ByLayer
62
256
370
-1
100
AcDbLine
10
-18.8
20
6
11
-18.5000000001
21
6
0
LINE
5
1E2
100
AcDbEntity
8
0
6
ByLayer
62
256
370
-1
100
AcDbLine
10
-18.5000000001
20
5.30000000007
11
-18.8
21
5.30000000007
0
CIRCLE
5
1E3
100
AcDbEntity
8
0
6
ByLayer
62
256
370
-1
100
AcDbCircle
10
-18.65
20
5.65000000003
40
0.065
0
ARC
5
1E4
100
AcDbEntity
8
0
6
ByLayer
62
256
370
-1
100
AcDbCircle
10
-2.80930703625
20
5.55169509594
40
0.412147562975
100
AcDbArc
50
272.685001149
51
6.73070334268
0
ARC
5
1E5
100
AcDbEntity
8
0
6
ByLayer
62
256
370
-1
100
AcDbCircle
10
-7.10815436295
20
-20.5616107384
40
26.061835155
100
AcDbArc
50
80.4627490316
51
89.7622267855
0
LINE
5
1E6
100
AcDbEntity
8
0
6
ByLayer
62
256
370
-1
100
AcDbLine
10
-2.5
20
6.5
11
-2.4
21
5.6
0
CIRCLE
5
1E7
100
AcDbEntity
8
0
6
ByLayer
62
256
370
-1
100
AcDbCircle
10
-15.45
20
29.15
40
0.065
0
CIRCLE
5
1E8
100
AcDbEntity
8
0
6
ByLayer
62
256
370
-1
100
AcDbCircle
10
-15.3386869717
20
28.7450192477
40
0.065
0
CIRCLE
5
1E9
100
AcDbEntity
8
0
6
ByLayer
62
256
370
-1
100
AcDbCircle
10
-14
20
24.3
40
0.065
0
CIRCLE
5
1EA
100
AcDbEntity
8
0
6
ByLayer
62
256
370
-1
100
AcDbCircle
10
-13.8774809483
20
23.8825507234
40
0.065
0
LINE
5
1EB
100
AcDbEntity
8
0
6
ByLayer
62
256
370
-1
100
AcDbLine
10
-13.1
20
22.4
11
-15.7227091578
21
31.0002474878
0
ARC
5
1EC
100
AcDbEntity
8
0
6
ByLayer
62
256
370
-1
100
AcDbCircle
10
-13.2777777778
20
22.3777777778
40
0.179161283295
100
AcDbArc
50
262.874983651
51
7.125016349
0
CIRCLE
5
1ED
100
AcDbEntity
8
0
6
ByLayer
62
256
370
-1
100
AcDbCircle
10
-18.3
20
27.1
40
0.065
0
CIRCLE
5
1EE
100
AcDbEntity
8
0
6
ByLayer
62
256
370
-1
100
AcDbCircle
10
-17.8797317566
20
26.136945171
40
0.065
0
CIRCLE
5
1EF
100
AcDbEntity
8
0
6
ByLayer
62
256
370
-1
100
AcDbCircle
10
-17.4806659947
20
25.251029533
40
0.065
0
CIRCLE
5
1F0
100
AcDbEntity
8
0
6
ByLayer
62
256
370
-1
100
AcDbCircle
10
-17.0709989921
20
24.3265442995
40
0.065
0
ARC
5
1F1
100
AcDbEntity
8
0
6
ByLayer
62
256
370
-1
100
AcDbCircle
10
-6.17277235372
20
30.2820060409
40
13.0083352673
100
AcDbArc
50
245.970975872
51
266.353979572
0
ARC
5
1F2
100
AcDbEntity
8
0
6
ByLayer
62
256
370
-1
100
AcDbCircle
10
-2.95373230651
20
19.8520952402
40
0.247081620216
100
AcDbArc
50
8.6034219351
51
91.3108795172
0
ARC
5
1F3
100
AcDbEntity
8
0
6
ByLayer
62
256
370
-1
100
AcDbCircle
10
-11.3296870451
20
18.7247014266
40
0.352723776488
100
AcDbArc
50
187.112426349
51
246.602188943
0
ARC
5
1F4
100
AcDbEntity
8
0
6
ByLayer
62
256
370
-1
100
AcDbCircle
10
-7.46376309566
20
29.4118686185
40
12.1207441042
100
AcDbArc
50
272.192782514
51
291.559353565
0
ARC
5
1F5
100
AcDbEntity
8
0
6
ByLayer
62
256
370
-1
100
AcDbCircle
10
-3.13166041578
20
18.4949192424
40
0.376081084728
100
AcDbArc
50
288.904136043
51
351.459541777
0
LINE
5
1F6
100
AcDbEntity
8
0
6
ByLayer
62
256
370
-1
100
AcDbLine
10
-2.70943098496
20
19.8890572659
11
-2.75974960233
21
18.4390682878
0
ARC
5
1F7
100
AcDbEntity
8
0
6
ByLayer
62
256
370
-1
100
AcDbCircle
10
-5.98631855344
20
56.8775716484
40
37.167331697
100
AcDbArc
50
261.83497322
51
268.129524627
0
ARC
5
1F8
100
AcDbEntity
8
0
6
ByLayer
62
256
370
-1
100
AcDbCircle
10
-11.3828153859
20
19.0814621295
40
1.01241761859
100
AcDbArc
50
83.3173032279
51
94.3375517583
0
ARC
5
1F9
100
AcDbEntity
8
0
6
ByLayer
62
256
370
-1
100
AcDbCircle
10
-8.52810129223
20
55.1800549854
40
35.4749004002
100
AcDbArc
50
272.146390832
51
278.440942239
0
ARC
5
1FA
100
AcDbEntity
8
0
6
ByLayer
62
256
370
-1
100
AcDbCircle
10
-3.08987864888
20
18.221310057
40
1.88233087041
100
AcDbArc
50
86.0247441761
51
97.0449927067
0
ARC
5
1FB
100
AcDbEntity
8
0
6
ByLayer
62
256
370
-1
100
AcDbCircle
10
-11.4137621945
20
19.8658014154
40
0.229754180982
100
AcDbArc
50
101.453945432
51
184.161403014
0
LINE
5
1FC
100
AcDbEntity
8
0
6
ByLayer
62
256
370
-1
100
AcDbLine
10
-11.6429106487
20
19.8491289942
11
-11.6796966501
21
18.6810283356
0
CIRCLE
5
1FD
100
AcDbEntity
8
0
6
ByLayer
62
256
370
-1
100
AcDbCircle
10
-2.97866748716
20
19.8408016981
40
0.065
0
CIRCLE
5
1FE
100
AcDbEntity
8
0
6
ByLayer
62
256
370
-1
100
AcDbCircle
10
-11.3722991548
20
19.8407433342
40
0.065
0
CIRCLE
5
1FF
100
AcDbEntity
8
0
6
ByLayer
62
256
370
-3
100
AcDbCircle
10
-11.4596900645
20
18.7109690059
40
0.065
0
CIRCLE
5
200
100
AcDbEntity
8
0
6
ByLayer
62
256
370
-3
100
AcDbCircle
10
-2.98
20
18.44
40
0.065
0
LINE
5
201
100
AcDbEntity
8
0
6
ByLayer
62
256
370
-1
100
AcDbLine
10
2.43
20
0.86
11
2.53
21
3.05
0
ARC
5
202
100
AcDbEntity
8
0
6
ByLayer
62
256
370
-1
100
AcDbCircle
10
2.75079918033
20
0.850368852459
40
0.32094372264
100
AcDbArc
50
178.280362185
51
273.429832608
0
ARC
5
203
100
AcDbEntity
8
0
6
ByLayer
62
256
370
-1
100
AcDbCircle
10
1.42292325718
20
-27.3662917399
40
27.9287971203
100
AcDbArc
50
78.48122016
51
87.2354065678
0
LINE
5
204
100
AcDbEntity
8
0
6
ByLayer
62
256
370
-1
100
AcDbLine
10
11.57
20
0.86
11
11.47
21
3.05
0
ARC
5
205
100
AcDbEntity
8
0
6
ByLayer
62
256
370
-1
100
AcDbCircle
10
11.2492008197
20
0.850368852459
40
0.32094372264
100
AcDbArc
50
266.570167392
51
1.719637815
0
ARC
5
206
100
AcDbEntity
8
0
6
ByLayer
62
256
370
-1
100
AcDbCircle
10
12.5770767428
20
-27.3662917399
40
27.9287971203
100
AcDbArc
50
92.7645934322
51
101.51877984
0
ARC
5
207
100
AcDbEntity
8
0
6
ByLayer
62
256
370
-1
100
AcDbCircle
10
3.21024793389
20
2.88146694214
40
0.700814271508
100
AcDbArc
50
107.457916151
51
166.08502333
0
ARC
5
208
100
AcDbEntity
8
0
6
ByLayer
62
256
370
-1
100
AcDbCircle
10
10.7897520661
20
2.88146694217
40
0.700814271487
100
AcDbArc
50
13.914976669
51
72.542083848
0
ARC
5
209
100
AcDbEntity
8
0
6
ByLayer
62
256
370
-1
100
AcDbCircle
10
6.23825503359
20
-6.99697986562
40
11.5720784395
100
AcDbArc
50
65.701800704
51
86.2257123602
0
ARC
5
20A
100
AcDbEntity
8
0
6
ByLayer
62
256
370
-1
100
AcDbCircle
10
7.76174496641
20
-6.99697986562
40
11.5720784395
100
AcDbArc
50
93.7742876398
51
114.298199296
0
CIRCLE
5
20B
100
AcDbEntity
8
0
6
ByLayer
62
256
370
-1
100
AcDbCircle
10
10.99
20
3.25
40
0.065
0
CIRCLE
5
20C
100
AcDbEntity
8
0
6
ByLayer
62
256
370
-1
100
AcDbCircle
10
10.5
20
1.6
40
0.065
0
CIRCLE
5
20D
100
AcDbEntity
8
0
6
ByLayer
62
256
370
-1
100
AcDbCircle
10
3.5
20
1.6
40
0.065
0
CIRCLE
5
20E
100
AcDbEntity
8
0
6
ByLayer
62
256
370
-1
100
AcDbCircle
10
3.01
20
3.25
40
0.065
0
ARC
5
20F
100
AcDbEntity
8
0
6
ByLayer
62
256
370
-1
100
AcDbCircle
10
7.82766666667
20
22.153
40
9.96742299248
100
AcDbArc
50
246.103463701
51
265.23683568
0
ARC
5
210
100
AcDbEntity
8
0
6
ByLayer
62
256
370
-1
100
AcDbCircle
10
3.2256779661
20
11.0898305085
40
2.03017743156
100
AcDbArc
50
73.861102386
51
90.1602440816
0
ARC
5
211
100
AcDbEntity
8
0
6
ByLayer
62
256
370
-1
100
AcDbCircle
10
3.77714285714
20
29.6485714286
40
16.5379588109
100
AcDbArc
50
264.040214983
51
268.069412559
0
ARC
5
212
100
AcDbEntity
8
0
6
ByLayer
62
256
370
-1
100
AcDbCircle
10
2.0873015873
20
13.5605555556
40
0.361587728375
100
AcDbArc
50
211.802760603
51
265.669776008
0
ARC
5
213
100
AcDbEntity
8
0
6
ByLayer
62
256
370
-1
100
AcDbCircle
10
5.06096452328
20
14.3453991131
40
3.42288352604
100
AcDbArc
50
178.081332755
51
196.556705996
0
ARC
5
214
100
AcDbEntity
8
0
6
ByLayer
62
256
370
-1
100
AcDbCircle
10
7.82766666667
20
6.767
40
9.96742299248
100
AcDbArc
50
94.76316432
51
113.896536299
0
ARC
5
215
100
AcDbEntity
8
0
6
ByLayer
62
256
370
-1
100
AcDbCircle
10
3.2256779661
20
17.8301694915
40
2.03017743156
100
AcDbArc
50
269.839755918
51
286.138897614
0
ARC
5
216
100
AcDbEntity
8
0
6
ByLayer
62
256
370
-1
100
AcDbCircle
10
3.77714285714
20
-0.72857142857
40
16.5379588109
100
AcDbArc
50
91.9305874412
51
95.9597850169
0
ARC
5
217
100
AcDbEntity
8
0
6
ByLayer
62
256
370
-1
100
AcDbCircle
10
2.0873015873
20
15.3594444444
40
0.361587728375
100
AcDbArc
50
94.330223992
51
148.197239397
0
ARC
5
218
100
AcDbEntity
8
0
6
ByLayer
62
256
370
-1
100
AcDbCircle
10
5.06096452328
20
14.5746008869
40
3.42288352604
100
AcDbArc
50
163.443294004
51
181.918667245
0
ARC
5
219
100
AcDbEntity
8
0
6
ByLayer
62
256
370
-1
100
AcDbCircle
10
6.17233333333
20
22.153
40
9.96742299248
100
AcDbArc
50
274.76316432
51
293.896536299
0
ARC
5
21A
100
AcDbEntity
8
0
6
ByLayer
62
256
370
-1
100
AcDbCircle
10
10.7743220339
20
11.0898305085
40
2.03017743156
100
AcDbArc
50
89.8397559184
51
106.138897614
0
ARC
5
21B
100
AcDbEntity
8
0
6
ByLayer
62
256
370
-1
100
AcDbCircle
10
6.17233333333
20
6.767
40
9.96742299248
100
AcDbArc
50
66.103463701
51
85.23683568
0
ARC
5
21C
100
AcDbEntity
8
0
6
ByLayer
62
256
370
-1
100
AcDbCircle
10
10.7743220339
20
17.8301694915
40
2.03017743156
100
AcDbArc
50
253.861102386
51
270.160244082
0
ARC
5
21D
100
AcDbEntity
8
0
6
ByLayer
62
256
370
-1
100
AcDbCircle
10
10.8510869565
20
18.9041304348
40
3.10494430087
100
AcDbArc
50
268.688112217
51
276.637889315
0
ARC
5
21E
100
AcDbEntity
8
0
6
ByLayer
62
256
370
-1
100
AcDbCircle
10
10.8977777778
20
16.4833333333
40
0.733139705077
100
AcDbArc
50
295.205745391
51
326.623021049
0
ARC
5
21F
100
AcDbEntity
8
0
6
ByLayer
62
256
370
-1
100
AcDbCircle
10
33.48
20
6.77
40
23.8612028196
100
AcDbArc
50
152.629531688
51
157.034728012
0
ARC
5
220
100
AcDbEntity
8
0
6
ByLayer
62
256
370
-1
100
AcDbCircle
10
13.1475471698
20
17.2579245283
40
0.983760087046
100
AcDbArc
50
16.662404847
51
150.657211661
0
ARC
5
221
100
AcDbEntity
8
0
6
ByLayer
62
256
370
-1
100
AcDbCircle
10
-83.7164634146
20
-15.0843658537
40
103.104090768
100
AcDbArc
50
16.639856967
51
18.446658464
0
ARC
5
222
100
AcDbEntity
8
0
6
ByLayer
62
256
370
-1
100
AcDbCircle
10
10.8977777778
20
12.3966666667
40
0.733139705077
100
AcDbArc
50
33.376978951
51
64.794254609
0
ARC
5
223
100
AcDbEntity
8
0
6
ByLayer
62
256
370
-1
100
AcDbCircle
10
33.48
20
22.11
40
23.8612028196
100
AcDbArc
50
202.965271988
51
207.370468312
0
ARC
5
224
100
AcDbEntity
8
0
6
ByLayer
62
256
370
-1
100
AcDbCircle
10
13.1475471698
20
11.6220754717
40
0.983760087046
100
AcDbArc
50
209.342788339
51
343.337595153
0
ARC
5
225
100
AcDbEntity
8
0
6
ByLayer
62
256
370
-1
100
AcDbCircle
10
-83.7164634146
20
43.9643658537
40
103.104090768
100
AcDbArc
50
341.553341536
51
343.360143033
0
ARC
5
226
100
AcDbEntity
8
0
6
ByLayer
62
256
370
-1
100
AcDbCircle
10
10.8538636364
20
12.0785227273
40
1.04409326518
100
AcDbArc
50
70.056318518
51
94.0567378613
0
ARC
5
227
100
AcDbEntity
8
0
6
ByLayer
62
256
370
-1
100
AcDbCircle
10
13.6954669517
20
31.7076606217
40
0.646657023562
100
AcDbArc
50
345.317467913
51
19.172494041
0
ARC
5
228
100
AcDbEntity
8
0
6
ByLayer
62
256
370
-1
100
AcDbCircle
10
13.1614179048
20
31.4436839043
40
1.23998487894
100
AcDbArc
50
22.5913445
51
40.194761146
0
ARC
5
229
100
AcDbEntity
8
0
6
ByLayer
62
256
370
-1
100
AcDbCircle
10
11.6939532367
20
30.5304741058
40
2.96082274911
100
AcDbArc
50
35.360413347
51
72.353831258
0
ARC
5
22A
100
AcDbEntity
8
0
6
ByLayer
62
256
370
-1
100
AcDbCircle
10
10.0030784651
20
24.8746586829
40
8.86368217175
100
AcDbArc
50
73.020801717
51
98.8599969069
0
ARC
5
22B
100
AcDbEntity
8
0
6
ByLayer
62
256
370
-1
100
AcDbCircle
10
9.86402241101
20
26.430829512
40
7.30537874359
100
AcDbArc
50
99.6622442442
51
123.220508626
0
ARC
5
22C
100
AcDbEntity
8
0
6
ByLayer
62
256
370
-1
100
AcDbCircle
10
18.4163999898
20
13.3524732415
40
22.9318476311
100
AcDbArc
50
123.194284238
51
138.812814402
0
ARC
5
22D
100
AcDbEntity
8
0
6
ByLayer
62
256
370
-1
100
AcDbCircle
10
2.46965015867
20
27.2160172946
40
1.80277563773
100
AcDbArc
50
136.648171526
51
189.77827388
0
LINE
5
22E
100
AcDbEntity
8
0
6
ByLayer
62
256
370
-1
100
AcDbLine
10
0.693064578789
20
26.9098414017
11
1.55147296996
21
22.5102919891
0
LINE
5
22F
100
AcDbEntity
8
0
6
ByLayer
62
256
370
-1
100
AcDbLine
10
12.3124251182
20
22.390255065
11
14.6916811595
21
31.0031082909
0
ARC
5
230
100
AcDbEntity
8
0
6
ByLayer
62
256
370
-1
100
AcDbCircle
10
14.4116444271
20
30.9848482662
40
0.280631430884
100
AcDbArc
50
3.730736806
51
48.970466702
0
ARC
5
231
100
AcDbEntity
8
0
6
ByLayer
62
256
370
-1
100
AcDbCircle
10
17.0022573786
20
33.5818991967
40
3.38830709942
100
AcDbArc
50
218.388733546
51
224.748393786
0
ARC
5
232
100
AcDbEntity
8
0
6
ByLayer
62
256
370
-1
100
AcDbCircle
10
14.4656784868
20
31.5616535369
40
0.145773797371
100
AcDbArc
50
187.051962886
51
215.124449822
0
ARC
5
233
100
AcDbEntity
8
0
6
ByLayer
62
256
370
-1
100
AcDbCircle
10
18.9292490925
20
27.9106446776
40
0.2092869332
100
AcDbArc
50
344.435656024
51
49.378040605
0
LINE
5
234
100
AcDbEntity
8
0
6
ByLayer
62
256
370
-1
100
AcDbLine
10
16.2105821525
20
31.1150514119
11
19.0655085254
21
28.0694980294
0
ARC
5
235
100
AcDbEntity
8
0
6
ByLayer
62
256
370
-1
100
AcDbCircle
10
16.0194048114
20
30.8334431104
40
0.340370403011
100
AcDbArc
50
55.828327233
51
150.655000099
0
ARC
5
236
100
AcDbEntity
8
0
6
ByLayer
62
256
370
-1
100
AcDbCircle
10
8.19285714286
20
32.4785714286
40
12.1373306752
100
AcDbArc
50
238.770237521
51
264.359864833
0
ARC
5
237
100
AcDbEntity
8
0
6
ByLayer
62
256
370
-1
100
AcDbCircle
10
5.80714285714
20
32.4785714286
40
12.1373306752
100
AcDbArc
50
275.640135167
51
301.229762479
0
ARC
5
238
100
AcDbEntity
8
0
6
ByLayer
62
256
370
-1
100
AcDbCircle
10
11.8088961995
20
22.5359061779
40
0.524171363771
100
AcDbArc
50
303.7355132
51
343.866922995
0
LINE
5
239
100
AcDbEntity
8
0
6
ByLayer
62
256
370
-1
100
AcDbLine
10
18.2
20
22.2
11
19.8
21
22.2
0
LINE
5
23A
100
AcDbEntity
8
0
6
ByLayer
62
256
370
-1
100
AcDbLine
10
20
20
22
11
20
21
21.4
0
LINE
5
23B
100
AcDbEntity
8
0
6
ByLayer
62
256
370
-1
100
AcDbLine
10
19.8
20
21.2
11
19.3
21
21.2
0
LINE
5
23C
100
AcDbEntity
8
0
6
ByLayer
62
256
370
-1
100
AcDbLine
10
18.7
20
21.2
11
18.2
21
21.2
0
LINE
5
23D
100
AcDbEntity
8
0
6
ByLayer
62
256
370
-1
100
AcDbLine
10
18
20
21.4
11
18
21
22
0
LINE
5
23E
100
AcDbEntity
8
0
6
ByLayer
62
256
370
-1
100
AcDbLine
10
19.3
20
21.96
11
18.7
21
21.96
0
ARC
5
23F
100
AcDbEntity
8
0
6
ByLayer
62
256
370
-1
100
AcDbCircle
10
18.2516666667
20
21.9483333333
40
0.256915463831
100
AcDbArc
50
101.601511532
51
168.398488468
0
ARC
5
240
100
AcDbEntity
8
0
6
ByLayer
62
256
370
-1
100
AcDbCircle
10
18.2516666667
20
21.4516666667
40
0.256915463831
100
AcDbArc
50
191.601511532
51
258.398488468
0
ARC
5
241
100
AcDbEntity
8
0
6
ByLayer
62
256
370
-1
100
AcDbCircle
10
19.7483333333
20
21.9483333333
40
0.256915463831
100
AcDbArc
50
11.601511532
51
78.398488468
0
ARC
5
242
100
AcDbEntity
8
0
6
ByLayer
62
256
370
-1
100
AcDbCircle
10
19.7483333333
20
21.4516666667
40
0.256915463831
100
AcDbArc
50
281.601511532
51
348.398488468
0
LINE
5
243
100
AcDbEntity
8
0
6
ByLayer
62
256
370
-1
100
AcDbLine
10
19.3
20
21.96
11
19.3
21
21.69
0
LINE
5
244
100
AcDbEntity
8
0
6
ByLayer
62
256
370
-1
100
AcDbLine
10
18.7
20
21.69
11
18.7
21
21.96
0
LINE
5
245
100
AcDbEntity
8
0
6
ByLayer
62
256
370
-1
100
AcDbLine
10
18.7
20
21.69
11
19.3
21
21.69
0
LINE
5
246
100
AcDbEntity
8
0
6
ByLayer
62
256
370
-1
100
AcDbLine
10
19.3
20
21.46
11
18.7
21
21.46
0
LINE
5
247
100
AcDbEntity
8
0
6
ByLayer
62
256
370
-1
100
AcDbLine
10
19.3
20
21.46
11
19.3
21
21.2
0
LINE
5
248
100
AcDbEntity
8
0
6
ByLayer
62
256
370
-1
100
AcDbLine
10
18.7
20
21.2
11
18.7
21
21.46
0
LINE
5
249
100
AcDbEntity
8
0
6
ByLayer
62
256
370
-1
100
AcDbLine
10
18.2
20
21
11
19.8
21
21
0
LINE
5
24A
100
AcDbEntity
8
0
6
ByLayer
62
256
370
-1
100
AcDbLine
10
20
20
20.8
11
20
21
20.2
0
LINE
5
24B
100
AcDbEntity
8
0
6
ByLayer
62
256
370
-1
100
AcDbLine
10
19.8
20
20
11
19.3
21
20
0
LINE
5
24C
100
AcDbEntity
8
0
6
ByLayer
62
256
370
-1
100
AcDbLine
10
18.7
20
20
11
18.2
21
20
0
LINE
5
24D
100
AcDbEntity
8
0
6
ByLayer
62
256
370
-1
100
AcDbLine
10
18
20
20.2
11
18
21
20.8
0
LINE
5
24E
100
AcDbEntity
8
0
6
ByLayer
62
256
370
-1
100
AcDbLine
10
19.3
20
20.76
11
18.7
21
20.76
0
ARC
5
24F
100
AcDbEntity
8
0
6
ByLayer
62
256
370
-1
100
AcDbCircle
10
18.2516666667
20
20.7483333333
40
0.256915463831
100
AcDbArc
50
101.601511532
51
168.398488468
0
ARC
5
250
100
AcDbEntity
8
0
6
ByLayer
62
256
370
-1
100
AcDbCircle
10
18.2516666667
20
20.2516666667
40
0.256915463831
100
AcDbArc
50
191.601511532
51
258.398488468
0
ARC
5
251
100
AcDbEntity
8
0
6
ByLayer
62
256
370
-1
100
AcDbCircle
10
19.7483333333
20
20.7483333333
40
0.256915463831
100
AcDbArc
50
11.601511532
51
78.398488468
0
ARC
5
252
100
AcDbEntity
8
0
6
ByLayer
62
256
370
-1
100
AcDbCircle
10
19.7483333333
20
20.2516666667
40
0.256915463831
100
AcDbArc
50
281.601511532
51
348.398488468
0
LINE
5
253
100
AcDbEntity
8
0
6
ByLayer
62
256
370
-1
100
AcDbLine
10
19.3
20
20.76
11
19.3
21
20.49
0
LINE
5
254
100
AcDbEntity
8
0
6
ByLayer
62
256
370
-1
100
AcDbLine
10
18.7
20
20.49
11
18.7
21
20.76
0
LINE
5
255
100
AcDbEntity
8
0
6
ByLayer
62
256
370
-1
100
AcDbLine
10
18.7
20
20.49
11
19.3
21
20.49
0
LINE
5
256
100
AcDbEntity
8
0
6
ByLayer
62
256
370
-1
100
AcDbLine
10
19.3
20
20.26
11
18.7
21
20.26
0
LINE
5
257
100
AcDbEntity
8
0
6
ByLayer
62
256
370
-1
100
AcDbLine
10
19.3
20
20.26
11
19.3
21
20
0
LINE
5
258
100
AcDbEntity
8
0
6
ByLayer
62
256
370
-1
100
AcDbLine
10
18.7
20
20
11
18.7
21
20.26
0
LINE
5
259
100
AcDbEntity
8
0
6
ByLayer
62
256
370
-1
100
AcDbLine
10
18.2
20
19.8
11
19.8
21
19.8
0
LINE
5
25A
100
AcDbEntity
8
0
6
ByLayer
62
256
370
-1
100
AcDbLine
10
20
20
19.6
11
20
21
19
0
LINE
5
25B
100
AcDbEntity
8
0
6
ByLayer
62
256
370
-1
100
AcDbLine
10
19.8
20
18.8
11
19.3
21
18.8
0
LINE
5
25C
100
AcDbEntity
8
0
6
ByLayer
62
256
370
-1
100
AcDbLine
10
18.7
20
18.8
11
18.2
21
18.8
0
LINE
5
25D
100
AcDbEntity
8
0
6
ByLayer
62
256
370
-1
100
AcDbLine
10
18
20
19
11
18
21
19.6
0
LINE
5
25E
100
AcDbEntity
8
0
6
ByLayer
62
256
370
-1
100
AcDbLine
10
19.3
20
19.56
11
18.7
21
19.56
0
ARC
5
25F
100
AcDbEntity
8
0
6
ByLayer
62
256
370
-1
100
AcDbCircle
10
18.2516666667
20
19.5483333333
40
0.256915463831
100
AcDbArc
50
101.601511532
51
168.398488468
0
ARC
5
260
100
AcDbEntity
8
0
6
ByLayer
62
256
370
-1
100
AcDbCircle
10
18.2516666667
20
19.0516666667
40
0.256915463831
100
AcDbArc
50
191.601511532
51
258.398488468
0
ARC
5
261
100
AcDbEntity
8
0
6
ByLayer
62
256
370
-1
100
AcDbCircle
10
19.7483333333
20
19.5483333333
40
0.256915463831
100
AcDbArc
50
11.601511532
51
78.398488468
0
ARC
5
262
100
AcDbEntity
8
0
6
ByLayer
62
256
370
-1
100
AcDbCircle
10
19.7483333333
20
19.0516666667
40
0.256915463831
100
AcDbArc
50
281.601511532
51
348.398488468
0
LINE
5
263
100
AcDbEntity
8
0
6
ByLayer
62
256
370
-1
100
AcDbLine
10
19.3
20
19.56
11
19.3
21
19.29
0
LINE
5
264
100
AcDbEntity
8
0
6
ByLayer
62
256
370
-1
100
AcDbLine
10
18.7
20
19.29
11
18.7
21
19.56
0
LINE
5
265
100
AcDbEntity
8
0
6
ByLayer
62
256
370
-1
100
AcDbLine
10
18.7
20
19.29
11
19.3
21
19.29
0
LINE
5
266
100
AcDbEntity
8
0
6
ByLayer
62
256
370
-1
100
AcDbLine
10
19.3
20
19.06
11
18.7
21
19.06
0
LINE
5
267
100
AcDbEntity
8
0
6
ByLayer
62
256
370
-1
100
AcDbLine
10
19.3
20
19.06
11
19.3
21
18.8
0
LINE
5
268
100
AcDbEntity
8
0
6
ByLayer
62
256
370
-1
100
AcDbLine
10
18.7
20
18.8
11
18.7
21
19.06
0
LINE
5
269
100
AcDbEntity
8
0
6
ByLayer
62
256
370
-1
100
AcDbLine
10
18.2
20
18.6
11
19.8
21
18.6
0
LINE
5
26A
100
AcDbEntity
8
0
6
ByLayer
62
256
370
-1
100
AcDbLine
10
20
20
18.4
11
20
21
17.8
0
LINE
5
26B
100
AcDbEntity
8
0
6
ByLayer
62
256
370
-1
100
AcDbLine
10
19.8
20
17.6
11
19.3
21
17.6
0
LINE
5
26C
100
AcDbEntity
8
0
6
ByLayer
62
256
370
-1
100
AcDbLine
10
18.7
20
17.6
11
18.2
21
17.6
0
LINE
5
26D
100
AcDbEntity
8
0
6
ByLayer
62
256
370
-1
100
AcDbLine
10
18
20
17.8
11
18
21
18.4
0
LINE
5
26E
100
AcDbEntity
8
0
6
ByLayer
62
256
370
-1
100
AcDbLine
10
19.3
20
18.36
11
18.7
21
18.36
0
ARC
5
26F
100
AcDbEntity
8
0
6
ByLayer
62
256
370
-1
100
AcDbCircle
10
18.2516666667
20
18.3483333333
40
0.256915463831
100
AcDbArc
50
101.601511532
51
168.398488468
0
ARC
5
270
100
AcDbEntity
8
0
6
ByLayer
62
256
370
-1
100
AcDbCircle
10
18.2516666667
20
17.8516666667
40
0.256915463831
100
AcDbArc
50
191.601511532
51
258.398488468
0
ARC
5
271
100
AcDbEntity
8
0
6
ByLayer
62
256
370
-1
100
AcDbCircle
10
19.7483333333
20
18.3483333333
40
0.256915463831
100
AcDbArc
50
11.601511532
51
78.398488468
0
ARC
5
272
100
AcDbEntity
8
0
6
ByLayer
62
256
370
-1
100
AcDbCircle
10
19.7483333333
20
17.8516666667
40
0.256915463831
100
AcDbArc
50
281.601511532
51
348.398488468
0
LINE
5
273
100
AcDbEntity
8
0
6
ByLayer
62
256
370
-1
100
AcDbLine
10
19.3
20
18.36
11
19.3
21
18.09
0
LINE
5
274
100
AcDbEntity
8
0
6
ByLayer
62
256
370
-1
100
AcDbLine
10
18.7
20
18.09
11
18.7
21
18.36
0
LINE
5
275
100
AcDbEntity
8
0
6
ByLayer
62
256
370
-1
100
AcDbLine
10
18.7
20
18.09
11
19.3
21
18.09
0
LINE
5
276
100
AcDbEntity
8
0
6
ByLayer
62
256
370
-1
100
AcDbLine
10
19.3
20
17.86
11
18.7
21
17.86
0
LINE
5
277
100
AcDbEntity
8
0
6
ByLayer
62
256
370
-1
100
AcDbLine
10
19.3
20
17.86
11
19.3
21
17.6
0
LINE
5
278
100
AcDbEntity
8
0
6
ByLayer
62
256
370
-1
100
AcDbLine
10
18.7
20
17.6
11
18.7
21
17.86
0
ARC
5
279
100
AcDbEntity
8
0
6
ByLayer
62
256
370
-1
100
AcDbCircle
10
2.13087836541
20
22.6492982083
40
0.595846743093
100
AcDbArc
50
193.490957528
51
247.202246238
0
ARC
5
27A
100
AcDbEntity
8
0
6
ByLayer
62
256
370
-1
100
AcDbCircle
10
19.7483333333
20
16.7483333333
40
0.256915463831
100
AcDbArc
50
11.601511532
51
78.398488468
0
LINE
5
27B
100
AcDbEntity
8
0
6
ByLayer
62
256
370
-1
100
AcDbLine
10
20
20
16.8
11
20
21
16.5
0
ARC
5
27C
100
AcDbEntity
8
0
6
ByLayer
62
256
370
-1
100
AcDbCircle
10
19.7483333333
20
16.5516666667
40
0.256915463831
100
AcDbArc
50
281.601511532
51
348.398488468
0
ARC
5
27D
100
AcDbEntity
8
0
6
ByLayer
62
256
370
-1
100
AcDbCircle
10
19.5516666667
20
16.7483333333
40
0.256915463831
100
AcDbArc
50
101.601511532
51
168.398488468
0
LINE
5
27E
100
AcDbEntity
8
0
6
ByLayer
62
256
370
-1
100
AcDbLine
10
19.3
20
16.8
11
19.3
21
16.5
0
ARC
5
27F
100
AcDbEntity
8
0
6
ByLayer
62
256
370
-1
100
AcDbCircle
10
19.5516666667
20
16.5516666667
40
0.256915463831
100
AcDbArc
50
191.601511532
51
258.398488468
0
LINE
5
280
100
AcDbEntity
8
0
6
ByLayer
62
256
370
-1
100
AcDbLine
10
19.8
20
17
11
19.5
21
17
0
LINE
5
281
100
AcDbEntity
8
0
6
ByLayer
62
256
370
-1
100
AcDbLine
10
19.5
20
16.3
11
19.8
21
16.3
0
CIRCLE
5
282
100
AcDbEntity
8
0
6
ByLayer
62
256
370
-1
100
AcDbCircle
10
19.65
20
16.65
40
0.065
0
ARC
5
283
100
AcDbEntity
8
0
6
ByLayer
62
256
370
-1
100
AcDbCircle
10
19.7483333333
20
15.7483333333
40
0.256915463831
100
AcDbArc
50
11.601511532
51
78.398488468
0
LINE
5
284
100
AcDbEntity
8
0
6
ByLayer
62
256
370
-1
100
AcDbLine
10
20
20
15.8
11
20
21
15.5
0
ARC
5
285
100
AcDbEntity
8
0
6
ByLayer
62
256
370
-1
100
AcDbCircle
10
19.7483333333
20
15.5516666667
40
0.256915463831
100
AcDbArc
50
281.601511532
51
348.398488468
0
ARC
5
286
100
AcDbEntity
8
0
6
ByLayer
62
256
370
-1
100
AcDbCircle
10
19.5516666667
20
15.7483333333
40
0.256915463831
100
AcDbArc
50
101.601511532
51
168.398488468
0
LINE
5
287
100
AcDbEntity
8
0
6
ByLayer
62
256
370
-1
100
AcDbLine
10
19.3
20
15.8
11
19.3
21
15.5
0
ARC
5
288
100
AcDbEntity
8
0
6
ByLayer
62
256
370
-1
100
AcDbCircle
10
19.5516666667
20
15.5516666667
40
0.256915463831
100
AcDbArc
50
191.601511532
51
258.398488468
0
LINE
5
289
100
AcDbEntity
8
0
6
ByLayer
62
256
370
-1
100
AcDbLine
10
19.8
20
16
11
19.5
21
16
0
LINE
5
28A
100
AcDbEntity
8
0
6
ByLayer
62
256
370
-1
100
AcDbLine
10
19.5
20
15.3
11
19.8
21
15.3
0
CIRCLE
5
28B
100
AcDbEntity
8
0
6
ByLayer
62
256
370
-1
100
AcDbCircle
10
19.65
20
15.65
40
0.065
0
ARC
5
28C
100
AcDbEntity
8
0
6
ByLayer
62
256
370
-1
100
AcDbCircle
10
19.7483333333
20
14.7483333333
40
0.256915463831
100
AcDbArc
50
11.601511532
51
78.398488468
0
LINE
5
28D
100
AcDbEntity
8
0
6
ByLayer
62
256
370
-1
100
AcDbLine
10
20
20
14.8
11
20
21
14.5
0
ARC
5
28E
100
AcDbEntity
8
0
6
ByLayer
62
256
370
-1
100
AcDbCircle
10
19.7483333333
20
14.5516666667
40
0.256915463831
100
AcDbArc
50
281.601511532
51
348.398488468
0
ARC
5
28F
100
AcDbEntity
8
0
6
ByLayer
62
256
370
-1
100
AcDbCircle
10
19.5516666667
20
14.7483333333
40
0.256915463831
100
AcDbArc
50
101.601511532
51
168.398488468
0
LINE
5
290
100
AcDbEntity
8
0
6
ByLayer
62
256
370
-1
100
AcDbLine
10
19.3
20
14.8
11
19.3
21
14.5
0
ARC
5
291
100
AcDbEntity
8
0
6
ByLayer
62
256
370
-1
100
AcDbCircle
10
19.5516666667
20
14.5516666667
40
0.256915463831
100
AcDbArc
50
191.601511532
51
258.398488468
0
LINE
5
292
100
AcDbEntity
8
0
6
ByLayer
62
256
370
-1
100
AcDbLine
10
19.8
20
15
11
19.5
21
15
0
LINE
5
293
100
AcDbEntity
8
0
6
ByLayer
62
256
370
-1
100
AcDbLine
10
19.5
20
14.3
11
19.8
21
14.3
0
CIRCLE
5
294
100
AcDbEntity
8
0
6
ByLayer
62
256
370
-1
100
AcDbCircle
10
19.65
20
14.65
40
0.065
0
ARC
5
295
100
AcDbEntity
8
0
6
ByLayer
62
256
370
-1
100
AcDbCircle
10
19.7483333333
20
13.7483333333
40
0.256915463831
100
AcDbArc
50
11.601511532
51
78.398488468
0
LINE
5
296
100
AcDbEntity
8
0
6
ByLayer
62
256
370
-1
100
AcDbLine
10
20
20
13.8
11
20
21
13.5
0
ARC
5
297
100
AcDbEntity
8
0
6
ByLayer
62
256
370
-1
100
AcDbCircle
10
19.7483333333
20
13.5516666667
40
0.256915463831
100
AcDbArc
50
281.601511532
51
348.398488468
0
ARC
5
298
100
AcDbEntity
8
0
6
ByLayer
62
256
370
-1
100
AcDbCircle
10
19.5516666667
20
13.7483333333
40
0.256915463831
100
AcDbArc
50
101.601511532
51
168.398488468
0
LINE
5
299
100
AcDbEntity
8
0
6
ByLayer
62
256
370
-1
100
AcDbLine
10
19.3
20
13.8
11
19.3
21
13.5
0
ARC
5
29A
100
AcDbEntity
8
0
6
ByLayer
62
256
370
-1
100
AcDbCircle
10
19.5516666667
20
13.5516666667
40
0.256915463831
100
AcDbArc
50
191.601511532
51
258.398488468
0
LINE
5
29B
100
AcDbEntity
8
0
6
ByLayer
62
256
370
-1
100
AcDbLine
10
19.8
20
14
11
19.5
21
14
0
LINE
5
29C
100
AcDbEntity
8
0
6
ByLayer
62
256
370
-1
100
AcDbLine
10
19.5
20
13.3
11
19.8
21
13.3
0
CIRCLE
5
29D
100
AcDbEntity
8
0
6
ByLayer
62
256
370
-1
100
AcDbCircle
10
19.65
20
13.65
40
0.065
0
ARC
5
29E
100
AcDbEntity
8
0
6
ByLayer
62
256
370
-1
100
AcDbCircle
10
19.7483333333
20
12.7483333333
40
0.256915463831
100
AcDbArc
50
11.601511532
51
78.398488468
0
LINE
5
29F
100
AcDbEntity
8
0
6
ByLayer
62
256
370
-1
100
AcDbLine
10
20
20
12.8
11
20
21
12.5
0
ARC
5
2A0
100
AcDbEntity
8
0
6
ByLayer
62
256
370
-1
100
AcDbCircle
10
19.7483333333
20
12.5516666667
40
0.256915463831
100
AcDbArc
50
281.601511532
51
348.398488468
0
ARC
5
2A1
100
AcDbEntity
8
0
6
ByLayer
62
256
370
-1
100
AcDbCircle
10
19.5516666667
20
12.7483333333
40
0.256915463831
100
AcDbArc
50
101.601511532
51
168.398488468
0
LINE
5
2A2
100
AcDbEntity
8
0
6
ByLayer
62
256
370
-1
100
AcDbLine
10
19.3
20
12.8
11
19.3
21
12.5
0
ARC
5
2A3
100
AcDbEntity
8
0
6
ByLayer
62
256
370
-1
100
AcDbCircle
10
19.5516666667
20
12.5516666667
40
0.256915463831
100
AcDbArc
50
191.601511532
51
258.398488468
0
LINE
5
2A4
100
AcDbEntity
8
0
6
ByLayer
62
256
370
-1
100
AcDbLine
10
19.8
20
13
11
19.5
21
13
0
LINE
5
2A5
100
AcDbEntity
8
0
6
ByLayer
62
256
370
-1
100
AcDbLine
10
19.5
20
12.3
11
19.8
21
12.3
0
CIRCLE
5
2A6
100
AcDbEntity
8
0
6
ByLayer
62
256
370
-1
100
AcDbCircle
10
19.65
20
12.65
40
0.065
0
ARC
5
2A7
100
AcDbEntity
8
0
6
ByLayer
62
256
370
-1
100
AcDbCircle
10
19.7483333333
20
11.7483333333
40
0.256915463831
100
AcDbArc
50
11.601511532
51
78.398488468
0
LINE
5
2A8
100
AcDbEntity
8
0
6
ByLayer
62
256
370
-1
100
AcDbLine
10
20
20
11.8
11
20
21
11.5
0
ARC
5
2A9
100
AcDbEntity
8
0
6
ByLayer
62
256
370
-1
100
AcDbCircle
10
19.7483333333
20
11.5516666667
40
0.256915463831
100
AcDbArc
50
281.601511532
51
348.398488468
0
ARC
5
2AA
100
AcDbEntity
8
0
6
ByLayer
62
256
370
-1
100
AcDbCircle
10
19.5516666667
20
11.7483333333
40
0.256915463831
100
AcDbArc
50
101.601511532
51
168.398488468
0
LINE
5
2AB
100
AcDbEntity
8
0
6
ByLayer
62
256
370
-1
100
AcDbLine
10
19.3
20
11.8
11
19.3
21
11.5
0
ARC
5
2AC
100
AcDbEntity
8
0
6
ByLayer
62
256
370
-1
100
AcDbCircle
10
19.5516666667
20
11.5516666667
40
0.256915463831
100
AcDbArc
50
191.601511532
51
258.398488468
0
LINE
5
2AD
100
AcDbEntity
8
0
6
ByLayer
62
256
370
-1
100
AcDbLine
10
19.8
20
12
11
19.5
21
12
0
LINE
5
2AE
100
AcDbEntity
8
0
6
ByLayer
62
256
370
-1
100
AcDbLine
10
19.5
20
11.3
11
19.8
21
11.3
0
CIRCLE
5
2AF
100
AcDbEntity
8
0
6
ByLayer
62
256
370
-1
100
AcDbCircle
10
19.65
20
11.65
40
0.065
0
ARC
5
2B0
100
AcDbEntity
8
0
6
ByLayer
62
256
370
-1
100
AcDbCircle
10
19.7483333333
20
10.7483333333
40
0.256915463831
100
AcDbArc
50
11.601511532
51
78.398488468
0
LINE
5
2B1
100
AcDbEntity
8
0
6
ByLayer
62
256
370
-1
100
AcDbLine
10
20
20
10.8
11
20
21
10.5
0
ARC
5
2B2
100
AcDbEntity
8
0
6
ByLayer
62
256
370
-1
100
AcDbCircle
10
19.7483333333
20
10.5516666667
40
0.256915463831
100
AcDbArc
50
281.601511532
51
348.398488468
0
ARC
5
2B3
100
AcDbEntity
8
0
6
ByLayer
62
256
370
-1
100
AcDbCircle
10
19.5516666667
20
10.7483333333
40
0.256915463831
100
AcDbArc
50
101.601511532
51
168.398488468
0
LINE
5
2B4
100
AcDbEntity
8
0
6
ByLayer
62
256
370
-1
100
AcDbLine
10
19.3
20
10.8
11
19.3
21
10.5
0
ARC
5
2B5
100
AcDbEntity
8
0
6
ByLayer
62
256
370
-1
100
AcDbCircle
10
19.5516666667
20
10.5516666667
40
0.256915463831
100
AcDbArc
50
191.601511532
51
258.398488468
0
LINE
5
2B6
100
AcDbEntity
8
0
6
ByLayer
62
256
370
-1
100
AcDbLine
10
19.8
20
11
11
19.5
21
11
0
LINE
5
2B7
100
AcDbEntity
8
0
6
ByLayer
62
256
370
-1
100
AcDbLine
10
19.5
20
10.3
11
19.8
21
10.3
0
CIRCLE
5
2B8
100
AcDbEntity
8
0
6
ByLayer
62
256
370
-1
100
AcDbCircle
10
19.65
20
10.65
40
0.065
0
ARC
5
2B9
100
AcDbEntity
8
0
6
ByLayer
62
256
370
-1
100
AcDbCircle
10
19.7483333333
20
9.7483333333
40
0.256915463831
100
AcDbArc
50
11.601511532
51
78.398488468
0
LINE
5
2BA
100
AcDbEntity
8
0
6
ByLayer
62
256
370
-1
100
AcDbLine
10
20
20
9.8
11
20
21
9.5
0
ARC
5
2BB
100
AcDbEntity
8
0
6
ByLayer
62
256
370
-1
100
AcDbCircle
10
19.7483333333
20
9.5516666667
40
0.256915463831
100
AcDbArc
50
281.601511532
51
348.398488468
0
ARC
5
2BC
100
AcDbEntity
8
0
6
ByLayer
62
256
370
-1
100
AcDbCircle
10
19.5516666667
20
9.7483333333
40
0.256915463831
100
AcDbArc
50
101.601511532
51
168.398488468
0
LINE
5
2BD
100
AcDbEntity
8
0
6
ByLayer
62
256
370
-1
100
AcDbLine
10
19.3
20
9.8
11
19.3
21
9.5
0
ARC
5
2BE
100
AcDbEntity
8
0
6
ByLayer
62
256
370
-1
100
AcDbCircle
10
19.5516666667
20
9.5516666667
40
0.256915463831
100
AcDbArc
50
191.601511532
51
258.398488468
0
LINE
5
2BF
100
AcDbEntity
8
0
6
ByLayer
62
256
370
-1
100
AcDbLine
10
19.8
20
9.99999999997
11
19.5
21
9.99999999997
0
LINE
5
2C0
100
AcDbEntity
8
0
6
ByLayer
62
256
370
-1
100
AcDbLine
10
19.5
20
9.30000000003
11
19.8
21
9.30000000003
0
CIRCLE
5
2C1
100
AcDbEntity
8
0
6
ByLayer
62
256
370
-1
100
AcDbCircle
10
19.65
20
9.65
40
0.065
0
ARC
5
2C2
100
AcDbEntity
8
0
6
ByLayer
62
256
370
-1
100
AcDbCircle
10
19.7483333333
20
8.7483333333
40
0.256915463831
100
AcDbArc
50
11.601511532
51
78.398488468
0
LINE
5
2C3
100
AcDbEntity
8
0
6
ByLayer
62
256
370
-1
100
AcDbLine
10
20
20
8.8
11
20
21
8.5
0
ARC
5
2C4
100
AcDbEntity
8
0
6
ByLayer
62
256
370
-1
100
AcDbCircle
10
19.7483333333
20
8.5516666667
40
0.256915463831
100
AcDbArc
50
281.601511532
51
348.398488468
0
ARC
5
2C5
100
AcDbEntity
8
0
6
ByLayer
62
256
370
-1
100
AcDbCircle
10
19.5516666667
20
8.7483333333
40
0.256915463831
100
AcDbArc
50
101.601511532
51
168.398488468
0
LINE
5
2C6
100
AcDbEntity
8
0
6
ByLayer
62
256
370
-1
100
AcDbLine
10
19.3
20
8.8
11
19.3
21
8.5
0
ARC
5
2C7
100
AcDbEntity
8
0
6
ByLayer
62
256
370
-1
100
AcDbCircle
10
19.5516666667
20
8.5516666667
40
0.256915463831
100
AcDbArc
50
191.601511532
51
258.398488468
0
LINE
5
2C8
100
AcDbEntity
8
0
6
ByLayer
62
256
370
-1
100
AcDbLine
10
19.8
20
8.99999999997
11
19.5
21
8.99999999997
0
LINE
5
2C9
100
AcDbEntity
8
0
6
ByLayer
62
256
370
-1
100
AcDbLine
10
19.5
20
8.30000000003
11
19.8
21
8.30000000003
0
CIRCLE
5
2CA
100
AcDbEntity
8
0
6
ByLayer
62
256
370
-1
100
AcDbCircle
10
19.65
20
8.65
40
0.065
0
ARC
5
2CB
100
AcDbEntity
8
0
6
ByLayer
62
256
370
-1
100
AcDbCircle
10
19.7483333333
20
7.7483333333
40
0.256915463831
100
AcDbArc
50
11.601511532
51
78.398488468
0
LINE
5
2CC
100
AcDbEntity
8
0
6
ByLayer
62
256
370
-1
100
AcDbLine
10
20
20
7.8
11
20
21
7.5
0
ARC
5
2CD
100
AcDbEntity
8
0
6
ByLayer
62
256
370
-1
100
AcDbCircle
10
19.7483333333
20
7.5516666667
40
0.256915463831
100
AcDbArc
50
281.601511532
51
348.398488468
0
ARC
5
2CE
100
AcDbEntity
8
0
6
ByLayer
62
256
370
-1
100
AcDbCircle
10
19.5516666667
20
7.7483333333
40
0.256915463831
100
AcDbArc
50
101.601511532
51
168.398488468
0
LINE
5
2CF
100
AcDbEntity
8
0
6
ByLayer
62
256
370
-1
100
AcDbLine
10
19.3
20
7.8
11
19.3
21
7.5
0
ARC
5
2D0
100
AcDbEntity
8
0
6
ByLayer
62
256
370
-1
100
AcDbCircle
10
19.5516666667
20
7.5516666667
40
0.256915463831
100
AcDbArc
50
191.601511532
51
258.398488468
0
LINE
5
2D1
100
AcDbEntity
8
0
6
ByLayer
62
256
370
-1
100
AcDbLine
10
19.8
20
7.99999999997
11
19.5
21
7.99999999997
0
LINE
5
2D2
100
AcDbEntity
8
0
6
ByLayer
62
256
370
-1
100
AcDbLine
10
19.5
20
7.30000000003
11
19.8
21
7.30000000003
0
CIRCLE
5
2D3
100
AcDbEntity
8
0
6
ByLayer
62
256
370
-1
100
AcDbCircle
10
19.65
20
7.65
40
0.065
0
ARC
5
2D4
100
AcDbEntity
8
0
6
ByLayer
62
256
370
-1
100
AcDbCircle
10
18.7483333333
20
16.7483333333
40
0.256915463831
100
AcDbArc
50
11.601511532
51
78.398488468
0
LINE
5
2D5
100
AcDbEntity
8
0
6
ByLayer
62
256
370
-1
100
AcDbLine
10
19
20
16.8
11
19
21
16.5
0
ARC
5
2D6
100
AcDbEntity
8
0
6
ByLayer
62
256
370
-1
100
AcDbCircle
10
18.7483333333
20
16.5516666667
40
0.256915463831
100
AcDbArc
50
281.601511532
51
348.398488468
0
ARC
5
2D7
100
AcDbEntity
8
0
6
ByLayer
62
256
370
-1
100
AcDbCircle
10
18.5516666667
20
16.7483333333
40
0.256915463831
100
AcDbArc
50
101.601511532
51
168.398488468
0
LINE
5
2D8
100
AcDbEntity
8
0
6
ByLayer
62
256
370
-1
100
AcDbLine
10
18.3
20
16.8
11
18.3
21
16.5
0
ARC
5
2D9
100
AcDbEntity
8
0
6
ByLayer
62
256
370
-1
100
AcDbCircle
10
18.5516666667
20
16.5516666667
40
0.256915463831
100
AcDbArc
50
191.601511532
51
258.398488468
0
LINE
5
2DA
100
AcDbEntity
8
0
6
ByLayer
62
256
370
-1
100
AcDbLine
10
18.8
20
17
11
18.5000000001
21
17
0
LINE
5
2DB
100
AcDbEntity
8
0
6
ByLayer
62
256
370
-1
100
AcDbLine
10
18.5000000001
20
16.3000000001
11
18.8
21
16.3000000001
0
CIRCLE
5
2DC
100
AcDbEntity
8
0
6
ByLayer
62
256
370
-1
100
AcDbCircle
10
18.65
20
16.65
40
0.065
0
ARC
5
2DD
100
AcDbEntity
8
0
6
ByLayer
62
256
370
-1
100
AcDbCircle
10
18.7483333333
20
15.7483333333
40
0.256915463831
100
AcDbArc
50
11.601511532
51
78.398488468
0
LINE
5
2DE
100
AcDbEntity
8
0
6
ByLayer
62
256
370
-1
100
AcDbLine
10
19
20
15.8
11
19
21
15.5
0
ARC
5
2DF
100
AcDbEntity
8
0
6
ByLayer
62
256
370
-1
100
AcDbCircle
10
18.7483333333
20
15.5516666667
40
0.256915463831
100
AcDbArc
50
281.601511532
51
348.398488468
0
ARC
5
2E0
100
AcDbEntity
8
0
6
ByLayer
62
256
370
-1
100
AcDbCircle
10
18.5516666667
20
15.7483333333
40
0.256915463831
100
AcDbArc
50
101.601511532
51
168.398488468
0
LINE
5
2E1
100
AcDbEntity
8
0
6
ByLayer
62
256
370
-1
100
AcDbLine
10
18.3
20
15.8
11
18.3
21
15.5
0
ARC
5
2E2
100
AcDbEntity
8
0
6
ByLayer
62
256
370
-1
100
AcDbCircle
10
18.5516666667
20
15.5516666667
40
0.256915463831
100
AcDbArc
50
191.601511532
51
258.398488468
0
LINE
5
2E3
100
AcDbEntity
8
0
6
ByLayer
62
256
370
-1
100
AcDbLine
10
18.8
20
16
11
18.5000000001
21
16
0
LINE
5
2E4
100
AcDbEntity
8
0
6
ByLayer
62
256
370
-1
100
AcDbLine
10
18.5000000001
20
15.3000000001
11
18.8
21
15.3000000001
0
CIRCLE
5
2E5
100
AcDbEntity
8
0
6
ByLayer
62
256
370
-1
100
AcDbCircle
10
18.65
20
15.65
40
0.065
0
ARC
5
2E6
100
AcDbEntity
8
0
6
ByLayer
62
256
370
-1
100
AcDbCircle
10
18.7483333333
20
14.7483333333
40
0.256915463831
100
AcDbArc
50
11.601511532
51
78.398488468
0
LINE
5
2E7
100
AcDbEntity
8
0
6
ByLayer
62
256
370
-1
100
AcDbLine
10
19
20
14.8
11
19
21
14.5
0
ARC
5
2E8
100
AcDbEntity
8
0
6
ByLayer
62
256
370
-1
100
AcDbCircle
10
18.7483333333
20
14.5516666667
40
0.256915463831
100
AcDbArc
50
281.601511532
51
348.398488468
0
ARC
5
2E9
100
AcDbEntity
8
0
6
ByLayer
62
256
370
-1
100
AcDbCircle
10
18.5516666667
20
14.7483333333
40
0.256915463831
100
AcDbArc
50
101.601511532
51
168.398488468
0
LINE
5
2EA
100
AcDbEntity
8
0
6
ByLayer
62
256
370
-1
100
AcDbLine
10
18.3
20
14.8
11
18.3
21
14.5
0
ARC
5
2EB
100
AcDbEntity
8
0
6
ByLayer
62
256
370
-1
100
AcDbCircle
10
18.5516666667
20
14.5516666667
40
0.256915463831
100
AcDbArc
50
191.601511532
51
258.398488468
0
LINE
5
2EC
100
AcDbEntity
8
0
6
ByLayer
62
256
370
-1
100
AcDbLine
10
18.8
20
15
11
18.5000000001
21
15
0
LINE
5
2ED
100
AcDbEntity
8
0
6
ByLayer
62
256
370
-1
100
AcDbLine
10
18.5000000001
20
14.3000000001
11
18.8
21
14.3000000001
0
CIRCLE
5
2EE
100
AcDbEntity
8
0
6
ByLayer
62
256
370
-1
100
AcDbCircle
10
18.65
20
14.65
40
0.065
0
ARC
5
2EF
100
AcDbEntity
8
0
6
ByLayer
62
256
370
-1
100
AcDbCircle
10
18.7483333333
20
13.7483333333
40
0.256915463831
100
AcDbArc
50
11.601511532
51
78.398488468
0
LINE
5
2F0
100
AcDbEntity
8
0
6
ByLayer
62
256
370
-1
100
AcDbLine
10
19
20
13.8
11
19
21
13.5
0
ARC
5
2F1
100
AcDbEntity
8
0
6
ByLayer
62
256
370
-1
100
AcDbCircle
10
18.7483333333
20
13.5516666667
40
0.256915463831
100
AcDbArc
50
281.601511532
51
348.398488468
0
ARC
5
2F2
100
AcDbEntity
8
0
6
ByLayer
62
256
370
-1
100
AcDbCircle
10
18.5516666667
20
13.7483333333
40
0.256915463831
100
AcDbArc
50
101.601511532
51
168.398488468
0
LINE
5
2F3
100
AcDbEntity
8
0
6
ByLayer
62
256
370
-1
100
AcDbLine
10
18.3
20
13.8
11
18.3
21
13.5
0
ARC
5
2F4
100
AcDbEntity
8
0
6
ByLayer
62
256
370
-1
100
AcDbCircle
10
18.5516666667
20
13.5516666667
40
0.256915463831
100
AcDbArc
50
191.601511532
51
258.398488468
0
LINE
5
2F5
100
AcDbEntity
8
0
6
ByLayer
62
256
370
-1
100
AcDbLine
10
18.8
20
14
11
18.5000000001
21
14
0
LINE
5
2F6
100
AcDbEntity
8
0
6
ByLayer
62
256
370
-1
100
AcDbLine
10
18.5000000001
20
13.3000000001
11
18.8
21
13.3000000001
0
CIRCLE
5
2F7
100
AcDbEntity
8
0
6
ByLayer
62
256
370
-1
100
AcDbCircle
10
18.65
20
13.65
40
0.065
0
ARC
5
2F8
100
AcDbEntity
8
0
6
ByLayer
62
256
370
-1
100
AcDbCircle
10
18.7483333333
20
12.7483333333
40
0.256915463831
100
AcDbArc
50
11.601511532
51
78.398488468
0
LINE
5
2F9
100
AcDbEntity
8
0
6
ByLayer
62
256
370
-1
100
AcDbLine
10
19
20
12.8
11
19
21
12.5
0
ARC
5
2FA
100
AcDbEntity
8
0
6
ByLayer
62
256
370
-1
100
AcDbCircle
10
18.7483333333
20
12.5516666667
40
0.256915463831
100
AcDbArc
50
281.601511532
51
348.398488468
0
ARC
5
2FB
100
AcDbEntity
8
0
6
ByLayer
62
256
370
-1
100
AcDbCircle
10
18.5516666667
20
12.7483333333
40
0.256915463831
100
AcDbArc
50
101.601511532
51
168.398488468
0
LINE
5
2FC
100
AcDbEntity
8
0
6
ByLayer
62
256
370
-1
100
AcDbLine
10
18.3
20
12.8
11
18.3
21
12.5
0
ARC
5
2FD
100
AcDbEntity
8
0
6
ByLayer
62
256
370
-1
100
AcDbCircle
10
18.5516666667
20
12.5516666667
40
0.256915463831
100
AcDbArc
50
191.601511532
51
258.398488468
0
LINE
5
2FE
100
AcDbEntity
8
0
6
ByLayer
62
256
370
-1
100
AcDbLine
10
18.8
20
13
11
18.5000000001
21
13
0
LINE
5
2FF
100
AcDbEntity
8
0
6
ByLayer
62
256
370
-1
100
AcDbLine
10
18.5000000001
20
12.3000000001
11
18.8
21
12.3000000001
0
CIRCLE
5
300
100
AcDbEntity
8
0
6
ByLayer
62
256
370
-1
100
AcDbCircle
10
18.65
20
12.65
40
0.065
0
ARC
5
301
100
AcDbEntity
8
0
6
ByLayer
62
256
370
-1
100
AcDbCircle
10
18.7483333333
20
11.7483333333
40
0.256915463831
100
AcDbArc
50
11.601511532
51
78.398488468
0
LINE
5
302
100
AcDbEntity
8
0
6
ByLayer
62
256
370
-1
100
AcDbLine
10
19
20
11.8
11
19
21
11.5
0
ARC
5
303
100
AcDbEntity
8
0
6
ByLayer
62
256
370
-1
100
AcDbCircle
10
18.7483333333
20
11.5516666667
40
0.256915463831
100
AcDbArc
50
281.601511532
51
348.398488468
0
ARC
5
304
100
AcDbEntity
8
0
6
ByLayer
62
256
370
-1
100
AcDbCircle
10
18.5516666667
20
11.7483333333
40
0.256915463831
100
AcDbArc
50
101.601511532
51
168.398488468
0
LINE
5
305
100
AcDbEntity
8
0
6
ByLayer
62
256
370
-1
100
AcDbLine
10
18.3
20
11.8
11
18.3
21
11.5
0
ARC
5
306
100
AcDbEntity
8
0
6
ByLayer
62
256
370
-1
100
AcDbCircle
10
18.5516666667
20
11.5516666667
40
0.256915463831
100
AcDbArc
50
191.601511532
51
258.398488468
0
LINE
5
307
100
AcDbEntity
8
0
6
ByLayer
62
256
370
-1
100
AcDbLine
10
18.8
20
12
11
18.5000000001
21
12
0
LINE
5
308
100
AcDbEntity
8
0
6
ByLayer
62
256
370
-1
100
AcDbLine
10
18.5000000001
20
11.3000000001
11
18.8
21
11.3000000001
0
CIRCLE
5
309
100
AcDbEntity
8
0
6
ByLayer
62
256
370
-1
100
AcDbCircle
10
18.65
20
11.65
40
0.065
0
ARC
5
30A
100
AcDbEntity
8
0
6
ByLayer
62
256
370
-1
100
AcDbCircle
10
18.7483333333
20
10.7483333333
40
0.256915463831
100
AcDbArc
50
11.601511532
51
78.398488468
0
LINE
5
30B
100
AcDbEntity
8
0
6
ByLayer
62
256
370
-1
100
AcDbLine
10
19
20
10.8
11
19
21
10.5
0
ARC
5
30C
100
AcDbEntity
8
0
6
ByLayer
62
256
370
-1
100
AcDbCircle
10
18.7483333333
20
10.5516666667
40
0.256915463831
100
AcDbArc
50
281.601511532
51
348.398488468
0
ARC
5
30D
100
AcDbEntity
8
0
6
ByLayer
62
256
370
-1
100
AcDbCircle
10
18.5516666667
20
10.7483333333
40
0.256915463831
100
AcDbArc
50
101.601511532
51
168.398488468
0
LINE
5
30E
100
AcDbEntity
8
0
6
ByLayer
62
256
370
-1
100
AcDbLine
10
18.3
20
10.8
11
18.3
21
10.5
0
ARC
5
30F
100
AcDbEntity
8
0
6
ByLayer
62
256
370
-1
100
AcDbCircle
10
18.5516666667
20
10.5516666667
40
0.256915463831
100
AcDbArc
50
191.601511532
51
258.398488468
0
LINE
5
310
100
AcDbEntity
8
0
6
ByLayer
62
256
370
-1
100
AcDbLine
10
18.8
20
11
11
18.5000000001
21
11
0
LINE
5
311
100
AcDbEntity
8
0
6
ByLayer
62
256
370
-1
100
AcDbLine
10
18.5000000001
20
10.3000000001
11
18.8
21
10.3000000001
0
CIRCLE
5
312
100
AcDbEntity
8
0
6
ByLayer
62
256
370
-1
100
AcDbCircle
10
18.65
20
10.65
40
0.065
0
ARC
5
313
100
AcDbEntity
8
0
6
ByLayer
62
256
370
-1
100
AcDbCircle
10
18.7483333333
20
9.74833333333
40
0.256915463831
100
AcDbArc
50
11.601511532
51
78.398488468
0
LINE
5
314
100
AcDbEntity
8
0
6
ByLayer
62
256
370
-1
100
AcDbLine
10
19
20
9.80000000003
11
19
21
9.50000000003
0
ARC
5
315
100
AcDbEntity
8
0
6
ByLayer
62
256
370
-1
100
AcDbCircle
10
18.7483333333
20
9.55166666673
40
0.256915463831
100
AcDbArc
50
281.601511532
51
348.398488468
0
ARC
5
316
100
AcDbEntity
8
0
6
ByLayer
62
256
370
-1
100
AcDbCircle
10
18.5516666667
20
9.74833333333
40
0.256915463831
100
AcDbArc
50
101.601511532
51
168.398488468
0
LINE
5
317
100
AcDbEntity
8
0
6
ByLayer
62
256
370
-1
100
AcDbLine
10
18.3
20
9.80000000003
11
18.3
21
9.50000000003
0
ARC
5
318
100
AcDbEntity
8
0
6
ByLayer
62
256
370
-1
100
AcDbCircle
10
18.5516666667
20
9.55166666673
40
0.256915463831
100
AcDbArc
50
191.601511532
51
258.398488468
0
LINE
5
319
100
AcDbEntity
8
0
6
ByLayer
62
256
370
-1
100
AcDbLine
10
18.8
20
10
11
18.5000000001
21
10
0
LINE
5
31A
100
AcDbEntity
8
0
6
ByLayer
62
256
370
-1
100
AcDbLine
10
18.5000000001
20
9.30000000007
11
18.8
21
9.30000000007
0
CIRCLE
5
31B
100
AcDbEntity
8
0
6
ByLayer
62
256
370
-1
100
AcDbCircle
10
18.65
20
9.65000000003
40
0.065
0
ARC
5
31C
100
AcDbEntity
8
0
6
ByLayer
62
256
370
-1
100
AcDbCircle
10
18.7483333333
20
8.74833333333
40
0.256915463831
100
AcDbArc
50
11.601511532
51
78.398488468
0
LINE
5
31D
100
AcDbEntity
8
0
6
ByLayer
62
256
370
-1
100
AcDbLine
10
19
20
8.80000000003
11
19
21
8.50000000003
0
ARC
5
31E
100
AcDbEntity
8
0
6
ByLayer
62
256
370
-1
100
AcDbCircle
10
18.7483333333
20
8.55166666673
40
0.256915463831
100
AcDbArc
50
281.601511532
51
348.398488468
0
ARC
5
31F
100
AcDbEntity
8
0
6
ByLayer
62
256
370
-1
100
AcDbCircle
10
18.5516666667
20
8.74833333333
40
0.256915463831
100
AcDbArc
50
101.601511532
51
168.398488468
0
LINE
5
320
100
AcDbEntity
8
0
6
ByLayer
62
256
370
-1
100
AcDbLine
10
18.3
20
8.80000000003
11
18.3
21
8.50000000003
0
ARC
5
321
100
AcDbEntity
8
0
6
ByLayer
62
256
370
-1
100
AcDbCircle
10
18.5516666667
20
8.55166666673
40
0.256915463831
100
AcDbArc
50
191.601511532
51
258.398488468
0
LINE
5
322
100
AcDbEntity
8
0
6
ByLayer
62
256
370
-1
100
AcDbLine
10
18.8
20
9
11
18.5000000001
21
9
0
LINE
5
323
100
AcDbEntity
8
0
6
ByLayer
62
256
370
-1
100
AcDbLine
10
18.5000000001
20
8.30000000007
11
18.8
21
8.30000000007
0
CIRCLE
5
324
100
AcDbEntity
8
0
6
ByLayer
62
256
370
-1
100
AcDbCircle
10
18.65
20
8.65000000003
40
0.065
0
ARC
5
325
100
AcDbEntity
8
0
6
ByLayer
62
256
370
-1
100
AcDbCircle
10
18.7483333333
20
7.74833333333
40
0.256915463831
100
AcDbArc
50
11.601511532
51
78.398488468
0
LINE
5
326
100
AcDbEntity
8
0
6
ByLayer
62
256
370
-1
100
AcDbLine
10
19
20
7.80000000003
11
19
21
7.50000000003
0
ARC
5
327
100
AcDbEntity
8
0
6
ByLayer
62
256
370
-1
100
AcDbCircle
10
18.7483333333
20
7.55166666673
40
0.256915463831
100
AcDbArc
50
281.601511532
51
348.398488468
0
ARC
5
328
100
AcDbEntity
8
0
6
ByLayer
62
256
370
-1
100
AcDbCircle
10
18.5516666667
20
7.74833333333
40
0.256915463831
100
AcDbArc
50
101.601511532
51
168.398488468
0
LINE
5
329
100
AcDbEntity
8
0
6
ByLayer
62
256
370
-1
100
AcDbLine
10
18.3
20
7.80000000003
11
18.3
21
7.50000000003
0
ARC
5
32A
100
AcDbEntity
8
0
6
ByLayer
62
256
370
-1
100
AcDbCircle
10
18.5516666667
20
7.55166666673
40
0.256915463831
100
AcDbArc
50
191.601511532
51
258.398488468
0
LINE
5
32B
100
AcDbEntity
8
0
6
ByLayer
62
256
370
-1
100
AcDbLine
10
18.8
20
8
11
18.5000000001
21
8
0
LINE
5
32C
100
AcDbEntity
8
0
6
ByLayer
62
256
370
-1
100
AcDbLine
10
18.5000000001
20
7.30000000007
11
18.8
21
7.30000000007
0
CIRCLE
5
32D
100
AcDbEntity
8
0
6
ByLayer
62
256
370
-1
100
AcDbCircle
10
18.65
20
7.65000000003
40
0.065
0
LINE
5
32E
100
AcDbEntity
8
0
6
ByLayer
62
256
370
-1
100
AcDbLine
10
18.2
20
23.4
11
19.8
21
23.4
0
LINE
5
32F
100
AcDbEntity
8
0
6
ByLayer
62
256
370
-1
100
AcDbLine
10
20
20
23.2
11
20
21
22.6
0
LINE
5
330
100
AcDbEntity
8
0
6
ByLayer
62
256
370
-1
100
AcDbLine
10
19.8
20
22.4
11
19.3
21
22.4
0
LINE
5
331
100
AcDbEntity
8
0
6
ByLayer
62
256
370
-1
100
AcDbLine
10
18.7
20
22.4
11
18.2
21
22.4
0
LINE
5
332
100
AcDbEntity
8
0
6
ByLayer
62
256
370
-1
100
AcDbLine
10
18
20
22.6
11
18
21
23.2
0
LINE
5
333
100
AcDbEntity
8
0
6
ByLayer
62
256
370
-1
100
AcDbLine
10
19.3
20
23.16
11
18.7
21
23.16
0
ARC
5
334
100
AcDbEntity
8
0
6
ByLayer
62
256
370
-1
100
AcDbCircle
10
18.2516666667
20
23.1483333333
40
0.256915463831
100
AcDbArc
50
101.601511532
51
168.398488468
0
ARC
5
335
100
AcDbEntity
8
0
6
ByLayer
62
256
370
-1
100
AcDbCircle
10
18.2516666667
20
22.6516666667
40
0.256915463831
100
AcDbArc
50
191.601511532
51
258.398488468
0
ARC
5
336
100
AcDbEntity
8
0
6
ByLayer
62
256
370
-1
100
AcDbCircle
10
19.7483333333
20
23.1483333333
40
0.256915463831
100
AcDbArc
50
11.601511532
51
78.398488468
0
ARC
5
337
100
AcDbEntity
8
0
6
ByLayer
62
256
370
-1
100
AcDbCircle
10
19.7483333333
20
22.6516666667
40
0.256915463831
100
AcDbArc
50
281.601511532
51
348.398488468
0
LINE
5
338
100
AcDbEntity
8
0
6
ByLayer
62
256
370
-1
100
AcDbLine
10
19.3
20
23.16
11
19.3
21
22.89
0
LINE
5
339
100
AcDbEntity
8
0
6
ByLayer
62
256
370
-1
100
AcDbLine
10
18.7
20
22.89
11
18.7
21
23.16
0
LINE
5
33A
100
AcDbEntity
8
0
6
ByLayer
62
256
370
-1
100
AcDbLine
10
18.7
20
22.89
11
19.3
21
22.89
0
LINE
5
33B
100
AcDbEntity
8
0
6
ByLayer
62
256
370
-1
100
AcDbLine
10
19.3
20
22.66
11
18.7
21
22.66
0
LINE
5
33C
100
AcDbEntity
8
0
6
ByLayer
62
256
370
-1
100
AcDbLine
10
19.3
20
22.66
11
19.3
21
22.4
0
LINE
5
33D
100
AcDbEntity
8
0
6
ByLayer
62
256
370
-1
100
AcDbLine
10
18.7
20
22.4
11
18.7
21
22.66
0
CIRCLE
5
33E
100
AcDbEntity
8
0
6
ByLayer
62
256
370
-1
100
AcDbCircle
10
17.7
20
16.7
40
0.25
0
CIRCLE
5
33F
100
AcDbEntity
8
0
6
ByLayer
62
256
370
-1
100
AcDbCircle
10
17.7
20
16.7
40
0.065
0
CIRCLE
5
340
100
AcDbEntity
8
0
6
ByLayer
62
256
370
-1
100
AcDbCircle
10
17.7
20
16.1
40
0.25
0
CIRCLE
5
341
100
AcDbEntity
8
0
6
ByLayer
62
256
370
-1
100
AcDbCircle
10
17.7
20
16.1
40
0.065
0
CIRCLE
5
342
100
AcDbEntity
8
0
6
ByLayer
62
256
370
-1
100
AcDbCircle
10
17.7
20
15.5
40
0.25
0
CIRCLE
5
343
100
AcDbEntity
8
0
6
ByLayer
62
256
370
-1
100
AcDbCircle
10
17.7
20
15.5
40
0.065
0
CIRCLE
5
344
100
AcDbEntity
8
0
6
ByLayer
62
256
370
-1
100
AcDbCircle
10
17.7
20
14.9
40
0.25
0
CIRCLE
5
345
100
AcDbEntity
8
0
6
ByLayer
62
256
370
-1
100
AcDbCircle
10
17.7
20
14.9
40
0.065
0
CIRCLE
5
346
100
AcDbEntity
8
0
6
ByLayer
62
256
370
-1
100
AcDbCircle
10
17.7
20
14.3
40
0.25
0
CIRCLE
5
347
100
AcDbEntity
8
0
6
ByLayer
62
256
370
-1
100
AcDbCircle
10
17.7
20
14.3
40
0.065
0
CIRCLE
5
348
100
AcDbEntity
8
0
6
ByLayer
62
256
370
-1
100
AcDbCircle
10
17.7
20
13.7
40
0.25
0
CIRCLE
5
349
100
AcDbEntity
8
0
6
ByLayer
62
256
370
-1
100
AcDbCircle
10
17.7
20
13.7
40
0.065
0
CIRCLE
5
34A
100
AcDbEntity
8
0
6
ByLayer
62
256
370
-1
100
AcDbCircle
10
17.7
20
13.1
40
0.25
0
CIRCLE
5
34B
100
AcDbEntity
8
0
6
ByLayer
62
256
370
-1
100
AcDbCircle
10
17.7
20
13.1
40
0.065
0
CIRCLE
5
34C
100
AcDbEntity
8
0
6
ByLayer
62
256
370
-1
100
AcDbCircle
10
17.7
20
12.5
40
0.25
0
CIRCLE
5
34D
100
AcDbEntity
8
0
6
ByLayer
62
256
370
-1
100
AcDbCircle
10
17.7
20
12.5
40
0.065
0
CIRCLE
5
34E
100
AcDbEntity
8
0
6
ByLayer
62
256
370
-1
100
AcDbCircle
10
17.7
20
11.9
40
0.25
0
CIRCLE
5
34F
100
AcDbEntity
8
0
6
ByLayer
62
256
370
-1
100
AcDbCircle
10
17.7
20
11.9
40
0.065
0
CIRCLE
5
350
100
AcDbEntity
8
0
6
ByLayer
62
256
370
-1
100
AcDbCircle
10
17.7
20
11.3
40
0.25
0
CIRCLE
5
351
100
AcDbEntity
8
0
6
ByLayer
62
256
370
-1
100
AcDbCircle
10
17.7
20
11.3
40
0.065
0
CIRCLE
5
352
100
AcDbEntity
8
0
6
ByLayer
62
256
370
-1
100
AcDbCircle
10
17.7
20
10.7
40
0.25
0
CIRCLE
5
353
100
AcDbEntity
8
0
6
ByLayer
62
256
370
-1
100
AcDbCircle
10
17.7
20
10.7
40
0.065
0
CIRCLE
5
354
100
AcDbEntity
8
0
6
ByLayer
62
256
370
-1
100
AcDbCircle
10
17.7
20
10.1
40
0.25
0
CIRCLE
5
355
100
AcDbEntity
8
0
6
ByLayer
62
256
370
-1
100
AcDbCircle
10
17.7
20
10.1
40
0.065
0
CIRCLE
5
356
100
AcDbEntity
8
0
6
ByLayer
62
256
370
-1
100
AcDbCircle
10
13.7999989473
20
29.7999979602
40
0.065
0
CIRCLE
5
357
100
AcDbEntity
8
0
6
ByLayer
62
256
370
-1
100
AcDbCircle
10
13.2932411146
20
29.6833939338
40
0.065
0
CIRCLE
5
358
100
AcDbEntity
8
0
6
ByLayer
62
256
370
-1
100
AcDbCircle
10
13.1857872757
20
29.2584778567
40
0.065
0
CIRCLE
5
359
100
AcDbEntity
8
0
6
ByLayer
62
256
370
-1
100
AcDbCircle
10
13.4891044228
20
28.8767728551
40
0.065
0
CIRCLE
5
35A
100
AcDbEntity
8
0
6
ByLayer
62
256
370
-1
100
AcDbCircle
10
12.4114089473
20
24.8141779602
40
0.065
0
CIRCLE
5
35B
100
AcDbEntity
8
0
6
ByLayer
62
256
370
-1
100
AcDbCircle
10
11.9046511146
20
24.6975739338
40
0.065
0
CIRCLE
5
35C
100
AcDbEntity
8
0
6
ByLayer
62
256
370
-1
100
AcDbCircle
10
11.7971972757
20
24.2726578567
40
0.065
0
CIRCLE
5
35D
100
AcDbEntity
8
0
6
ByLayer
62
256
370
-1
100
AcDbCircle
10
12.1005144228
20
23.8909528551
40
0.065
0
CIRCLE
5
35E
100
AcDbEntity
8
0
6
ByLayer
62
256
370
-1
100
AcDbCircle
10
11.03
20
21.92
40
0.065
0
CIRCLE
5
35F
100
AcDbEntity
8
0
6
ByLayer
62
256
370
-1
100
AcDbCircle
10
2.97
20
21.92
40
0.065
0
CIRCLE
5
360
100
AcDbEntity
8
0
6
ByLayer
62
256
370
-1
100
AcDbCircle
10
2.0000411146
20
26.9999939338
40
0.065
0
CIRCLE
5
361
100
AcDbEntity
8
0
6
ByLayer
62
256
370
-1
100
AcDbCircle
10
3.14025094468
20
29.2070960438
40
0.065
0
CIRCLE
5
362
100
AcDbEntity
8
0
6
ByLayer
62
256
370
-1
100
AcDbCircle
10
3.89244902233
20
29.8624570527
40
0.065
0
CIRCLE
5
363
100
AcDbEntity
8
0
6
ByLayer
62
256
370
-1
100
AcDbCircle
10
4.65887721318
20
30.5005697609
40
0.065
0
CIRCLE
5
364
100
AcDbEntity
8
0
6
ByLayer
62
256
370
-1
100
AcDbCircle
10
5.49498938726
20
31.103410065
40
0.065
0
CIRCLE
5
365
100
AcDbEntity
8
0
6
ByLayer
62
256
370
-1
100
AcDbCircle
10
6.19164857265
20
31.6433785636
40
0.065
0
CIRCLE
5
366
100
AcDbEntity
8
0
6
ByLayer
62
256
370
-1
100
AcDbCircle
10
7.06217232603
20
32.1412624806
40
0.065
0
CIRCLE
5
367
100
AcDbEntity
8
0
6
ByLayer
62
256
370
-1
100
AcDbCircle
10
8.01730095606
20
32.4944328362
40
0.065
0
CIRCLE
5
368
100
AcDbEntity
8
0
6
ByLayer
62
256
370
-1
100
AcDbCircle
10
8.93784796238
20
32.6857263519
40
0.065
0
CIRCLE
5
369
100
AcDbEntity
8
0
6
ByLayer
62
256
370
-1
100
AcDbCircle
10
9.86805528943
20
32.7458456392
40
0.065
0
CIRCLE
5
36A
100
AcDbEntity
8
0
6
ByLayer
62
256
370
-1
100
AcDbCircle
10
10.9780785374
20
32.6934205593
40
0.065
0
CIRCLE
5
36B
100
AcDbEntity
8
0
6
ByLayer
62
256
370
-1
100
AcDbCircle
10
12.0153996145
20
32.6447894694
40
0.065
0
CIRCLE
5
36C
100
AcDbEntity
8
0
6
ByLayer
62
256
370
-1
100
AcDbCircle
10
11.53
20
15.31
40
0.065
0
CIRCLE
5
36D
100
AcDbEntity
8
0
6
ByLayer
62
256
370
-1
100
AcDbCircle
10
11.86
20
14.47
40
0.065
0
CIRCLE
5
36E
100
AcDbEntity
8
0
6
ByLayer
62
256
370
-1
100
AcDbCircle
10
11.53
20
13.61
40
0.065
0
CIRCLE
5
36F
100
AcDbEntity
8
0
6
ByLayer
62
256
370
-1
100
AcDbCircle
10
2.47
20
15.31
40
0.065
0
CIRCLE
5
370
100
AcDbEntity
8
0
6
ByLayer
62
256
370
-1
100
AcDbCircle
10
2.2
20
14.47
40
0.065
0
CIRCLE
5
371
100
AcDbEntity
8
0
6
ByLayer
62
256
370
-1
100
AcDbCircle
10
2.47
20
13.61
40
0.065
0
CIRCLE
5
372
100
AcDbEntity
8
0
6
ByLayer
62
256
370
-1
100
AcDbCircle
10
17.7
20
9.5
40
0.25
0
CIRCLE
5
373
100
AcDbEntity
8
0
6
ByLayer
62
256
370
-1
100
AcDbCircle
10
17.7
20
9.5
40
0.065
0
CIRCLE
5
374
100
AcDbEntity
8
0
6
ByLayer
62
256
370
-1
100
AcDbCircle
10
17.7
20
8.9
40
0.25
0
CIRCLE
5
375
100
AcDbEntity
8
0
6
ByLayer
62
256
370
-1
100
AcDbCircle
10
17.7
20
8.9
40
0.065
0
CIRCLE
5
376
100
AcDbEntity
8
0
6
ByLayer
62
256
370
-1
100
AcDbCircle
10
17.7
20
8.3
40
0.25
0
CIRCLE
5
377
100
AcDbEntity
8
0
6
ByLayer
62
256
370
-1
100
AcDbCircle
10
17.7
20
8.3
40
0.065
0
CIRCLE
5
378
100
AcDbEntity
8
0
6
ByLayer
62
256
370
-1
100
AcDbCircle
10
17.7
20
7.7
40
0.25
0
CIRCLE
5
379
100
AcDbEntity
8
0
6
ByLayer
62
256
370
-1
100
AcDbCircle
10
17.7
20
7.7
40
0.065
0
ARC
5
37A
100
AcDbEntity
8
0
6
ByLayer
62
256
370
-1
100
AcDbCircle
10
19.7483333333
20
6.7483333333
40
0.256915463831
100
AcDbArc
50
11.601511532
51
78.398488468
0
LINE
5
37B
100
AcDbEntity
8
0
6
ByLayer
62
256
370
-1
100
AcDbLine
10
20
20
6.8
11
20
21
6.5
0
ARC
5
37C
100
AcDbEntity
8
0
6
ByLayer
62
256
370
-1
100
AcDbCircle
10
19.7483333333
20
6.5516666667
40
0.256915463831
100
AcDbArc
50
281.601511532
51
348.398488468
0
ARC
5
37D
100
AcDbEntity
8
0
6
ByLayer
62
256
370
-1
100
AcDbCircle
10
19.5516666667
20
6.7483333333
40
0.256915463831
100
AcDbArc
50
101.601511532
51
168.398488468
0
LINE
5
37E
100
AcDbEntity
8
0
6
ByLayer
62
256
370
-1
100
AcDbLine
10
19.3
20
6.8
11
19.3
21
6.5
0
ARC
5
37F
100
AcDbEntity
8
0
6
ByLayer
62
256
370
-1
100
AcDbCircle
10
19.5516666667
20
6.5516666667
40
0.256915463831
100
AcDbArc
50
191.601511532
51
258.398488468
0
LINE
5
380
100
AcDbEntity
8
0
6
ByLayer
62
256
370
-1
100
AcDbLine
10
19.8
20
6.99999999997
11
19.5
21
6.99999999997
0
LINE
5
381
100
AcDbEntity
8
0
6
ByLayer
62
256
370
-1
100
AcDbLine
10
19.5
20
6.30000000003
11
19.8
21
6.30000000003
0
CIRCLE
5
382
100
AcDbEntity
8
0
6
ByLayer
62
256
370
-1
100
AcDbCircle
10
19.65
20
6.65
40
0.065
0
ARC
5
383
100
AcDbEntity
8
0
6
ByLayer
62
256
370
-1
100
AcDbCircle
10
19.7483333333
20
5.7483333333
40
0.256915463831
100
AcDbArc
50
11.601511532
51
78.398488468
0
LINE
5
384
100
AcDbEntity
8
0
6
ByLayer
62
256
370
-1
100
AcDbLine
10
20
20
5.8
11
20
21
5.5
0
ARC
5
385
100
AcDbEntity
8
0
6
ByLayer
62
256
370
-1
100
AcDbCircle
10
19.7483333333
20
5.5516666667
40
0.256915463831
100
AcDbArc
50
281.601511532
51
348.398488468
0
ARC
5
386
100
AcDbEntity
8
0
6
ByLayer
62
256
370
-1
100
AcDbCircle
10
19.5516666667
20
5.7483333333
40
0.256915463831
100
AcDbArc
50
101.601511532
51
168.398488468
0
LINE
5
387
100
AcDbEntity
8
0
6
ByLayer
62
256
370
-1
100
AcDbLine
10
19.3
20
5.8
11
19.3
21
5.5
0
ARC
5
388
100
AcDbEntity
8
0
6
ByLayer
62
256
370
-1
100
AcDbCircle
10
19.5516666667
20
5.5516666667
40
0.256915463831
100
AcDbArc
50
191.601511532
51
258.398488468
0
LINE
5
389
100
AcDbEntity
8
0
6
ByLayer
62
256
370
-1
100
AcDbLine
10
19.8
20
5.99999999997
11
19.5
21
5.99999999997
0
LINE
5
38A
100
AcDbEntity
8
0
6
ByLayer
62
256
370
-1
100
AcDbLine
10
19.5
20
5.30000000003
11
19.8
21
5.30000000003
0
CIRCLE
5
38B
100
AcDbEntity
8
0
6
ByLayer
62
256
370
-1
100
AcDbCircle
10
19.65
20
5.65
40
0.065
0
ARC
5
38C
100
AcDbEntity
8
0
6
ByLayer
62
256
370
-1
100
AcDbCircle
10
18.7483333333
20
6.74833333333
40
0.256915463831
100
AcDbArc
50
11.601511532
51
78.398488468
0
LINE
5
38D
100
AcDbEntity
8
0
6
ByLayer
62
256
370
-1
100
AcDbLine
10
19
20
6.80000000003
11
19
21
6.50000000003
0
ARC
5
38E
100
AcDbEntity
8
0
6
ByLayer
62
256
370
-1
100
AcDbCircle
10
18.7483333333
20
6.55166666673
40
0.256915463831
100
AcDbArc
50
281.601511532
51
348.398488468
0
ARC
5
38F
100
AcDbEntity
8
0
6
ByLayer
62
256
370
-1
100
AcDbCircle
10
18.5516666667
20
6.74833333333
40
0.256915463831
100
AcDbArc
50
101.601511532
51
168.398488468
0
LINE
5
390
100
AcDbEntity
8
0
6
ByLayer
62
256
370
-1
100
AcDbLine
10
18.3
20
6.80000000003
11
18.3
21
6.50000000003
0
ARC
5
391
100
AcDbEntity
8
0
6
ByLayer
62
256
370
-1
100
AcDbCircle
10
18.5516666667
20
6.55166666673
40
0.256915463831
100
AcDbArc
50
191.601511532
51
258.398488468
0
LINE
5
392
100
AcDbEntity
8
0
6
ByLayer
62
256
370
-1
100
AcDbLine
10
18.8
20
7
11
18.5000000001
21
7
0
LINE
5
393
100
AcDbEntity
8
0
6
ByLayer
62
256
370
-1
100
AcDbLine
10
18.5000000001
20
6.30000000007
11
18.8
21
6.30000000007
0
CIRCLE
5
394
100
AcDbEntity
8
0
6
ByLayer
62
256
370
-1
100
AcDbCircle
10
18.65
20
6.65000000003
40
0.065
0
ARC
5
395
100
AcDbEntity
8
0
6
ByLayer
62
256
370
-1
100
AcDbCircle
10
18.7483333333
20
5.74833333333
40
0.256915463831
100
AcDbArc
50
11.601511532
51
78.398488468
0
LINE
5
396
100
AcDbEntity
8
0
6
ByLayer
62
256
370
-1
100
AcDbLine
10
19
20
5.80000000003
11
19
21
5.50000000003
0
ARC
5
397
100
AcDbEntity
8
0
6
ByLayer
62
256
370
-1
100
AcDbCircle
10
18.7483333333
20
5.55166666673
40
0.256915463831
100
AcDbArc
50
281.601511532
51
348.398488468
0
ARC
5
398
100
AcDbEntity
8
0
6
ByLayer
62
256
370
-1
100
AcDbCircle
10
18.5516666667
20
5.74833333333
40
0.256915463831
100
AcDbArc
50
101.601511532
51
168.398488468
0
LINE
5
399
100
AcDbEntity
8
0
6
ByLayer
62
256
370
-1
100
AcDbLine
10
18.3
20
5.80000000003
11
18.3
21
5.50000000003
0
ARC
5
39A
100
AcDbEntity
8
0
6
ByLayer
62
256
370
-1
100
AcDbCircle
10
18.5516666667
20
5.55166666673
40
0.256915463831
100
AcDbArc
50
191.601511532
51
258.398488468
0
LINE
5
39B
100
AcDbEntity
8
0
6
ByLayer
62
256
370
-1
100
AcDbLine
10
18.8
20
6
11
18.5000000001
21
6
0
LINE
5
39C
100
AcDbEntity
8
0
6
ByLayer
62
256
370
-1
100
AcDbLine
10
18.5000000001
20
5.30000000007
11
18.8
21
5.30000000007
0
CIRCLE
5
39D
100
AcDbEntity
8
0
6
ByLayer
62
256
370
-1
100
AcDbCircle
10
18.65
20
5.65000000003
40
0.065
0
CIRCLE
5
39E
100
AcDbEntity
8
0
6
ByLayer
62
256
370
-1
100
AcDbCircle
10
15.45
20
29.15
40
0.065
0
CIRCLE
5
39F
100
AcDbEntity
8
0
6
ByLayer
62
256
370
-1
100
AcDbCircle
10
15.3386869717
20
28.7450192477
40
0.065
0
CIRCLE
5
3A0
100
AcDbEntity
8
0
6
ByLayer
62
256
370
-1
100
AcDbCircle
10
14
20
24.3
40
0.065
0
CIRCLE
5
3A1
100
AcDbEntity
8
0
6
ByLayer
62
256
370
-1
100
AcDbCircle
10
13.8774809483
20
23.8825507234
40
0.065
0
LINE
5
3A2
100
AcDbEntity
8
0
6
ByLayer
62
256
370
-1
100
AcDbLine
10
13.1
20
22.4
11
15.7227091578
21
31.0002474878
0
ARC
5
3A3
100
AcDbEntity
8
0
6
ByLayer
62
256
370
-1
100
AcDbCircle
10
13.2777777778
20
22.3777777778
40
0.179161283295
100
AcDbArc
50
172.874983651
51
277.125016349
0
CIRCLE
5
3A4
100
AcDbEntity
8
0
6
ByLayer
62
256
370
-1
100
AcDbCircle
10
18.3
20
27.1
40
0.065
0
CIRCLE
5
3A5
100
AcDbEntity
8
0
6
ByLayer
62
256
370
-1
100
AcDbCircle
10
17.8797317566
20
26.136945171
40
0.065
0
CIRCLE
5
3A6
100
AcDbEntity
8
0
6
ByLayer
62
256
370
-1
100
AcDbCircle
10
17.4806659947
20
25.251029533
40
0.065
0
CIRCLE
5
3A7
100
AcDbEntity
8
0
6
ByLayer
62
256
370
-1
100
AcDbCircle
10
17.0709989921
20
24.3265442995
40
0.065
0
ARC
5
3A8
100
AcDbEntity
8
0
6
ByLayer
62
256
370
-1
100
AcDbCircle
10
6.17277235372
20
30.2820060409
40
13.0083352673
100
AcDbArc
50
273.646020428
51
294.029024128
0
ARC
5
3A9
100
AcDbEntity
8
0
6
ByLayer
62
256
370
-1
100
AcDbCircle
10
2.95373230651
20
19.8520952402
40
0.247081620216
100
AcDbArc
50
88.6891204828
51
171.396578065
0
ARC
5
3AA
100
AcDbEntity
8
0
6
ByLayer
62
256
370
-1
100
AcDbCircle
10
11.3296870451
20
18.7247014266
40
0.352723776488
100
AcDbArc
50
293.397811057
51
352.887573651
0
ARC
5
3AB
100
AcDbEntity
8
0
6
ByLayer
62
256
370
-1
100
AcDbCircle
10
7.46376309566
20
29.4118686185
40
12.1207441042
100
AcDbArc
50
248.440646435
51
267.807217486
0
ARC
5
3AC
100
AcDbEntity
8
0
6
ByLayer
62
256
370
-1
100
AcDbCircle
10
3.13166041578
20
18.4949192424
40
0.376081084728
100
AcDbArc
50
188.540458223
51
251.095863957
0
LINE
5
3AD
100
AcDbEntity
8
0
6
ByLayer
62
256
370
-1
100
AcDbLine
10
2.70943098496
20
19.8890572659
11
2.75974960233
21
18.4390682878
0
ARC
5
3AE
100
AcDbEntity
8
0
6
ByLayer
62
256
370
-1
100
AcDbCircle
10
5.98631855344
20
56.8775716484
40
37.167331697
100
AcDbArc
50
271.870475373
51
278.16502678
0
ARC
5
3AF
100
AcDbEntity
8
0
6
ByLayer
62
256
370
-1
100
AcDbCircle
10
11.3828153859
20
19.0814621295
40
1.01241761859
100
AcDbArc
50
85.6624482417
51
96.6826967721
0
ARC
5
3B0
100
AcDbEntity
8
0
6
ByLayer
62
256
370
-1
100
AcDbCircle
10
8.52810129223
20
55.1800549854
40
35.4749004002
100
AcDbArc
50
261.559057761
51
267.853609168
0
ARC
5
3B1
100
AcDbEntity
8
0
6
ByLayer
62
256
370
-1
100
AcDbCircle
10
3.08987864888
20
18.221310057
40
1.88233087041
100
AcDbArc
50
82.9550072933
51
93.9752558239
0
ARC
5
3B2
100
AcDbEntity
8
0
6
ByLayer
62
256
370
-1
100
AcDbCircle
10
11.4137621945
20
19.8658014154
40
0.229754180982
100
AcDbArc
50
355.838596986
51
78.546054568
0
LINE
5
3B3
100
AcDbEntity
8
0
6
ByLayer
62
256
370
-1
100
AcDbLine
10
11.6429106487
20
19.8491289942
11
11.6796966501
21
18.6810283356
0
CIRCLE
5
3B4
100
AcDbEntity
8
0
6
ByLayer
62
256
370
-1
100
AcDbCircle
10
2.97866748716
20
19.8408016981
40
0.065
0
CIRCLE
5
3B5
100
AcDbEntity
8
0
6
ByLayer
62
256
370
-1
100
AcDbCircle
10
11.3722991548
20
19.8407433342
40
0.065
0
CIRCLE
5
3B6
100
AcDbEntity
8
0
6
ByLayer
62
256
370
-3
100
AcDbCircle
10
11.4596900645
20
18.7109690059
40
0.065
0
CIRCLE
5
3B7
100
AcDbEntity
8
0
6
ByLayer
62
256
370
-3
100
AcDbCircle
10
2.98
20
18.44
40
0.065
0
ARC
5
3B8
100
AcDbEntity
8
0
6
ByLayer
62
256
370
-1
100
AcDbCircle
10
-2.7257889126
20
8.70203624728
40
0.318574455031
100
AcDbArc
50
258.371944748
51
352.417646942
0
ARC
5
3B9
100
AcDbEntity
8
0
6
ByLayer
62
256
370
-1
100
AcDbCircle
10
-7.10815436242
20
-17.3116107384
40
26.0618351548
100
AcDbArc
50
80.4627490328
51
89.7622267867
0
ARC
5
3BA
100
AcDbEntity
8
0
6
ByLayer
62
256
370
-1
100
AcDbCircle
10
-2.9123239437
20
9.84917253505
40
0.462450714013
100
AcDbArc
50
1.341601847
51
62.669164587
0
LINE
5
3BB
100
AcDbEntity
8
0
6
ByLayer
62
256
370
-1
100
AcDbLine
10
-2.45
20
9.85999999995
11
-2.41
21
8.65999999995
0
CIRCLE
5
3BC
100
AcDbEntity
8
0
6
ByLayer
62
256
370
-1
100
AcDbCircle
10
-2.74
20
8.65999999995
40
0.065
0
ARC
5
3BD
100
AcDbEntity
8
0
6
ByLayer
62
256
370
-1
100
AcDbCircle
10
-11.2742110874
20
8.7020362473
40
0.318574455031
100
AcDbArc
50
187.582353058
51
281.628055252
0
ARC
5
3BE
100
AcDbEntity
8
0
6
ByLayer
62
256
370
-1
100
AcDbCircle
10
-6.89184563773
20
-17.3116107384
40
26.0618351548
100
AcDbArc
50
90.237773213
51
99.5372509669
0
ARC
5
3BF
100
AcDbEntity
8
0
6
ByLayer
62
256
370
-1
100
AcDbCircle
10
-6.5539597315
20
-1.14550335557
40
12.3535583952
100
AcDbArc
50
92.0691836382
51
112.593095295
0
ARC
5
3C0
100
AcDbEntity
8
0
6
ByLayer
62
256
370
-1
100
AcDbCircle
10
-11.0876760563
20
9.84917253507
40
0.462450714013
100
AcDbArc
50
117.330835413
51
178.658398153
0
LINE
5
3C1
100
AcDbEntity
8
0
6
ByLayer
62
256
370
-1
100
AcDbLine
10
-11.55
20
9.85999999998
11
-11.59
21
8.65999999998
0
CIRCLE
5
3C2
100
AcDbEntity
8
0
6
ByLayer
62
256
370
-1
100
AcDbCircle
10
-11.26
20
8.65999999997
40
0.065
0
CIRCLE
5
3C3
100
AcDbEntity
8
0
6
ByLayer
62
256
370
-1
100
AcDbCircle
10
-11.24
20
9.96
40
0.065
0
ARC
5
3C4
100
AcDbEntity
8
0
6
ByLayer
62
256
370
-1
100
AcDbCircle
10
2.7257889126
20
8.70203624728
40
0.318574455031
100
AcDbArc
50
187.582353058
51
281.628055252
0
ARC
5
3C5
100
AcDbEntity
8
0
6
ByLayer
62
256
370
-1
100
AcDbCircle
10
7.10815436242
20
-17.3116107384
40
26.0618351548
100
AcDbArc
50
90.2377732133
51
99.5372509672
0
ARC
5
3C6
100
AcDbEntity
8
0
6
ByLayer
62
256
370
-1
100
AcDbCircle
10
7.44604026856
20
-1.14550335557
40
12.3535583952
100
AcDbArc
50
92.0691836385
51
112.593095295
0
ARC
5
3C7
100
AcDbEntity
8
0
6
ByLayer
62
256
370
-1
100
AcDbCircle
10
2.9123239437
20
9.84917253505
40
0.462450714013
100
AcDbArc
50
117.330835413
51
178.658398153
0
LINE
5
3C8
100
AcDbEntity
8
0
6
ByLayer
62
256
370
-1
100
AcDbLine
10
2.45
20
9.85999999995
11
2.41
21
8.65999999995
0
CIRCLE
5
3C9
100
AcDbEntity
8
0
6
ByLayer
62
256
370
-1
100
AcDbCircle
10
2.74
20
8.65999999995
40
0.065
0
ARC
5
3CA
100
AcDbEntity
8
0
6
ByLayer
62
256
370
-1
100
AcDbCircle
10
11.2742110874
20
8.7020362473
40
0.318574455031
100
AcDbArc
50
258.371944748
51
352.417646942
0
ARC
5
3CB
100
AcDbEntity
8
0
6
ByLayer
62
256
370
-1
100
AcDbCircle
10
6.89184563773
20
-17.3116107384
40
26.0618351548
100
AcDbArc
50
80.4627490331
51
89.762226787
0
ARC
5
3CC
100
AcDbEntity
8
0
6
ByLayer
62
256
370
-1
100
AcDbCircle
10
6.5539597315
20
-1.14550335557
40
12.3535583952
100
AcDbArc
50
67.406904705
51
87.9308163618
0
ARC
5
3CD
100
AcDbEntity
8
0
6
ByLayer
62
256
370
-1
100
AcDbCircle
10
11.0876760563
20
9.84917253507
40
0.462450714013
100
AcDbArc
50
1.341601847
51
62.669164587
0
LINE
5
3CE
100
AcDbEntity
8
0
6
ByLayer
62
256
370
-1
100
AcDbLine
10
11.55
20
9.85999999998
11
11.59
21
8.65999999998
0
CIRCLE
5
3CF
100
AcDbEntity
8
0
6
ByLayer
62
256
370
-1
100
AcDbCircle
10
11.26
20
8.65999999997
40
0.065
0
CIRCLE
5
3D0
100
AcDbEntity
8
0
6
ByLayer
62
256
370
-1
100
AcDbCircle
10
11.24
20
9.96
40
0.065
0
CIRCLE
5
3D1
100
AcDbEntity
8
0
6
ByLayer
62
256
370
-1
100
AcDbCircle
10
2.76
20
9.96
40
0.065
0
ARC
5
3D2
100
AcDbEntity
8
0
6
ByLayer
62
256
370
-1
100
AcDbCircle
10
-7.44604
20
-1.1455
40
12.3536
100
AcDbArc
50
67.4069
51
87.9308
0
CIRCLE
5
3D3
100
AcDbEntity
8
0
6
ByLayer
62
256
370
-1
100
AcDbCircle
10
-2.76
20
9.96
40
0.065
0
ARC
5
3D4
100
AcDbEntity
8
0
6
ByLayer
62
256
370
-1
100
AcDbCircle
10
-14.4159574468
20
26.579787234
40
3.80310950663
100
AcDbArc
50
213.152199137
51
250.267474479
0
LINE
5
3D5
100
AcDbEntity
8
0
6
ByLayer
62
256
370
-1
100
AcDbLine
10
-15.7
20
23
11
-13.3
21
22.2
0
LINE
5
3D6
100
AcDbEntity
8
0
6
ByLayer
62
256
370
-1
100
AcDbLine
10
-19.130861418
20
27.8544887286
11
-17.6
21
24.5
0
ARC
5
3D7
100
AcDbEntity
8
0
6
ByLayer
62
256
370
-1
100
AcDbCircle
10
14.4159574468
20
26.579787234
40
3.80310950663
100
AcDbArc
50
289.732525521
51
326.847800863
0
LINE
5
3D8
100
AcDbEntity
8
0
6
ByLayer
62
256
370
-1
100
AcDbLine
10
15.7
20
23
11
13.3
21
22.2
0
LINE
5
3D9
100
AcDbEntity
8
0
6
ByLayer
62
256
370
-1
100
AcDbLine
10
19.130861418
20
27.8544887286
11
17.6
21
24.5
0
CIRCLE
5
3DA
100
AcDbEntity
8
0
6
ByLayer
62
256
370
-1
100
AcDbCircle
10
-2.9
20
6.65
40
0.065
0
ARC
5
3DB
100
AcDbEntity
8
0
6
ByLayer
62
256
370
-1
100
AcDbCircle
10
-7.71174496616
20
-3.82315436248
40
11.8445582432
100
AcDbArc
50
66.0310831688
51
86.5549948253
0
ARC
5
3DC
100
AcDbEntity
8
0
6
ByLayer
62
256
370
-1
100
AcDbCircle
10
-3.12165492962
20
6.41267605634
40
0.627758172089
100
AcDbArc
50
7.99602688007
51
69.3235896201
0
ARC
5
3DD
100
AcDbEntity
8
0
6
ByLayer
62
256
370
-1
100
AcDbCircle
10
-11.1906929637
20
5.55169509593
40
0.412147562975
100
AcDbArc
50
173.269296658
51
267.314998851
0
ARC
5
3DE
100
AcDbEntity
8
0
6
ByLayer
62
256
370
-1
100
AcDbCircle
10
-6.89184563693
20
-20.5616107384
40
26.061835155
100
AcDbArc
50
90.2377732147
51
99.5372509686
0
LINE
5
3DF
100
AcDbEntity
8
0
6
ByLayer
62
256
370
-1
100
AcDbLine
10
-11.5
20
6.49999999999
11
-11.6
21
5.59999999998
0
CIRCLE
5
3E0
100
AcDbEntity
8
0
6
ByLayer
62
256
370
-1
100
AcDbCircle
10
-11.1
20
6.64999999999
40
0.065
0
ARC
5
3E1
100
AcDbEntity
8
0
6
ByLayer
62
256
370
-1
100
AcDbCircle
10
-6.28825503378
20
-3.82315436248
40
11.8445582432
100
AcDbArc
50
93.4450051749
51
113.968916831
0
ARC
5
3E2
100
AcDbEntity
8
0
6
ByLayer
62
256
370
-1
100
AcDbCircle
10
-10.8783450704
20
6.41267605633
40
0.627758172089
100
AcDbArc
50
110.67641038
51
172.00397312
0
TEXT
5
3E3
100
AcDbEntity
8
0
6
ByLayer
62
256
370
-1
100
AcDbText
10
-4
20
34
30
0
40
0.5
1
April 13, 2016 at 3:46
50
0
41
1
51
0
7
iso
71
0
210
0
220
0
230
1
100
AcDbText
0
CIRCLE
5
3E4
100
AcDbEntity
8
0
6
ByLayer
62
256
370
-1
100
AcDbCircle
10
-11.15
20
5.45
40
0.065
0
CIRCLE
5
3E5
100
AcDbEntity
8
0
6
ByLayer
62
256
370
-1
100
AcDbCircle
10
-2.85
20
5.45
40
0.065
0
ARC
5
3E6
100
AcDbEntity
8
0
6
ByLayer
62
256
370
-1
100
AcDbCircle
10
2.80930703625
20
5.55169509594
40
0.412147562975
100
AcDbArc
50
173.269296657
51
267.314998851
0
ARC
5
3E7
100
AcDbEntity
8
0
6
ByLayer
62
256
370
-1
100
AcDbCircle
10
7.10815436295
20
-20.5616107384
40
26.061835155
100
AcDbArc
50
90.2377732145
51
99.5372509684
0
LINE
5
3E8
100
AcDbEntity
8
0
6
ByLayer
62
256
370
-1
100
AcDbLine
10
2.5
20
6.5
11
2.4
21
5.6
0
CIRCLE
5
3E9
100
AcDbEntity
8
0
6
ByLayer
62
256
370
-1
100
AcDbCircle
10
2.9
20
6.65
40
0.065
0
ARC
5
3EA
100
AcDbEntity
8
0
6
ByLayer
62
256
370
-1
100
AcDbCircle
10
7.71174496616
20
-3.82315436248
40
11.8445582432
100
AcDbArc
50
93.4450051747
51
113.968916831
0
ARC
5
3EB
100
AcDbEntity
8
0
6
ByLayer
62
256
370
-1
100
AcDbCircle
10
3.12165492962
20
6.41267605634
40
0.627758172089
100
AcDbArc
50
110.67641038
51
172.00397312
0
ARC
5
3EC
100
AcDbEntity
8
0
6
ByLayer
62
256
370
-1
100
AcDbCircle
10
11.1906929637
20
5.55169509593
40
0.412147562975
100
AcDbArc
50
272.685001149
51
6.730703342
0
ARC
5
3ED
100
AcDbEntity
8
0
6
ByLayer
62
256
370
-1
100
AcDbCircle
10
6.89184563693
20
-20.5616107384
40
26.061835155
100
AcDbArc
50
80.4627490314
51
89.7622267853
0
LINE
5
3EE
100
AcDbEntity
8
0
6
ByLayer
62
256
370
-1
100
AcDbLine
10
11.5
20
6.49999999999
11
11.6
21
5.59999999998
0
CIRCLE
5
3EF
100
AcDbEntity
8
0
6
ByLayer
62
256
370
-1
100
AcDbCircle
10
11.1
20
6.64999999999
40
0.065
0
ARC
5
3F0
100
AcDbEntity
8
0
6
ByLayer
62
256
370
-1
100
AcDbCircle
10
6.28825503378
20
-3.82315436248
40
11.8445582432
100
AcDbArc
50
66.031083169
51
86.5549948251
0
ARC
5
3F1
100
AcDbEntity
8
0
6
ByLayer
62
256
370
-1
100
AcDbCircle
10
10.8783450704
20
6.41267605633
40
0.627758172089
100
AcDbArc
50
7.99602688
51
69.32358962
0
CIRCLE
5
3F2
100
AcDbEntity
8
0
6
ByLayer
62
256
370
-1
100
AcDbCircle
10
11.15
20
5.45
40
0.065
0
CIRCLE
5
3F3
100
AcDbEntity
8
0
6
ByLayer
62
256
370
-1
100
AcDbCircle
10
2.85
20
5.45
40
0.065
0
ENDSEC
0
SECTION
2
OBJECTS
0
DICTIONARY
5
C
330
0
100
AcDbDictionary
281
1
3
ACAD_GROUP
350
D
0
DICTIONARY
5
D
330
C
100
AcDbDictionary
281
1
0
ENDSEC
0
EOF
