999
dxfrw 0.6.3
  0
SECTION
  2
HEADER
  9
$ACADVER
  1
AC1021
  9
$DWGCODEPAGE
  3
ANSI_1252
  9
$INSBASE
 10
0
 20
0
 30
0
  9
$EXTMIN
 10
-72.99694233231909
 20
6.808363750000001
 30
0
  9
$EXTMAX
 10
89.85605440000005
 20
86.66667340883939
 30
0
  9
$LIMMIN
 10
0
 20
0
  9
$LIMMAX
 10
420
 20
297
  9
$ORTHOMODE
 70
    0
  9
$REGENMODE
 70
    1
  9
$FILLMODE
 70
    1
  9
$QTEXTMODE
 70
    0
  9
$MIRRTEXT
 70
    0
  9
$LTSCALE
 40
1
  9
$ATTMODE
 70
    0
  9
$TEXTSIZE
 40
2.5
  9
$TRACEWID
 40
15.68
  9
$TEXTSTYLE
  7
STANDARD
  9
$CLAYER
  8
0
  9
$CELTYPE
  6
BYLAYER
  9
$CECOLOR
 62
  256
  9
$CELTSCALE
 40
1
  9
$DISPSILH
 70
    0
  9
$DIMSCALE
 40
1
  9
$DIMASZ
 40
0.1
  9
$DIMEXO
 40
0.025
  9
$DIMDLI
 40
3.75
  9
$DIMRND
 40
0
  9
$DIMDLE
 40
0
  9
$DIMEXE
 40
0.05
  9
$DIMTP
 40
0
  9
$DIMTM
 40
0
  9
$DIMTXT
 40
0.1
  9
$DIMCEN
 40
2.5
  9
$DIMTSZ
 40
0
  9
$DIMTOL
 70
    0
  9
$DIMLIM
 70
    0
  9
$DIMTIH
 70
    0
  9
$DIMTOH
 70
    0
  9
$DIMSE1
 70
    0
  9
$DIMSE2
 70
    0
  9
$DIMTAD
 70
    1
  9
$DIMZIN
 70
    8
  9
$DIMBLK
  1

  9
$DIMASO
 70
    1
  9
$DIMSHO
 70
    1
  9
$DIMPOST
  1

  9
$DIMAPOST
  1

  9
$DIMALT
 70
    0
  9
$DIMALTD
 70
    3
  9
$DIMALTF
 40
0.03937
  9
$DIMLFAC
 40
1
  9
$DIMTOFL
 70
    1
  9
$DIMTVP
 40
0
  9
$DIMTIX
 70
    0
  9
$DIMSOXD
 70
    0
  9
$DIMSAH
 70
    0
  9
$DIMBLK1
  1

  9
$DIMBLK2
  1

  9
$DIMSTYLE
  2
Standard
  9
$DIMCLRD
 70
    0
  9
$DIMCLRE
 70
    0
  9
$DIMCLRT
 70
    0
  9
$DIMTFAC
 40
1
  9
$DIMGAP
 40
0.025
  9
$DIMJUST
 70
    0
  9
$DIMSD1
 70
    0
  9
$DIMSD2
 70
    0
  9
$DIMTOLJ
 70
    0
  9
$DIMTZIN
 70
    8
  9
$DIMALTZ
 70
    0
  9
$DIMALTTZ
 70
    0
  9
$DIMUPT
 70
    0
  9
$DIMDEC
 70
    4
  9
$DIMTDEC
 70
    2
  9
$DIMALTU
 70
    2
  9
$DIMALTTD
 70
    3
  9
$DIMTXSTY
  7
standard
  9
$DIMAUNIT
 70
    0
  9
$DIMADEC
 70
    2
  9
$DIMALTRND
 40
0
  9
$DIMAZIN
 70
    0
  9
$DIMDSEP
 70
   44
  9
$DIMATFIT
 70
    3
  9
$DIMFRAC
 70
    0
  9
$DIMLDRBLK
  1
STANDARD
  9
$DIMLUNIT
 70
    2
  9
$DIMLWD
 70
   -2
  9
$DIMLWE
 70
   -2
  9
$DIMTMOVE
 70
    0
  9
$DIMFXL
 40
1
  9
$DIMFXLON
 70
    0
  9
$DIMJOGANG
 40
0.7854
  9
$DIMTFILL
 70
    0
  9
$DIMTFILLCLR
 70
    0
  9
$DIMARCSYM
 70
    0
  9
$DIMLTYPE
  6

  9
$DIMLTEX1
  6

  9
$DIMLTEX2
  6

  9
$LUNITS
 70
    2
  9
$LUPREC
 70
    4
  9
$SKETCHINC
 40
1
  9
$FILLETRAD
 40
0
  9
$AUNITS
 70
    0
  9
$AUPREC
 70
    2
  9
$MENU
  1
.
  9
$ELEVATION
 40
0
  9
$PELEVATION
 40
0
  9
$THICKNESS
 40
0
  9
$LIMCHECK
 70
    0
  9
$CHAMFERA
 40
0
  9
$CHAMFERB
 40
0
  9
$CHAMFERC
 40
0
  9
$CHAMFERD
 40
0
  9
$SKPOLY
 70
    0
  9
$USRTIMER
 70
    1
  9
$ANGBASE
 50
0
  9
$ANGDIR
 70
    0
  9
$PDMODE
 70
   34
  9
$PDSIZE
 40
0
  9
$PLINEWID
 40
0
  9
$SPLFRAME
 70
    0
  9
$SPLINETYPE
 70
    2
  9
$SPLINESEGS
 70
    8
  9
$HANDSEED
  5
20000
  9
$SURFTAB1
 70
    6
  9
$SURFTAB2
 70
    6
  9
$SURFTYPE
 70
    6
  9
$SURFU
 70
    6
  9
$SURFV
 70
    6
  9
$UCSBASE
  2

  9
$UCSNAME
  2

  9
$UCSORG
 10
0
 20
0
 30
0
  9
$UCSXDIR
 10
1
 20
0
 30
0
  9
$UCSYDIR
 10
0
 20
1
 30
0
  9
$UCSORTHOREF
  2

  9
$UCSORTHOVIEW
 70
    0
  9
$UCSORGTOP
 10
0
 20
0
 30
0
  9
$UCSORGBOTTOM
 10
0
 20
0
 30
0
  9
$UCSORGLEFT
 10
0
 20
0
 30
0
  9
$UCSORGRIGHT
 10
0
 20
0
 30
0
  9
$UCSORGFRONT
 10
0
 20
0
 30
0
  9
$UCSORGBACK
 10
0
 20
0
 30
0
  9
$PUCSBASE
  2

  9
$PUCSNAME
  2

  9
$PUCSORG
 10
0
 20
0
 30
0
  9
$PUCSXDIR
 10
1
 20
0
 30
0
  9
$PUCSYDIR
 10
0
 20
1
 30
0
  9
$PUCSORTHOREF
  2

  9
$PUCSORTHOVIEW
 70
    0
  9
$PUCSORGTOP
 10
0
 20
0
 30
0
  9
$PUCSORGBOTTOM
 10
0
 20
0
 30
0
  9
$PUCSORGLEFT
 10
0
 20
0
 30
0
  9
$PUCSORGRIGHT
 10
0
 20
0
 30
0
  9
$PUCSORGFRONT
 10
0
 20
0
 30
0
  9
$PUCSORGBACK
 10
0
 20
0
 30
0
  9
$USERI1
 70
    0
  9
$USERI2
 70
    0
  9
$USERI3
 70
    0
  9
$USERI4
 70
    0
  9
$USERI5
 70
    0
  9
$USERR1
 40
0
  9
$USERR2
 40
0
  9
$USERR3
 40
0
  9
$USERR4
 40
0
  9
$USERR5
 40
0
  9
$WORLDVIEW
 70
    1
  9
$SHADEDGE
 70
    3
  9
$SHADEDIF
 70
   70
  9
$TILEMODE
 70
    1
  9
$MAXACTVP
 70
   64
  9
$PINSBASE
 10
-3.217629150853037
 20
-20.47813325101984
 30
0
  9
$PLIMCHECK
 70
    0
  9
$PEXTMIN
 10
0
 20
0
 30
0
  9
$PEXTMAX
 10
0
 20
0
 30
0
  9
$GRIDMODE
 70
    1
  9
$SNAPSTYLE
 70
    0
  9
$GRIDUNIT
 10
0
 20
0
  9
$PLIMMIN
 10
0
 20
0
  9
$PLIMMAX
 10
91.40000000000001
 20
61
  9
$UNITMODE
 70
    0
  9
$VISRETAIN
 70
    1
  9
$PLINEGEN
 70
    0
  9
$PSLTSCALE
 70
    1
  9
$TREEDEPTH
 70
 3020
  9
$CMLSTYLE
  2
Standard
  9
$CMLJUST
 70
    0
  9
$CMLSCALE
 40
20
  9
$PROXYGRAPHICS
 70
    1
  9
$MEASUREMENT
 70
    1
  9
$CELWEIGHT
370
   -1
  9
$ENDCAPS
280
    0
  9
$JOINSTYLE
280
    0
  9
$LWDISPLAY
290
    0
  9
$INSUNITS
 70
    5
  9
$HYPERLINKBASE
  1

  9
$STYLESHEET
  1

  9
$XEDIT
290
    1
  9
$CEPSNTYPE
380
    0
  9
$PSTYLEMODE
290
    1
  9
$EXTNAMES
290
    1
  9
$PSVPSCALE
 40
1
  9
$OLESTARTUP
290
    0
  9
$SORTENTS
280
  127
  9
$INDEXCTL
280
    0
  9
$HIDETEXT
280
    1
  9
$XCLIPFRAME
290
    0
  9
$HALOGAP
280
    0
  9
$OBSCOLOR
 70
  257
  9
$OBSLTYPE
280
    0
  9
$INTERSECTIONDISPLAY
280
    0
  9
$INTERSECTIONCOLOR
 70
  257
  9
$DIMASSOC
280
    1
  9
$PROJECTNAME
  1

  9
$CAMERADISPLAY
290
    0
  9
$LENSLENGTH
 40
50
  9
$CAMERAHEIGHT
 40
0
  9
$STEPSPERSEC
 40
2
  9
$STEPSIZE
 40
50
  9
$3DDWFPREC
 40
2
  9
$PSOLWIDTH
 40
5
  9
$PSOLHEIGHT
 40
80
  9
$LOFTANG1
 40
1.570796326794897
  9
$LOFTANG2
 40
1.570796326794897
  9
$LOFTMAG1
 40
0
  9
$LOFTMAG2
 40
0
  9
$LOFTPARAM
 70
    7
  9
$LOFTNORMALS
280
    1
  9
$LATITUDE
 40
1
  9
$LONGITUDE
 40
1
  9
$NORTHDIRECTION
 40
0
  9
$TIMEZONE
 70
-8000
  9
$LIGHTGLYPHDISPLAY
280
    1
  9
$TILEMODELIGHTSYNCH
280
    1
  9
$SOLIDHIST
280
    1
  9
$SHOWHIST
280
    1
  9
$DWFFRAME
280
    2
  9
$DGNFRAME
280
    0
  9
$REALWORLDSCALE
290
    1
  9
$INTERFERECOLOR
 62
    1
  9
$CSHADOW
280
    0
  9
$SHADOWPLANELOCATION
 40
0
  0
ENDSEC
  0
SECTION
  2
CLASSES
  0
ENDSEC
  0
SECTION
  2
TABLES
  0
TABLE
  2
VPORT
  5
8
330
0
100
AcDbSymbolTable
 70
    1
  0
VPORT
  5
31
330
2
100
AcDbSymbolTableRecord
100
AcDbViewportTableRecord
  2
*ACTIVE
 70
    0
 10
0
 20
0
 11
1
 21
1
 12
107.0505452854412
 22
65.17258135959622
 13
0
 23
0
 14
10
 24
10
 15
10
 25
10
 16
0
 26
0
 36
1
 17
0
 27
0
 37
0
 40
228.4966406703916
 41
1.331042382588774
 42
50
 43
0
 44
0
 50
0
 51
0
 71
    0
 72
  100
 73
    1
 74
    3
 75
    0
 76
    1
 77
    0
 78
    0
281
    0
 65
    1
110
0
120
0
130
0
111
1
121
0
131
0
112
0
122
1
132
0
 79
    0
146
0
348
10020
 60
    7
 61
    5
292
1
282
    1
141
0
142
0
 63
  250
421
3358443
  0
ENDTAB
  0
TABLE
  2
LTYPE
  5
5
330
0
100
AcDbSymbolTable
 70
    4
  0
LTYPE
  5
14
330
5
100
AcDbSymbolTableRecord
100
AcDbLinetypeTableRecord
  2
ByBlock
 70
    0
  3

 72
   65
 73
    0
 40
0
  0
LTYPE
  5
15
330
5
100
AcDbSymbolTableRecord
100
AcDbLinetypeTableRecord
  2
ByLayer
 70
    0
  3

 72
   65
 73
    0
 40
0
  0
LTYPE
  5
16
330
5
100
AcDbSymbolTableRecord
100
AcDbLinetypeTableRecord
  2
Continuous
 70
    0
  3
Solid line
 72
   65
 73
    0
 40
0
  0
LTYPE
  5
32
330
5
100
AcDbSymbolTableRecord
100
AcDbLinetypeTableRecord
  2
DOT
 70
    0
  3
Dot . . . . . . . . . . . . . . . . . . . . . .
 72
   65
 73
    2
 40
6.35
 49
0
 74
    0
 49
-6.35
 74
    0
  0
LTYPE
  5
33
330
5
100
AcDbSymbolTableRecord
100
AcDbLinetypeTableRecord
  2
DOTTINY
 70
    0
  3
Dot (.15x) .....................................
 72
   65
 73
    2
 40
0.9525
 49
0
 74
    0
 49
-0.9525
 74
    0
  0
LTYPE
  5
34
330
5
100
AcDbSymbolTableRecord
100
AcDbLinetypeTableRecord
  2
DOT2
 70
    0
  3
Dot (.5x) .....................................
 72
   65
 73
    2
 40
3.175
 49
0
 74
    0
 49
-3.175
 74
    0
  0
LTYPE
  5
35
330
5
100
AcDbSymbolTableRecord
100
AcDbLinetypeTableRecord
  2
DOTX2
 70
    0
  3
Dot (2x) .  .  .  .  .  .  .  .  .  .  .  .  .
 72
   65
 73
    2
 40
12.7
 49
0
 74
    0
 49
-12.7
 74
    0
  0
LTYPE
  5
36
330
5
100
AcDbSymbolTableRecord
100
AcDbLinetypeTableRecord
  2
DASHED
 70
    0
  3
Dashed _ _ _ _ _ _ _ _ _ _ _ _ _ _ _ _ _
 72
   65
 73
    2
 40
19.05
 49
12.7
 74
    0
 49
-6.35
 74
    0
  0
LTYPE
  5
37
330
5
100
AcDbSymbolTableRecord
100
AcDbLinetypeTableRecord
  2
DASHEDTINY
 70
    0
  3
Dashed (.15x) _ _ _ _ _ _ _ _ _ _ _ _ _ _ _ _ _
 72
   65
 73
    2
 40
2.8575
 49
1.905
 74
    0
 49
-0.9525
 74
    0
  0
LTYPE
  5
38
330
5
100
AcDbSymbolTableRecord
100
AcDbLinetypeTableRecord
  2
DASHED2
 70
    0
  3
Dashed (.5x) _ _ _ _ _ _ _ _ _ _ _ _ _ _ _ _ _
 72
   65
 73
    2
 40
9.524999999999999
 49
6.35
 74
    0
 49
-3.175
 74
    0
  0
LTYPE
  5
39
330
5
100
AcDbSymbolTableRecord
100
AcDbLinetypeTableRecord
  2
DASHEDX2
 70
    0
  3
Dashed (2x) ____  ____  ____  ____  ____  ___
 72
   65
 73
    2
 40
38.09999999999999
 49
25.4
 74
    0
 49
-12.7
 74
    0
  0
LTYPE
  5
3A
330
5
100
AcDbSymbolTableRecord
100
AcDbLinetypeTableRecord
  2
DASHDOT
 70
    0
  3
Dash dot __ . __ . __ . __ . __ . __ . __ . __
 72
   65
 73
    4
 40
25.4
 49
12.7
 74
    0
 49
-6.35
 74
    0
 49
0
 74
    0
 49
-6.35
 74
    0
  0
LTYPE
  5
3B
330
5
100
AcDbSymbolTableRecord
100
AcDbLinetypeTableRecord
  2
DASHDOTTINY
 70
    0
  3
Dash dot (.15x) _._._._._._._._._._._._._._._.
 72
   65
 73
    4
 40
3.81
 49
1.905
 74
    0
 49
-0.9525
 74
    0
 49
0
 74
    0
 49
-0.9525
 74
    0
  0
LTYPE
  5
3C
330
5
100
AcDbSymbolTableRecord
100
AcDbLinetypeTableRecord
  2
DASHDOT2
 70
    0
  3
Dash dot (.5x) _._._._._._._._._._._._._._._.
 72
   65
 73
    4
 40
12.7
 49
6.35
 74
    0
 49
-3.175
 74
    0
 49
0
 74
    0
 49
-3.175
 74
    0
  0
LTYPE
  5
3D
330
5
100
AcDbSymbolTableRecord
100
AcDbLinetypeTableRecord
  2
DASHDOTX2
 70
    0
  3
Dash dot (2x) ____  .  ____  .  ____  .  ___
 72
   65
 73
    4
 40
50.8
 49
25.4
 74
    0
 49
-12.7
 74
    0
 49
0
 74
    0
 49
-12.7
 74
    0
  0
LTYPE
  5
3E
330
5
100
AcDbSymbolTableRecord
100
AcDbLinetypeTableRecord
  2
DIVIDE
 70
    0
  3
Divide ____ . . ____ . . ____ . . ____ . . ____
 72
   65
 73
    6
 40
31.75
 49
12.7
 74
    0
 49
-6.35
 74
    0
 49
0
 74
    0
 49
-6.35
 74
    0
 49
0
 74
    0
 49
-6.35
 74
    0
  0
LTYPE
  5
3F
330
5
100
AcDbSymbolTableRecord
100
AcDbLinetypeTableRecord
  2
DIVIDETINY
 70
    0
  3
Divide (.15x) __..__..__..__..__..__..__..__.._
 72
   65
 73
    6
 40
4.7625
 49
1.905
 74
    0
 49
-0.9525
 74
    0
 49
0
 74
    0
 49
-0.9525
 74
    0
 49
0
 74
    0
 49
-0.9525
 74
    0
  0
LTYPE
  5
40
330
5
100
AcDbSymbolTableRecord
100
AcDbLinetypeTableRecord
  2
DIVIDE2
 70
    0
  3
Divide (.5x) __..__..__..__..__..__..__..__.._
 72
   65
 73
    6
 40
15.875
 49
6.35
 74
    0
 49
-3.175
 74
    0
 49
0
 74
    0
 49
-3.175
 74
    0
 49
0
 74
    0
 49
-3.175
 74
    0
  0
LTYPE
  5
41
330
5
100
AcDbSymbolTableRecord
100
AcDbLinetypeTableRecord
  2
DIVIDEX2
 70
    0
  3
Divide (2x) ________  .  .  ________  .  .  _
 72
   65
 73
    6
 40
63.5
 49
25.4
 74
    0
 49
-12.7
 74
    0
 49
0
 74
    0
 49
-12.7
 74
    0
 49
0
 74
    0
 49
-12.7
 74
    0
  0
LTYPE
  5
42
330
5
100
AcDbSymbolTableRecord
100
AcDbLinetypeTableRecord
  2
BORDER
 70
    0
  3
Border __ __ . __ __ . __ __ . __ __ . __ __ .
 72
   65
 73
    6
 40
44.45
 49
12.7
 74
    0
 49
-6.35
 74
    0
 49
12.7
 74
    0
 49
-6.35
 74
    0
 49
0
 74
    0
 49
-6.35
 74
    0
  0
LTYPE
  5
43
330
5
100
AcDbSymbolTableRecord
100
AcDbLinetypeTableRecord
  2
BORDERTINY
 70
    0
  3
Border (.15x) __.__.__.__.__.__.__.__.__.__.__.
 72
   65
 73
    6
 40
6.6675
 49
1.905
 74
    0
 49
-0.9525
 74
    0
 49
1.905
 74
    0
 49
-0.9525
 74
    0
 49
0
 74
    0
 49
-0.9525
 74
    0
  0
LTYPE
  5
44
330
5
100
AcDbSymbolTableRecord
100
AcDbLinetypeTableRecord
  2
BORDER2
 70
    0
  3
Border (.5x) __.__.__.__.__.__.__.__.__.__.__.
 72
   65
 73
    6
 40
22.225
 49
6.35
 74
    0
 49
-3.175
 74
    0
 49
6.35
 74
    0
 49
-3.175
 74
    0
 49
0
 74
    0
 49
-3.175
 74
    0
  0
LTYPE
  5
45
330
5
100
AcDbSymbolTableRecord
100
AcDbLinetypeTableRecord
  2
BORDERX2
 70
    0
  3
Border (2x) ____  ____  .  ____  ____  .  ___
 72
   65
 73
    6
 40
88.89999999999999
 49
25.4
 74
    0
 49
-12.7
 74
    0
 49
25.4
 74
    0
 49
-12.7
 74
    0
 49
0
 74
    0
 49
-12.7
 74
    0
  0
LTYPE
  5
46
330
5
100
AcDbSymbolTableRecord
100
AcDbLinetypeTableRecord
  2
CENTER
 70
    0
  3
Center ____ _ ____ _ ____ _ ____ _ ____ _ ____
 72
   65
 73
    4
 40
50.8
 49
31.75
 74
    0
 49
-6.35
 74
    0
 49
6.35
 74
    0
 49
-6.35
 74
    0
  0
LTYPE
  5
47
330
5
100
AcDbSymbolTableRecord
100
AcDbLinetypeTableRecord
  2
CENTERTINY
 70
    0
  3
Center (.15x) ___ _ ___ _ ___ _ ___ _ ___ _ ___
 72
   65
 73
    4
 40
7.619999999999999
 49
4.7625
 74
    0
 49
-0.9525
 74
    0
 49
0.9525
 74
    0
 49
-0.9525
 74
    0
  0
LTYPE
  5
48
330
5
100
AcDbSymbolTableRecord
100
AcDbLinetypeTableRecord
  2
CENTER2
 70
    0
  3
Center (.5x) ___ _ ___ _ ___ _ ___ _ ___ _ ___
 72
   65
 73
    4
 40
28.575
 49
19.05
 74
    0
 49
-3.175
 74
    0
 49
3.175
 74
    0
 49
-3.175
 74
    0
  0
LTYPE
  5
49
330
5
100
AcDbSymbolTableRecord
100
AcDbLinetypeTableRecord
  2
CENTERX2
 70
    0
  3
Center (2x) ________  __  ________  __  _____
 72
   65
 73
    4
 40
101.6
 49
63.5
 74
    0
 49
-12.7
 74
    0
 49
12.7
 74
    0
 49
-12.7
 74
    0
  0
ENDTAB
  0
TABLE
  2
LAYER
  5
2
330
0
100
AcDbSymbolTable
 70
    1
  0
LAYER
  5
10
330
2
100
AcDbSymbolTableRecord
100
AcDbLayerTableRecord
  2
0
 70
    0
 62
    7
  6
CONTINUOUS
370
   -3
390
F
  0
ENDTAB
  0
TABLE
  2
STYLE
  5
3
330
0
100
AcDbSymbolTable
 70
    3
  0
STYLE
  5
4A
330
2
100
AcDbSymbolTableRecord
100
AcDbTextStyleTableRecord
  2
unicode
 70
    0
 40
0
 41
1
 50
0
 71
    0
 42
1
  3
unicode
  4

  0
STYLE
  5
4B
330
2
100
AcDbSymbolTableRecord
100
AcDbTextStyleTableRecord
  2
Standard
 70
    0
 40
0
 41
1
 50
0
 71
    0
 42
1
  3
txt
  4

  0
ENDTAB
  0
TABLE
  2
VIEW
  5
6
330
0
100
AcDbSymbolTable
 70
    0
  0
ENDTAB
  0
TABLE
  2
UCS
  5
7
330
0
100
AcDbSymbolTable
 70
    0
  0
ENDTAB
  0
TABLE
  2
APPID
  5
9
330
0
100
AcDbSymbolTable
 70
    1
  0
APPID
  5
12
330
9
100
AcDbSymbolTableRecord
100
AcDbRegAppTableRecord
  2
ACAD
 70
    0
  0
APPID
  5
4C
330
9
100
AcDbSymbolTableRecord
100
AcDbRegAppTableRecord
  2
LibreCad
 70
    0
  0
ENDTAB
  0
TABLE
  2
DIMSTYLE
  5
A
330
0
100
AcDbSymbolTable
 70
    1
100
AcDbDimStyleTable
 71
    1
  0
DIMSTYLE
105
4D
330
A
100
AcDbSymbolTableRecord
100
AcDbDimStyleTableRecord
  2
Standard
 70
    0
 40
1
 41
0.1
 42
0.025
 43
0.38
 44
0.05
 45
0
 46
0
 47
0
 48
0
 49
1
140
0.1
141
0.09
142
0
143
25.4
144
1
145
0
146
1
147
0.025
148
0
 71
    0
 72
    0
 73
    0
 74
    1
 75
    0
 76
    0
 77
    0
 78
    8
 79
    0
170
    0
171
    2
172
    0
173
    0
174
    0
175
    0
176
    0
177
    0
178
    0
179
    2
271
    4
272
    4
273
    2
274
    2
275
    0
276
    0
277
    2
278
   44
279
    0
280
    0
281
    0
282
    0
283
    1
284
    0
285
    0
286
    0
288
    0
289
    3
340
standard
341

371
   -2
372
   -2
  0
ENDTAB
  0
TABLE
  2
BLOCK_RECORD
  5
1
330
0
100
AcDbSymbolTable
 70
    2
  0
BLOCK_RECORD
  5
1F
330
1
100
AcDbSymbolTableRecord
100
AcDbBlockTableRecord
  2
*Model_Space
 70
    0
280
    1
281
    0
  0
BLOCK_RECORD
  5
1E
330
1
100
AcDbSymbolTableRecord
100
AcDbBlockTableRecord
  2
*Paper_Space
 70
    0
280
    1
281
    0
  0
ENDTAB
  0
ENDSEC
  0
SECTION
  2
BLOCKS
  0
BLOCK
  5
20
330
1F
100
AcDbEntity
  8
0
100
AcDbBlockBegin
  2
*Model_Space
 70
    0
 10
0
 20
0
 30
0
  3
*Model_Space
  1

  0
ENDBLK
  5
21
330
1F
100
AcDbEntity
  8
0
100
AcDbBlockEnd
  0
BLOCK
  5
1C
330
1B
100
AcDbEntity
  8
0
100
AcDbBlockBegin
  2
*Paper_Space
 70
    0
 10
0
 20
0
 30
0
  3
*Paper_Space
  1

  0
ENDBLK
  5
1D
330
1F
100
AcDbEntity
  8
0
100
AcDbBlockEnd
  0
ENDSEC
  0
SECTION
  2
ENTITIES
  0
LINE
  5
4E
100
AcDbEntity
  8
0
  6
ByLayer
 62
  256
370
   -1
100
AcDbLine
 10
50
 20
30.7334175
 11
38.0221474
 21
30.7334175
  0
LINE
  5
4F
100
AcDbEntity
  8
0
  6
ByLayer
 62
  256
370
   -1
100
AcDbLine
 10
38.07422502
 20
8.200823499999998
 11
50
 21
8.078363749999998
  0
LINE
  5
50
100
AcDbEntity
  8
0
  6
ByLayer
 62
  256
370
   -1
100
AcDbLine
 10
50
 20
19.71204
 11
38.2825355
 21
19.80388481249999
  0
ELLIPSE
  5
51
100
AcDbEntity
  8
0
  6
ByLayer
 62
  256
370
   -1
100
AcDbEllipse
 10
50
 20
57.365
 30
0
 11
0.1667510000000033
 21
0
 31
0
 40
0.9900990099009899
 41
0
 42
6.283185307179586
  0
LINE
  5
52
100
AcDbEntity
  8
0
  6
ByLayer
 62
  256
370
   -1
100
AcDbLine
 10
37.85283100164201
 20
29.46278249999997
 11
50.00000000164206
 21
29.46309999999998
  0
LINE
  5
53
100
AcDbEntity
  8
0
  6
ByLayer
 62
  256
370
   -1
100
AcDbLine
 10
50
 20
18.376
 11
37.6835146
 21
18.53602
  0
LINE
  5
54
100
AcDbEntity
  8
0
  6
ByLayer
 62
  256
370
   -1
100
AcDbLine
 10
36.813844
 20
6.945999999999998
 11
50
 21
6.808363750000001
  0
ELLIPSE
  5
55
100
AcDbEntity
  8
0
  6
ByLayer
 62
  256
370
   -1
100
AcDbEllipse
 10
44.92812022380596
 20
55.88101911714015
 30
0
 11
0.1667510000000033
 21
0
 31
0
 40
0.9900990099009899
 41
0
 42
6.283185307179586
  0
ELLIPSE
  5
56
100
AcDbEntity
  8
0
  6
ByLayer
 62
  256
370
   -1
100
AcDbEllipse
 10
39.85624044761187
 20
54.39703823428027
 30
0
 11
0.1667510000000033
 21
0
 31
0
 40
0.9900990099009899
 41
0
 42
6.283185307179586
  0
ELLIPSE
  5
57
100
AcDbEntity
  8
0
  6
ByLayer
 62
  256
370
   -1
100
AcDbEllipse
 10
34.78436067141778
 20
52.91305735142038
 30
0
 11
0.1667510000000033
 21
0
 31
0
 40
0.9900990099009899
 41
0
 42
6.283185307179586
  0
ELLIPSE
  5
58
100
AcDbEntity
  8
0
  6
ByLayer
 62
  256
370
   -1
100
AcDbEllipse
 10
29.71248089522373
 20
51.42907646856052
 30
0
 11
0.1667510000000033
 21
0
 31
0
 40
0.9900990099009899
 41
0
 42
6.283185307179586
  0
ELLIPSE
  5
59
100
AcDbEntity
  8
0
  6
ByLayer
 62
  256
370
   -1
100
AcDbEllipse
 10
24.64060111902965
 20
49.94509558570064
 30
0
 11
0.1667510000000033
 21
0
 31
0
 40
0.9900990099009899
 41
0
 42
6.283185307179586
  0
ELLIPSE
  5
5A
100
AcDbEntity
  8
0
  6
ByLayer
 62
  256
370
   -1
100
AcDbEllipse
 10
19.56872134283557
 20
48.46111470284075
 30
0
 11
0.1667510000000033
 21
0
 31
0
 40
0.9900990099009899
 41
0
 42
6.283185307179586
  0
ELLIPSE
  5
5B
100
AcDbEntity
  8
0
  6
ByLayer
 62
  256
370
   -1
100
AcDbEllipse
 10
49.99995384949752
 20
30.06317467116416
 30
0
 11
0.1667510000000033
 21
0
 31
0
 40
0.9900990099009899
 41
0
 42
6.283185307179586
  0
ELLIPSE
  5
5C
100
AcDbEntity
  8
0
  6
ByLayer
 62
  256
370
   -1
100
AcDbEllipse
 10
44.71130322832789
 20
30.08747826839969
 30
0
 11
0.1667510000000033
 21
0
 31
0
 40
0.9900990099009899
 41
0
 42
6.283185307179586
  0
ELLIPSE
  5
5D
100
AcDbEntity
  8
0
  6
ByLayer
 62
  256
370
   -1
100
AcDbEllipse
 10
39.42265260715823
 20
30.11178186563522
 30
0
 11
0.1667510000000033
 21
0
 31
0
 40
0.9900990099009899
 41
0
 42
6.283185307179586
  0
ELLIPSE
  5
5E
100
AcDbEntity
  8
0
  6
ByLayer
 62
  256
370
   -1
100
AcDbEllipse
 10
34.13654281306472
 20
30.23932045531097
 30
0
 11
0.1667510000000033
 21
0
 31
0
 40
0.9900990099009899
 41
0
 42
6.283185307179586
  0
ELLIPSE
  5
5F
100
AcDbEntity
  8
0
  6
ByLayer
 62
  256
370
   -1
100
AcDbEllipse
 10
28.9005096794738
 20
30.96891142001937
 30
0
 11
0.1667510000000033
 21
0
 31
0
 40
0.9900990099009899
 41
0
 42
6.283185307179586
  0
ELLIPSE
  5
60
100
AcDbEntity
  8
0
  6
ByLayer
 62
  256
370
   -1
100
AcDbEllipse
 10
23.76382389621166
 20
32.21013714518772
 30
0
 11
0.1667510000000033
 21
0
 31
0
 40
0.9900990099009899
 41
0
 42
6.283185307179586
  0
ELLIPSE
  5
61
100
AcDbEntity
  8
0
  6
ByLayer
 62
  256
370
   -1
100
AcDbEllipse
 10
18.80717580250949
 20
34.03156767637004
 30
0
 11
0.1667510000000033
 21
0
 31
0
 40
0.9900990099009899
 41
0
 42
6.283185307179586
  0
ELLIPSE
  5
62
100
AcDbEntity
  8
0
  6
ByLayer
 62
  256
370
   -1
100
AcDbEllipse
 10
50.00078368782484
 20
19.04262609343103
 30
0
 11
0.1667510000000033
 21
0
 31
0
 40
0.9900990099009899
 41
0
 42
6.283185307179586
  0
ELLIPSE
  5
63
100
AcDbEntity
  8
0
  6
ByLayer
 62
  256
370
   -1
100
AcDbEllipse
 10
44.71248551510259
 20
19.10778007302617
 30
0
 11
0.1667510000000033
 21
0
 31
0
 40
0.9900990099009899
 41
0
 42
6.283185307179586
  0
ELLIPSE
  5
64
100
AcDbEntity
  8
0
  6
ByLayer
 62
  256
370
   -1
100
AcDbEllipse
 10
39.42418734238032
 20
19.17293405262133
 30
0
 11
0.1667510000000033
 21
0
 31
0
 40
0.9900990099009899
 41
0
 42
6.283185307179586
  0
ELLIPSE
  5
65
100
AcDbEntity
  8
0
  6
ByLayer
 62
  256
370
   -1
100
AcDbEllipse
 10
34.13977717425777
 20
19.33720410403094
 30
0
 11
0.1667510000000033
 21
0
 31
0
 40
0.9900990099009899
 41
0
 42
6.283185307179586
  0
ELLIPSE
  5
66
100
AcDbEntity
  8
0
  6
ByLayer
 62
  256
370
   -1
100
AcDbEllipse
 10
28.89659833915852
 20
20.01835102672446
 30
0
 11
0.1667510000000033
 21
0
 31
0
 40
0.9900990099009899
 41
0
 42
6.283185307179586
  0
ELLIPSE
  5
67
100
AcDbEntity
  8
0
  6
ByLayer
 62
  256
370
   -1
100
AcDbEllipse
 10
23.75108555823793
 20
21.21874106787197
 30
0
 11
0.1667510000000033
 21
0
 31
0
 40
0.9900990099009899
 41
0
 42
6.283185307179586
  0
ELLIPSE
  5
68
100
AcDbEntity
  8
0
  6
ByLayer
 62
  256
370
   -1
100
AcDbEllipse
 10
18.73355172437279
 20
22.86975485605568
 30
0
 11
0.1667510000000033
 21
0
 31
0
 40
0.9900990099009899
 41
0
 42
6.283185307179586
  0
ELLIPSE
  5
69
100
AcDbEntity
  8
0
  6
ByLayer
 62
  256
370
   -1
100
AcDbEllipse
 10
16.47678952174175
 20
47.71125722826254
 30
0
 11
0.4661986245417801
 21
0
 31
0
 40
0.9900990099009901
 41
1.959744133969969
 42
3.317754751352938
  0
LINE
  5
6A
100
AcDbEntity
  8
0
  6
ByLayer
 62
  256
370
   -1
100
AcDbLine
 10
16.01780599999816
 20
47.63036374996857
 11
16.27947680029435
 21
46.81756374998039
  0
ELLIPSE
  5
6B
100
AcDbEntity
  8
0
  6
ByLayer
 62
  256
370
   -1
100
AcDbEllipse
 10
16.60784800029435
 20
47.57956374998041
 30
0
 11
0.1667510000000033
 21
0
 31
0
 40
0.9900990099009899
 41
0
 42
6.283185307179586
  0
LINE
  5
6C
100
AcDbEntity
  8
0
  6
ByLayer
 62
  256
370
   -1
100
AcDbLine
 10
50
 20
58
 11
16.3
 21
48.13836375
  0
LINE
  5
6D
100
AcDbEntity
  8
0
  6
ByLayer
 62
  256
370
   -1
100
AcDbLine
 10
50
 20
56.6792
 11
16.27917706398698
 21
46.81849478879081
  0
ELLIPSE
  5
6E
100
AcDbEntity
  8
0
  6
ByLayer
 62
  256
370
   -1
100
AcDbEllipse
 10
55.07187977619404
 20
55.88101911714015
 30
0
 11
-0.166751000000005
 21
0
 31
0
 40
0.9900990099009899
 41
0
 42
6.283185307179586
  0
ELLIPSE
  5
6F
100
AcDbEntity
  8
0
  6
ByLayer
 62
  256
370
   -1
100
AcDbEllipse
 10
60.14375955238813
 20
54.39703823428027
 30
0
 11
-0.166751000000005
 21
0
 31
0
 40
0.9900990099009899
 41
0
 42
6.283185307179586
  0
ELLIPSE
  5
70
100
AcDbEntity
  8
0
  6
ByLayer
 62
  256
370
   -1
100
AcDbEllipse
 10
65.21563932858221
 20
52.91305735142038
 30
0
 11
-0.166751000000005
 21
0
 31
0
 40
0.9900990099009899
 41
0
 42
6.283185307179586
  0
ELLIPSE
  5
71
100
AcDbEntity
  8
0
  6
ByLayer
 62
  256
370
   -1
100
AcDbEllipse
 10
70.28751910477627
 20
51.42907646856052
 30
0
 11
-0.166751000000005
 21
0
 31
0
 40
0.9900990099009899
 41
0
 42
6.283185307179586
  0
ELLIPSE
  5
72
100
AcDbEntity
  8
0
  6
ByLayer
 62
  256
370
   -1
100
AcDbEllipse
 10
75.35939888097035
 20
49.94509558570064
 30
0
 11
-0.166751000000005
 21
0
 31
0
 40
0.9900990099009899
 41
0
 42
6.283185307179586
  0
ELLIPSE
  5
73
100
AcDbEntity
  8
0
  6
ByLayer
 62
  256
370
   -1
100
AcDbEllipse
 10
80.43127865716443
 20
48.46111470284075
 30
0
 11
-0.166751000000005
 21
0
 31
0
 40
0.9900990099009899
 41
0
 42
6.283185307179586
  0
ELLIPSE
  5
74
100
AcDbEntity
  8
0
  6
ByLayer
 62
  256
370
   -1
100
AcDbEllipse
 10
83.52321047825825
 20
47.71125722826254
 30
0
 11
-0.4661986245417751
 21
0
 31
0
 40
0.9900990099009901
 41
2.965430555826649
 42
4.323441173209618
  0
LINE
  5
75
100
AcDbEntity
  8
0
  6
ByLayer
 62
  256
370
   -1
100
AcDbLine
 10
83.98219400000184
 20
47.63036374996857
 11
83.72052319970565
 21
46.81756374998039
  0
ELLIPSE
  5
76
100
AcDbEntity
  8
0
  6
ByLayer
 62
  256
370
   -1
100
AcDbEllipse
 10
83.39215199970565
 20
47.57956374998041
 30
0
 11
-0.166751000000005
 21
0
 31
0
 40
0.9900990099009899
 41
0
 42
6.283185307179586
  0
LINE
  5
77
100
AcDbEntity
  8
0
  6
ByLayer
 62
  256
370
   -1
100
AcDbLine
 10
50
 20
58
 11
83.7
 21
48.13836375
  0
LINE
  5
78
100
AcDbEntity
  8
0
  6
ByLayer
 62
  256
370
   -1
100
AcDbLine
 10
50
 20
56.6792
 11
83.72082293601302
 21
46.81849478879081
  0
LINE
  5
79
100
AcDbEntity
  8
0
  6
ByLayer
 62
  256
370
   -1
100
AcDbLine
 10
-40.00000000000004
 20
60.00000000000001
 11
-12.47325800000003
 21
51.87200000000001
  0
ELLIPSE
  5
7A
100
AcDbEntity
  8
0
  6
ByLayer
 62
  256
370
   -1
100
AcDbEllipse
 10
-12.66415394116141
 20
51.37539264701401
 30
0
 11
0.5366723045763836
 21
0
 31
0
 40
0.99009900990099
 41
6.068900626015651
 42
1.207130187980215
  0
LINE
  5
7B
100
AcDbEntity
  8
0
  6
ByLayer
 62
  256
370
   -1
100
AcDbLine
 10
-40.00000000000004
 20
60.00000000000001
 11
-67.52674200000004
 21
51.87200000000001
  0
ELLIPSE
  5
7C
100
AcDbEntity
  8
0
  6
ByLayer
 62
  256
370
   -1
100
AcDbEllipse
 10
-67.33584605883865
 20
51.37539264701401
 30
0
 11
0.5366723045763836
 21
0
 31
0
 40
0.99009900990099
 41
1.934462465611335
 42
3.355877334753725
  0
LINE
  5
7D
100
AcDbEntity
  8
0
  6
ByLayer
 62
  256
370
   -1
100
AcDbLine
 10
-40.00000000000004
 20
58.67920000000001
 11
-67.66527360000003
 21
50.51056000000001
  0
LINE
  5
7E
100
AcDbEntity
  8
0
  6
ByLayer
 62
  256
370
   -1
100
AcDbLine
 10
-67.86024400000004
 20
51.26240000000001
 11
-67.66527360000003
 21
50.51056000000001
  0
LINE
  5
7F
100
AcDbEntity
  8
0
  6
ByLayer
 62
  256
370
   -1
100
AcDbLine
 10
-40.00000000000004
 20
58.67920000000001
 11
-12.33472640000003
 21
50.51056000000001
  0
LINE
  5
80
100
AcDbEntity
  8
0
  6
ByLayer
 62
  256
370
   -1
100
AcDbLine
 10
-12.13975600000003
 20
51.26240000000001
 11
-12.33472640000003
 21
50.51056000000001
  0
ELLIPSE
  5
81
100
AcDbEntity
  8
0
  6
ByLayer
 62
  256
370
   -1
100
AcDbEllipse
 10
-40.00000000000004
 20
33.965
 30
0
 11
0.1667510000000033
 21
0
 31
0
 40
0.9900990099009899
 41
0
 42
6.283185307179586
  0
ELLIPSE
  5
82
100
AcDbEntity
  8
0
  6
ByLayer
 62
  256
370
   -1
100
AcDbEllipse
 10
-39.99999999863108
 20
9.442887500182341
 30
0
 11
0.1667510000000033
 21
0
 31
0
 40
0.9900990099009899
 41
0
 42
6.283185307179586
  0
ELLIPSE
  5
83
100
AcDbEntity
  8
0
  6
ByLayer
 62
  256
370
   -1
100
AcDbEllipse
 10
-40.00000000000004
 20
59.28880000000001
 30
0
 11
0.1667510000000033
 21
0
 31
0
 40
0.9900990099009899
 41
0
 42
6.283185307179586
  0
ELLIPSE
  5
84
100
AcDbEntity
  8
0
  6
ByLayer
 62
  256
370
   -1
100
AcDbEllipse
 10
-34.92812022380596
 20
57.80481911714013
 30
0
 11
0.1667510000000033
 21
0
 31
0
 40
0.9900990099009899
 41
0
 42
6.283185307179586
  0
ELLIPSE
  5
85
100
AcDbEntity
  8
0
  6
ByLayer
 62
  256
370
   -1
100
AcDbEllipse
 10
-29.85624044761191
 20
56.32083823428027
 30
0
 11
0.1667510000000033
 21
0
 31
0
 40
0.9900990099009899
 41
0
 42
6.283185307179586
  0
ELLIPSE
  5
86
100
AcDbEntity
  8
0
  6
ByLayer
 62
  256
370
   -1
100
AcDbEllipse
 10
-24.78436067141783
 20
54.83685735142038
 30
0
 11
0.1667510000000033
 21
0
 31
0
 40
0.9900990099009899
 41
0
 42
6.283185307179586
  0
ELLIPSE
  5
87
100
AcDbEntity
  8
0
  6
ByLayer
 62
  256
370
   -1
100
AcDbEllipse
 10
-19.71248089522376
 20
53.35287646856052
 30
0
 11
0.1667510000000033
 21
0
 31
0
 40
0.9900990099009899
 41
0
 42
6.283185307179586
  0
ELLIPSE
  5
88
100
AcDbEntity
  8
0
  6
ByLayer
 62
  256
370
   -1
100
AcDbEllipse
 10
-14.64060111902969
 20
51.86889558570065
 30
0
 11
0.1667510000000033
 21
0
 31
0
 40
0.9900990099009899
 41
0
 42
6.283185307179586
  0
ELLIPSE
  5
89
100
AcDbEntity
  8
0
  6
ByLayer
 62
  256
370
   -1
100
AcDbEllipse
 10
-12.72979800000003
 20
51.2878
 30
0
 11
0.1667510000000033
 21
0
 31
0
 40
0.9900990099009899
 41
0
 42
6.283185307179586
  0
ELLIPSE
  5
8A
100
AcDbEntity
  8
0
  6
ByLayer
 62
  256
370
   -1
100
AcDbEllipse
 10
-45.07187977619408
 20
57.80481911714013
 30
0
 11
0.1667510000000033
 21
0
 31
0
 40
0.9900990099009899
 41
0
 42
6.283185307179586
  0
ELLIPSE
  5
8B
100
AcDbEntity
  8
0
  6
ByLayer
 62
  256
370
   -1
100
AcDbEllipse
 10
-50.14375955238815
 20
56.32083823428027
 30
0
 11
0.1667510000000033
 21
0
 31
0
 40
0.9900990099009899
 41
0
 42
6.283185307179586
  0
ELLIPSE
  5
8C
100
AcDbEntity
  8
0
  6
ByLayer
 62
  256
370
   -1
100
AcDbEllipse
 10
-55.21563932858226
 20
54.83685735142038
 30
0
 11
0.1667510000000033
 21
0
 31
0
 40
0.9900990099009899
 41
0
 42
6.283185307179586
  0
ELLIPSE
  5
8D
100
AcDbEntity
  8
0
  6
ByLayer
 62
  256
370
   -1
100
AcDbEllipse
 10
-60.2875191047763
 20
53.35287646856052
 30
0
 11
0.1667510000000033
 21
0
 31
0
 40
0.9900990099009899
 41
0
 42
6.283185307179586
  0
ELLIPSE
  5
8E
100
AcDbEntity
  8
0
  6
ByLayer
 62
  256
370
   -1
100
AcDbEllipse
 10
-65.35939888097039
 20
51.86889558570065
 30
0
 11
0.1667510000000033
 21
0
 31
0
 40
0.9900990099009899
 41
0
 42
6.283185307179586
  0
ELLIPSE
  5
8F
100
AcDbEntity
  8
0
  6
ByLayer
 62
  256
370
   -1
100
AcDbEllipse
 10
-67.27020200000003
 20
51.2878
 30
0
 11
0.1667510000000033
 21
0
 31
0
 40
0.9900990099009899
 41
0
 42
6.283185307179586
  0
ELLIPSE
  5
90
100
AcDbEntity
  8
0
  6
ByLayer
 62
  256
370
   -1
100
AcDbEllipse
 10
-45.12823572343192
 20
34.14018546346129
 30
0
 11
0.1667510000000033
 21
0
 31
0
 40
0.9900990099009899
 41
0
 42
6.283185307179586
  0
ELLIPSE
  5
91
100
AcDbEntity
  8
0
  6
ByLayer
 62
  256
370
   -1
100
AcDbEllipse
 10
-50.2335986437193
 20
34.64437269100381
 30
0
 11
0.1667510000000033
 21
0
 31
0
 40
0.9900990099009899
 41
0
 42
6.283185307179586
  0
ELLIPSE
  5
92
100
AcDbEntity
  8
0
  6
ByLayer
 62
  256
370
   -1
100
AcDbEllipse
 10
-55.29562671020047
 20
35.47625767183402
 30
0
 11
0.1667510000000033
 21
0
 31
0
 40
0.9900990099009899
 41
0
 42
6.283185307179586
  0
ELLIPSE
  5
93
100
AcDbEntity
  8
0
  6
ByLayer
 62
  256
370
   -1
100
AcDbEllipse
 10
-60.28259501187696
 20
36.66176039957772
 30
0
 11
0.1667510000000033
 21
0
 31
0
 40
0.9900990099009899
 41
0
 42
6.283185307179586
  0
ELLIPSE
  5
94
100
AcDbEntity
  8
0
  6
ByLayer
 62
  256
370
   -1
100
AcDbEllipse
 10
-65.17755345101401
 20
38.18476845150226
 30
0
 11
0.1667510000000033
 21
0
 31
0
 40
0.9900990099009899
 41
0
 42
6.283185307179586
  0
ELLIPSE
  5
95
100
AcDbEntity
  8
0
  6
ByLayer
 62
  256
370
   -1
100
AcDbEllipse
 10
-40.00180925759324
 20
21.77934028144818
 30
0
 11
0.1667510000000033
 21
0
 31
0
 40
0.9900990099009899
 41
0
 42
6.283185307179586
  0
ELLIPSE
  5
96
100
AcDbEntity
  8
0
  6
ByLayer
 62
  256
370
   -1
100
AcDbEllipse
 10
-45.12606852762524
 20
21.97480394271891
 30
0
 11
0.1667510000000033
 21
0
 31
0
 40
0.9900990099009899
 41
0
 42
6.283185307179586
  0
ELLIPSE
  5
97
100
AcDbEntity
  8
0
  6
ByLayer
 62
  256
370
   -1
100
AcDbEllipse
 10
-50.23477676240646
 20
22.45615037239838
 30
0
 11
0.1667510000000033
 21
0
 31
0
 40
0.9900990099009899
 41
0
 42
6.283185307179586
  0
ELLIPSE
  5
98
100
AcDbEntity
  8
0
  6
ByLayer
 62
  256
370
   -1
100
AcDbEllipse
 10
-55.30227402446664
 20
23.25095519312084
 30
0
 11
0.1667510000000033
 21
0
 31
0
 40
0.9900990099009899
 41
0
 42
6.283185307179586
  0
ELLIPSE
  5
99
100
AcDbEntity
  8
0
  6
ByLayer
 62
  256
370
   -1
100
AcDbEllipse
 10
-60.30757220316787
 20
24.36790747375059
 30
0
 11
0.1667510000000033
 21
0
 31
0
 40
0.9900990099009899
 41
0
 42
6.283185307179586
  0
ELLIPSE
  5
9A
100
AcDbEntity
  8
0
  6
ByLayer
 62
  256
370
   -1
100
AcDbEllipse
 10
-65.25036799537688
 20
25.72977478665864
 30
0
 11
0.1667510000000033
 21
0
 31
0
 40
0.9900990099009899
 41
0
 42
6.283185307179586
  0
ELLIPSE
  5
9B
100
AcDbEntity
  8
0
  6
ByLayer
 62
  256
370
   -1
100
AcDbEllipse
 10
-45.12671970165376
 20
9.66100290904239
 30
0
 11
0.1667510000000033
 21
0
 31
0
 40
0.9900990099009899
 41
0
 42
6.283185307179586
  0
ELLIPSE
  5
9C
100
AcDbEntity
  8
0
  6
ByLayer
 62
  256
370
   -1
100
AcDbEllipse
 10
-50.23815559381595
 20
10.11469382354235
 30
0
 11
0.1667510000000033
 21
0
 31
0
 40
0.9900990099009899
 41
0
 42
6.283185307179586
  0
ELLIPSE
  5
9D
100
AcDbEntity
  8
0
  6
ByLayer
 62
  256
370
   -1
100
AcDbEllipse
 10
-55.31978606203889
 20
10.82247991516228
 30
0
 11
0.1667510000000033
 21
0
 31
0
 40
0.9900990099009899
 41
0
 42
6.283185307179586
  0
ELLIPSE
  5
9E
100
AcDbEntity
  8
0
  6
ByLayer
 62
  256
370
   -1
100
AcDbEllipse
 10
-60.35191270025345
 20
11.81792362102479
 30
0
 11
0.1667510000000033
 21
0
 31
0
 40
0.9900990099009899
 41
0
 42
6.283185307179586
  0
ELLIPSE
  5
9F
100
AcDbEntity
  8
0
  6
ByLayer
 62
  256
370
   -1
100
AcDbEllipse
 10
-65.33309474948069
 20
13.03720281361455
 30
0
 11
0.1667510000000033
 21
0
 31
0
 40
0.9900990099009899
 41
0
 42
6.283185307179586
  0
ELLIPSE
  5
A0
100
AcDbEntity
  8
0
  6
ByLayer
 62
  256
370
   -1
100
AcDbEllipse
 10
-70.22041200000004
 20
14.50860000000001
 30
0
 11
0.1667510000000033
 21
0
 31
0
 40
0.9900990099009899
 41
0
 42
6.283185307179586
  0
ELLIPSE
  5
A1
100
AcDbEntity
  8
0
  6
ByLayer
 62
  256
370
   -1
100
AcDbEllipse
 10
-66.09535000000004
 20
38.4924
 30
0
 11
0.1667510000000033
 21
0
 31
0
 40
0.9900990099009899
 41
0
 42
6.283185307179586
  0
ELLIPSE
  5
A2
100
AcDbEntity
  8
0
  6
ByLayer
 62
  256
370
   -1
100
AcDbEllipse
 10
-69.12252200000003
 20
27.01160000000002
 30
0
 11
0.1667510000000033
 21
0
 31
0
 40
0.9900990099009899
 41
0
 42
6.283185307179586
  0
ELLIPSE
  5
A3
100
AcDbEntity
  8
0
  6
ByLayer
 62
  256
370
   -1
100
AcDbEllipse
 10
-72.22665600000003
 20
15.20060000000002
 30
0
 11
0.1667510000000033
 21
0
 31
0
 40
0.9900990099009899
 41
0
 42
6.283185307179586
  0
ELLIPSE
  5
A4
100
AcDbEntity
  8
0
  6
ByLayer
 62
  256
370
   -1
100
AcDbEllipse
 10
-40.61357881180871
 20
135.115855896258
 30
0
 11
5.233153265610815e-15
 21
100.483520575356
 31
0
 40
0.8505263157895802
 41
2.840706590841877
 42
3.148772108729998
  0
ELLIPSE
  5
A5
100
AcDbEntity
  8
0
  6
ByLayer
 62
  256
370
   -1
100
AcDbEllipse
 10
-40.26698375051594
 20
108.5030476931094
 30
0
 11
75.8899735508593
 21
0
 31
0
 40
0.9900990099009901
 41
4.354500629426182
 42
4.715907024837325
  0
ARC
  5
A6
100
AcDbEntity
  8
0
  6
ByLayer
 62
  256
370
   -1
100
AcDbCircle
 10
-66.02634224940059
 20
38.60182124299325
 40
0.5512669802048151
100
AcDbArc
 50
81.22207346793074
 51
156.390976509339
  0
LINE
  5
A7
100
AcDbEntity
  8
0
  6
ByLayer
 62
  256
370
   -1
100
AcDbLine
 10
-66.53146800000006
 20
38.82260000000002
 11
-66.85102623919562
 21
38.12534492116376
  0
ELLIPSE
  5
A8
100
AcDbEntity
  8
0
  6
ByLayer
 62
  256
370
   -1
100
AcDbEllipse
 10
-39.78591161221627
 20
138.41332909124
 30
0
 11
6.03938928994885e-15
 21
115.964327276368
 31
0
 40
0.85052631578958
 41
2.84256851969979
 42
3.13942204615
  0
ELLIPSE
  5
A9
100
AcDbEntity
  8
0
  6
ByLayer
 62
  256
370
   -1
100
AcDbEllipse
 10
-39.38724987312026
 20
107.610624846526
 30
0
 11
87.29781384195833
 21
0
 31
0
 40
0.9900990099009901
 41
4.355718433613317
 42
4.705369845184982
  0
LINE
  5
AA
100
AcDbEntity
  8
0
  6
ByLayer
 62
  256
370
   -1
100
AcDbLine
 10
-69.55864000000003
 20
27.34180000000002
 11
-69.86782821811067
 21
26.61687873931305
  0
ARC
  5
AB
100
AcDbEntity
  8
0
  6
ByLayer
 62
  256
370
   -1
100
AcDbCircle
 10
-69.05705291064598
 20
27.06345986225512
 40
0.5736399920582288
100
AcDbArc
 50
67.90851998823052
 51
150.9732794673843
  0
ELLIPSE
  5
AC
100
AcDbEntity
  8
0
  6
ByLayer
 62
  256
370
   -1
100
AcDbEllipse
 10
-38.71554902961881
 20
108.3804002386355
 30
0
 11
100.5411686209885
 21
0
 31
0
 40
0.99009900990099
 41
4.364441806659243
 42
4.699613259461398
  0
LINE
  5
AD
100
AcDbEntity
  8
0
  6
ByLayer
 62
  256
370
   -1
100
AcDbLine
 10
-72.63712000000005
 20
15.63240000000002
 11
-72.99694233231909
 21
14.80000106446697
  0
ELLIPSE
  5
AE
100
AcDbEntity
  8
0
  6
ByLayer
 62
  256
370
   -1
100
AcDbEllipse
 10
-39.06168600554719
 20
144.859958585306
 30
0
 11
7.017828366271e-15
 21
134.751662190066
 31
0
 40
0.85052631578958
 41
2.848655093025692
 42
3.13340553354
  0
ARC
  5
AF
100
AcDbEntity
  8
0
  6
ByLayer
 62
  256
370
   -1
100
AcDbCircle
 10
-72.25754440253979
 20
15.43092390953781
 40
0.4297327648829051
100
AcDbArc
 50
76.4823512221306
 51
152.0409479445212
  0
ELLIPSE
  5
B0
100
AcDbEntity
  8
0
  6
ByLayer
 62
  256
370
   -1
100
AcDbEllipse
 10
-34.87176427656808
 20
34.14018546346129
 30
0
 11
-0.166751000000005
 21
0
 31
0
 40
0.9900990099009899
 41
0
 42
6.283185307179586
  0
ELLIPSE
  5
B1
100
AcDbEntity
  8
0
  6
ByLayer
 62
  256
370
   -1
100
AcDbEllipse
 10
-29.7664013562807
 20
34.64437269100381
 30
0
 11
-0.166751000000005
 21
0
 31
0
 40
0.9900990099009899
 41
0
 42
6.283185307179586
  0
ELLIPSE
  5
B2
100
AcDbEntity
  8
0
  6
ByLayer
 62
  256
370
   -1
100
AcDbEllipse
 10
-24.70437328979953
 20
35.47625767183402
 30
0
 11
-0.166751000000005
 21
0
 31
0
 40
0.9900990099009899
 41
0
 42
6.283185307179586
  0
ELLIPSE
  5
B3
100
AcDbEntity
  8
0
  6
ByLayer
 62
  256
370
   -1
100
AcDbEllipse
 10
-19.71740498812304
 20
36.66176039957772
 30
0
 11
-0.166751000000005
 21
0
 31
0
 40
0.9900990099009899
 41
0
 42
6.283185307179586
  0
ELLIPSE
  5
B4
100
AcDbEntity
  8
0
  6
ByLayer
 62
  256
370
   -1
100
AcDbEllipse
 10
-14.82244654898599
 20
38.18476845150226
 30
0
 11
-0.166751000000005
 21
0
 31
0
 40
0.9900990099009899
 41
0
 42
6.283185307179586
  0
ELLIPSE
  5
B5
100
AcDbEntity
  8
0
  6
ByLayer
 62
  256
370
   -1
100
AcDbEllipse
 10
-34.87393147237476
 20
21.97480394271891
 30
0
 11
-0.166751000000005
 21
0
 31
0
 40
0.9900990099009899
 41
0
 42
6.283185307179586
  0
ELLIPSE
  5
B6
100
AcDbEntity
  8
0
  6
ByLayer
 62
  256
370
   -1
100
AcDbEllipse
 10
-29.76522323759354
 20
22.45615037239838
 30
0
 11
-0.166751000000005
 21
0
 31
0
 40
0.9900990099009899
 41
0
 42
6.283185307179586
  0
ELLIPSE
  5
B7
100
AcDbEntity
  8
0
  6
ByLayer
 62
  256
370
   -1
100
AcDbEllipse
 10
-24.69772597553336
 20
23.25095519312084
 30
0
 11
-0.166751000000005
 21
0
 31
0
 40
0.9900990099009899
 41
0
 42
6.283185307179586
  0
ELLIPSE
  5
B8
100
AcDbEntity
  8
0
  6
ByLayer
 62
  256
370
   -1
100
AcDbEllipse
 10
-19.69242779683213
 20
24.36790747375059
 30
0
 11
-0.166751000000005
 21
0
 31
0
 40
0.9900990099009899
 41
0
 42
6.283185307179586
  0
ELLIPSE
  5
B9
100
AcDbEntity
  8
0
  6
ByLayer
 62
  256
370
   -1
100
AcDbEllipse
 10
-14.74963200462312
 20
25.72977478665864
 30
0
 11
-0.166751000000005
 21
0
 31
0
 40
0.9900990099009899
 41
0
 42
6.283185307179586
  0
ELLIPSE
  5
BA
100
AcDbEntity
  8
0
  6
ByLayer
 62
  256
370
   -1
100
AcDbEllipse
 10
-34.87328029834624
 20
9.661002909042386
 30
0
 11
-0.166751000000005
 21
0
 31
0
 40
0.9900990099009899
 41
0
 42
6.283185307179586
  0
ELLIPSE
  5
BB
100
AcDbEntity
  8
0
  6
ByLayer
 62
  256
370
   -1
100
AcDbEllipse
 10
-29.76184440618405
 20
10.11469382354235
 30
0
 11
-0.166751000000005
 21
0
 31
0
 40
0.9900990099009899
 41
0
 42
6.283185307179586
  0
ELLIPSE
  5
BC
100
AcDbEntity
  8
0
  6
ByLayer
 62
  256
370
   -1
100
AcDbEllipse
 10
-24.68021393796111
 20
10.82247991516228
 30
0
 11
-0.166751000000005
 21
0
 31
0
 40
0.9900990099009899
 41
0
 42
6.283185307179586
  0
ELLIPSE
  5
BD
100
AcDbEntity
  8
0
  6
ByLayer
 62
  256
370
   -1
100
AcDbEllipse
 10
-19.64808729974655
 20
11.81792362102479
 30
0
 11
-0.166751000000005
 21
0
 31
0
 40
0.9900990099009899
 41
0
 42
6.283185307179586
  0
ELLIPSE
  5
BE
100
AcDbEntity
  8
0
  6
ByLayer
 62
  256
370
   -1
100
AcDbEllipse
 10
-14.66690525051931
 20
13.03720281361455
 30
0
 11
-0.166751000000005
 21
0
 31
0
 40
0.9900990099009899
 41
0
 42
6.283185307179586
  0
ELLIPSE
  5
BF
100
AcDbEntity
  8
0
  6
ByLayer
 62
  256
370
   -1
100
AcDbEllipse
 10
-9.779587999999961
 20
14.50860000000001
 30
0
 11
-0.166751000000005
 21
0
 31
0
 40
0.9900990099009899
 41
0
 42
6.283185307179586
  0
ELLIPSE
  5
C0
100
AcDbEntity
  8
0
  6
ByLayer
 62
  256
370
   -1
100
AcDbEllipse
 10
-13.90464999999996
 20
38.4924
 30
0
 11
-0.166751000000005
 21
0
 31
0
 40
0.9900990099009899
 41
0
 42
6.283185307179586
  0
ELLIPSE
  5
C1
100
AcDbEntity
  8
0
  6
ByLayer
 62
  256
370
   -1
100
AcDbEllipse
 10
-10.87747799999997
 20
27.01160000000002
 30
0
 11
-0.166751000000005
 21
0
 31
0
 40
0.9900990099009899
 41
0
 42
6.283185307179586
  0
ELLIPSE
  5
C2
100
AcDbEntity
  8
0
  6
ByLayer
 62
  256
370
   -1
100
AcDbEllipse
 10
-7.773343999999966
 20
15.20060000000002
 30
0
 11
-0.166751000000005
 21
0
 31
0
 40
0.9900990099009899
 41
0
 42
6.283185307179586
  0
ELLIPSE
  5
C3
100
AcDbEntity
  8
0
  6
ByLayer
 62
  256
370
   -1
100
AcDbEllipse
 10
-39.38642118819129
 20
135.115855896258
 30
0
 11
-7.105427357601002e-15
 21
100.483520575356
 31
0
 40
0.8505263157895802
 41
3.134413198449588
 42
3.442478716337709
  0
ELLIPSE
  5
C4
100
AcDbEntity
  8
0
  6
ByLayer
 62
  256
370
   -1
100
AcDbEllipse
 10
-39.73301624948406
 20
108.5030476931094
 30
0
 11
-75.88997355085931
 21
0
 31
0
 40
0.9900990099009901
 41
1.567278282342262
 42
1.928684677753404
  0
ARC
  5
C5
100
AcDbEntity
  8
0
  6
ByLayer
 62
  256
370
   -1
100
AcDbCircle
 10
-13.97365775059941
 20
38.60182124299325
 40
0.5512669802048151
100
AcDbArc
 50
23.60902349066098
 51
98.77792653206926
  0
LINE
  5
C6
100
AcDbEntity
  8
0
  6
ByLayer
 62
  256
370
   -1
100
AcDbLine
 10
-13.46853199999994
 20
38.82260000000002
 11
-13.14897376080438
 21
38.12534492116376
  0
ELLIPSE
  5
C7
100
AcDbEntity
  8
0
  6
ByLayer
 62
  256
370
   -1
100
AcDbEllipse
 10
-40.21408838778373
 20
138.41332909124
 30
0
 11
-7.105427357601002e-15
 21
115.964327276368
 31
0
 40
0.85052631578958
 41
3.143763261029586
 42
3.440616787479795
  0
ELLIPSE
  5
C8
100
AcDbEntity
  8
0
  6
ByLayer
 62
  256
370
   -1
100
AcDbEllipse
 10
-40.61275012687974
 20
107.610624846526
 30
0
 11
-87.29781384195832
 21
0
 31
0
 40
0.9900990099009901
 41
1.577815461994605
 42
1.927466873566269
  0
LINE
  5
C9
100
AcDbEntity
  8
0
  6
ByLayer
 62
  256
370
   -1
100
AcDbLine
 10
-10.44135999999997
 20
27.34180000000002
 11
-10.13217178188933
 21
26.61687873931305
  0
ARC
  5
CA
100
AcDbEntity
  8
0
  6
ByLayer
 62
  256
370
   -1
100
AcDbCircle
 10
-10.94294708935402
 20
27.06345986225512
 40
0.5736399920582288
100
AcDbArc
 50
29.02672053261574
 51
112.0914800117695
  0
ELLIPSE
  5
CB
100
AcDbEntity
  8
0
  6
ByLayer
 62
  256
370
   -1
100
AcDbEllipse
 10
-41.28445097038119
 20
108.3804002386355
 30
0
 11
-100.5411686209885
 21
0
 31
0
 40
0.99009900990099
 41
1.583572047718188
 42
1.918743500520344
  0
LINE
  5
CC
100
AcDbEntity
  8
0
  6
ByLayer
 62
  256
370
   -1
100
AcDbLine
 10
-7.362879999999947
 20
15.63240000000002
 11
-7.003057667680906
 21
14.80000106446697
  0
ELLIPSE
  5
CD
100
AcDbEntity
  8
0
  6
ByLayer
 62
  256
370
   -1
100
AcDbEllipse
 10
-40.93831399445281
 20
144.859958585306
 30
0
 11
-7.105427357601002e-15
 21
134.751662190066
 31
0
 40
0.85052631578958
 41
3.149779773639587
 42
3.434530214153895
  0
ARC
  5
CE
100
AcDbEntity
  8
0
  6
ByLayer
 62
  256
370
   -1
100
AcDbCircle
 10
-7.742455597460207
 20
15.43092390953781
 40
0.4297327648829051
100
AcDbArc
 50
27.95905205547878
 51
103.5176487778694
  0
ELLIPSE
  5
CF
100
AcDbEntity
  8
0
  6
ByLayer
 62
  256
370
   -1
100
AcDbEllipse
 10
17.20461
 20
34.75519999999999
 30
0
 11
0.1667510000000033
 21
0
 31
0
 40
0.9900990099009899
 41
0
 42
6.283185307179586
  0
ELLIPSE
  5
D0
100
AcDbEntity
  8
0
  6
ByLayer
 62
  256
370
   -1
100
AcDbEllipse
 10
14.38267
 20
24.74759999999999
 30
0
 11
0.1667510000000033
 21
0
 31
0
 40
0.9900990099009899
 41
0
 42
6.283185307179586
  0
ELLIPSE
  5
D1
100
AcDbEntity
  8
0
  6
ByLayer
 62
  256
370
   -1
100
AcDbEllipse
 10
11.124612
 20
13.92719999999999
 30
0
 11
0.1667510000000033
 21
0
 31
0
 40
0.9900990099009899
 41
0
 42
6.283185307179586
  0
ELLIPSE
  5
D2
100
AcDbEntity
  8
0
  6
ByLayer
 62
  256
370
   -1
100
AcDbEllipse
 10
38.10641961455681
 20
97.04426871547327
 30
0
 11
3.45345418812034e-15
 21
66.31092524045857
 31
0
 40
0.8505263157895802
 41
2.760727673314211
 42
3.14009844329
  0
ARC
  5
D3
100
AcDbEntity
  8
0
  6
ByLayer
 62
  256
370
   -1
100
AcDbCircle
 10
17.03052365014531
 20
35.268117989841
 40
0.2435911136941131
100
AcDbArc
 50
62.89469875572725
 51
152.7187443216323
  0
LINE
  5
D4
100
AcDbEntity
  8
0
  6
ByLayer
 62
  256
370
   -1
100
AcDbLine
 10
16.8140278501871
 20
35.37977012492478
 11
16.46534070870261
 21
34.40776836476538
  0
ELLIPSE
  5
D5
100
AcDbEntity
  8
0
  6
ByLayer
 62
  256
370
   -1
100
AcDbEllipse
 10
38.17147918884845
 20
78.62633593149758
 30
0
 11
49.65621137277558
 21
0
 31
0
 40
0.9900990099009902
 41
4.25998563100681
 42
4.705971850173322
  0
ELLIPSE
  5
D6
100
AcDbEntity
  8
0
  6
ByLayer
 62
  256
370
   -1
100
AcDbEllipse
 10
38.19412794485244
 20
91.95077020011703
 30
0
 11
3.757393237783334e-15
 21
72.14696026595341
 31
0
 40
0.85052631578958
 41
2.745330809418585
 42
3.14303338737
  0
ARC
  5
D7
100
AcDbEntity
  8
0
  6
ByLayer
 62
  256
370
   -1
100
AcDbCircle
 10
14.30212441171356
 20
24.9906971143942
 40
0.454011663635928
100
AcDbArc
 50
62.78798783413311
 51
160.2869024449708
  0
ELLIPSE
  5
D8
100
AcDbEntity
  8
0
  6
ByLayer
 62
  256
370
   -1
100
AcDbEllipse
 10
38.89138931449397
 20
74.5385190970224
 30
0
 11
56.57541950821629
 21
0
 31
0
 40
0.9900990099009901
 41
4.248651959697927
 42
4.691037543577464
  0
LINE
  5
D9
100
AcDbEntity
  8
0
  6
ByLayer
 62
  256
370
   -1
100
AcDbLine
 10
13.8747208
 20
25.14383999999999
 11
13.58556817724398
 21
24.43918135790631
  0
LINE
  5
DA
100
AcDbEntity
  8
0
  6
ByLayer
 62
  256
370
   -1
100
AcDbLine
 10
10.31319366229972
 20
13.61438884570424
 11
10.65770919912107
 21
14.4597903755281
  0
ELLIPSE
  5
DB
100
AcDbEntity
  8
0
  6
ByLayer
 62
  256
370
   -1
100
AcDbEllipse
 10
39.42173906974949
 20
72.06011034542306
 30
0
 11
65.81693866193471
 21
0
 31
0
 40
0.99009900990099
 41
4.254266177313458
 42
4.67275514124284
  0
ELLIPSE
  5
DC
100
AcDbEntity
  8
0
  6
ByLayer
 62
  256
370
   -1
100
AcDbEllipse
 10
38.14694099585864
 20
89.50607859219733
 30
0
 11
4.23435697707062e-15
 21
81.30530004291769
 31
0
 40
0.85052631578958
 41
2.740911716709242
 42
3.14054111963
  0
ARC
  5
DD
100
AcDbEntity
  8
0
  6
ByLayer
 62
  256
370
   -1
100
AcDbCircle
 10
10.99297936869651
 20
14.3302284397732
 40
0.3594334177664533
100
AcDbArc
 50
59.68530960584656
 51
158.8714544388782
  0
ELLIPSE
  5
DE
100
AcDbEntity
  8
0
  6
ByLayer
 62
  256
370
   -1
100
AcDbEllipse
 10
50
 20
7.449999999999999
 30
0
 11
0.1667510000000033
 21
0
 31
0
 40
0.9900990099009899
 41
0
 42
6.283185307179586
  0
ELLIPSE
  5
DF
100
AcDbEntity
  8
0
  6
ByLayer
 62
  256
370
   -1
100
AcDbEllipse
 10
44.71170182727775
 20
7.515153979595141
 30
0
 11
0.1667510000000033
 21
0
 31
0
 40
0.9900990099009899
 41
0
 42
6.283185307179586
  0
ELLIPSE
  5
E0
100
AcDbEntity
  8
0
  6
ByLayer
 62
  256
370
   -1
100
AcDbEllipse
 10
39.42340365455548
 20
7.5803079591903
 30
0
 11
0.1667510000000033
 21
0
 31
0
 40
0.9900990099009899
 41
0
 42
6.283185307179586
  0
ELLIPSE
  5
E1
100
AcDbEntity
  8
0
  6
ByLayer
 62
  256
370
   -1
100
AcDbEllipse
 10
34.13899348643293
 20
7.744578010599909
 30
0
 11
0.1667510000000033
 21
0
 31
0
 40
0.9900990099009899
 41
0
 42
6.283185307179586
  0
ELLIPSE
  5
E2
100
AcDbEntity
  8
0
  6
ByLayer
 62
  256
370
   -1
100
AcDbEllipse
 10
14.24
 20
12.54
 30
0
 11
0.1667510000000033
 21
0
 31
0
 40
0.9900990099009899
 41
0
 42
6.283185307179586
  0
ELLIPSE
  5
E3
100
AcDbEntity
  8
0
  6
ByLayer
 62
  256
370
   -1
100
AcDbEllipse
 10
18.62
 20
10.87
 30
0
 11
0.1667510000000033
 21
0
 31
0
 40
0.9900990099009899
 41
0
 42
6.283185307179586
  0
ELLIPSE
  5
E4
100
AcDbEntity
  8
0
  6
ByLayer
 62
  256
370
   -1
100
AcDbEllipse
 10
28.88
 20
8.33
 30
0
 11
0.1667510000000033
 21
0
 31
0
 40
0.9900990099009899
 41
0
 42
6.283185307179586
  0
ELLIPSE
  5
E5
100
AcDbEntity
  8
0
  6
ByLayer
 62
  256
370
   -1
100
AcDbEllipse
 10
23.72
 20
9.400000000000002
 30
0
 11
0.1667510000000033
 21
0
 31
0
 40
0.9900990099009899
 41
0
 42
6.283185307179586
  0
LINE
  5
E6
100
AcDbEntity
  8
0
  6
ByLayer
 62
  256
370
   -1
100
AcDbLine
 10
50
 20
30.7334175
 11
61.9778526
 21
30.7334175
  0
LINE
  5
E7
100
AcDbEntity
  8
0
  6
ByLayer
 62
  256
370
   -1
100
AcDbLine
 10
61.92577498
 20
8.200823499999998
 11
50
 21
8.078363749999998
  0
LINE
  5
E8
100
AcDbEntity
  8
0
  6
ByLayer
 62
  256
370
   -1
100
AcDbLine
 10
50
 20
19.71204
 11
61.7174645
 21
19.80388481249999
  0
LINE
  5
E9
100
AcDbEntity
  8
0
  6
ByLayer
 62
  256
370
   -1
100
AcDbLine
 10
62.14716899835799
 20
29.46278249999997
 11
49.99999999835794
 21
29.46309999999998
  0
LINE
  5
EA
100
AcDbEntity
  8
0
  6
ByLayer
 62
  256
370
   -1
100
AcDbLine
 10
50
 20
18.376
 11
62.3164854
 21
18.53602
  0
LINE
  5
EB
100
AcDbEntity
  8
0
  6
ByLayer
 62
  256
370
   -1
100
AcDbLine
 10
63.186156
 20
6.945999999999998
 11
50
 21
6.808363750000002
  0
ELLIPSE
  5
EC
100
AcDbEntity
  8
0
  6
ByLayer
 62
  256
370
   -1
100
AcDbEllipse
 10
55.28869677167211
 20
30.08747826839969
 30
0
 11
-0.166751000000005
 21
0
 31
0
 40
0.9900990099009899
 41
0
 42
6.283185307179586
  0
ELLIPSE
  5
ED
100
AcDbEntity
  8
0
  6
ByLayer
 62
  256
370
   -1
100
AcDbEllipse
 10
60.57734739284177
 20
30.11178186563522
 30
0
 11
-0.166751000000005
 21
0
 31
0
 40
0.9900990099009899
 41
0
 42
6.283185307179586
  0
ELLIPSE
  5
EE
100
AcDbEntity
  8
0
  6
ByLayer
 62
  256
370
   -1
100
AcDbEllipse
 10
65.86345718693528
 20
30.23932045531097
 30
0
 11
-0.166751000000005
 21
0
 31
0
 40
0.9900990099009899
 41
0
 42
6.283185307179586
  0
ELLIPSE
  5
EF
100
AcDbEntity
  8
0
  6
ByLayer
 62
  256
370
   -1
100
AcDbEllipse
 10
71.0994903205262
 20
30.96891142001937
 30
0
 11
-0.166751000000005
 21
0
 31
0
 40
0.9900990099009899
 41
0
 42
6.283185307179586
  0
ELLIPSE
  5
F0
100
AcDbEntity
  8
0
  6
ByLayer
 62
  256
370
   -1
100
AcDbEllipse
 10
76.23617610378834
 20
32.21013714518772
 30
0
 11
-0.166751000000005
 21
0
 31
0
 40
0.9900990099009899
 41
0
 42
6.283185307179586
  0
ELLIPSE
  5
F1
100
AcDbEntity
  8
0
  6
ByLayer
 62
  256
370
   -1
100
AcDbEllipse
 10
81.19282419749051
 20
34.03156767637004
 30
0
 11
-0.166751000000005
 21
0
 31
0
 40
0.9900990099009899
 41
0
 42
6.283185307179586
  0
ELLIPSE
  5
F2
100
AcDbEntity
  8
0
  6
ByLayer
 62
  256
370
   -1
100
AcDbEllipse
 10
55.28751448489741
 20
19.10778007302617
 30
0
 11
-0.166751000000005
 21
0
 31
0
 40
0.9900990099009899
 41
0
 42
6.283185307179586
  0
ELLIPSE
  5
F3
100
AcDbEntity
  8
0
  6
ByLayer
 62
  256
370
   -1
100
AcDbEllipse
 10
60.57581265761968
 20
19.17293405262133
 30
0
 11
-0.166751000000005
 21
0
 31
0
 40
0.9900990099009899
 41
0
 42
6.283185307179586
  0
ELLIPSE
  5
F4
100
AcDbEntity
  8
0
  6
ByLayer
 62
  256
370
   -1
100
AcDbEllipse
 10
65.86022282574223
 20
19.33720410403094
 30
0
 11
-0.166751000000005
 21
0
 31
0
 40
0.9900990099009899
 41
0
 42
6.283185307179586
  0
ELLIPSE
  5
F5
100
AcDbEntity
  8
0
  6
ByLayer
 62
  256
370
   -1
100
AcDbEllipse
 10
71.10340166084148
 20
20.01835102672446
 30
0
 11
-0.166751000000005
 21
0
 31
0
 40
0.9900990099009899
 41
0
 42
6.283185307179586
  0
ELLIPSE
  5
F6
100
AcDbEntity
  8
0
  6
ByLayer
 62
  256
370
   -1
100
AcDbEllipse
 10
76.24891444176207
 20
21.21874106787197
 30
0
 11
-0.166751000000005
 21
0
 31
0
 40
0.9900990099009899
 41
0
 42
6.283185307179586
  0
ELLIPSE
  5
F7
100
AcDbEntity
  8
0
  6
ByLayer
 62
  256
370
   -1
100
AcDbEllipse
 10
81.26644827562721
 20
22.86975485605568
 30
0
 11
-0.166751000000005
 21
0
 31
0
 40
0.9900990099009899
 41
0
 42
6.283185307179586
  0
ELLIPSE
  5
F8
100
AcDbEntity
  8
0
  6
ByLayer
 62
  256
370
   -1
100
AcDbEllipse
 10
82.79539
 20
34.75519999999999
 30
0
 11
-0.166751000000005
 21
0
 31
0
 40
0.9900990099009899
 41
0
 42
6.283185307179586
  0
ELLIPSE
  5
F9
100
AcDbEntity
  8
0
  6
ByLayer
 62
  256
370
   -1
100
AcDbEllipse
 10
85.61733000000001
 20
24.74759999999999
 30
0
 11
-0.166751000000005
 21
0
 31
0
 40
0.9900990099009899
 41
0
 42
6.283185307179586
  0
ELLIPSE
  5
FA
100
AcDbEntity
  8
0
  6
ByLayer
 62
  256
370
   -1
100
AcDbEllipse
 10
88.875388
 20
13.92719999999999
 30
0
 11
-0.166751000000005
 21
0
 31
0
 40
0.9900990099009899
 41
0
 42
6.283185307179586
  0
ELLIPSE
  5
FB
100
AcDbEntity
  8
0
  6
ByLayer
 62
  256
370
   -1
100
AcDbEllipse
 10
61.89358038544319
 20
97.04426871547327
 30
0
 11
0
 21
66.31092524045857
 31
0
 40
0.8505263157895802
 41
3.143086863889586
 42
3.522457633865375
  0
ARC
  5
FC
100
AcDbEntity
  8
0
  6
ByLayer
 62
  256
370
   -1
100
AcDbCircle
 10
82.96947634985469
 20
35.268117989841
 40
0.2435911136941131
100
AcDbArc
 50
27.28125567836767
 51
117.1053012442727
  0
LINE
  5
FD
100
AcDbEntity
  8
0
  6
ByLayer
 62
  256
370
   -1
100
AcDbLine
 10
83.1859721498129
 20
35.37977012492478
 11
83.53465929129739
 21
34.40776836476538
  0
ELLIPSE
  5
FE
100
AcDbEntity
  8
0
  6
ByLayer
 62
  256
370
   -1
100
AcDbEllipse
 10
61.82852081115155
 20
78.62633593149758
 30
0
 11
-49.65621137277557
 21
0
 31
0
 40
0.9900990099009902
 41
1.577213457006265
 42
2.023199676172777
  0
ELLIPSE
  5
FF
100
AcDbEntity
  8
0
  6
ByLayer
 62
  256
370
   -1
100
AcDbEllipse
 10
61.80587205514756
 20
91.95077020011703
 30
0
 11
-7.105427357601002e-15
 21
72.14696026595342
 31
0
 40
0.85052631578958
 41
3.140151919809586
 42
3.537854497761002
  0
ARC
  5
100
100
AcDbEntity
  8
0
  6
ByLayer
 62
  256
370
   -1
100
AcDbCircle
 10
85.69787558828645
 20
24.9906971143942
 40
0.454011663635928
100
AcDbArc
 50
19.71309755502913
 51
117.2120121658669
  0
ELLIPSE
  5
101
100
AcDbEntity
  8
0
  6
ByLayer
 62
  256
370
   -1
100
AcDbEllipse
 10
61.10861068550603
 20
74.5385190970224
 30
0
 11
-56.57541950821629
 21
0
 31
0
 40
0.9900990099009901
 41
1.592147763602123
 42
2.03453334748166
  0
LINE
  5
102
100
AcDbEntity
  8
0
  6
ByLayer
 62
  256
370
   -1
100
AcDbLine
 10
86.12527919999999
 20
25.14383999999999
 11
86.41443182275603
 21
24.43918135790631
  0
LINE
  5
103
100
AcDbEntity
  8
0
  6
ByLayer
 62
  256
370
   -1
100
AcDbLine
 10
89.68680633770028
 20
13.61438884570424
 11
89.34229080087893
 21
14.4597903755281
  0
ELLIPSE
  5
104
100
AcDbEntity
  8
0
  6
ByLayer
 62
  256
370
   -1
100
AcDbEllipse
 10
60.57826093025051
 20
72.06011034542306
 30
0
 11
-65.81693866193471
 21
0
 31
0
 40
0.99009900990099
 41
1.610430165936747
 42
2.028919129866129
  0
ELLIPSE
  5
105
100
AcDbEntity
  8
0
  6
ByLayer
 62
  256
370
   -1
100
AcDbEllipse
 10
61.85305900414136
 20
89.50607859219733
 30
0
 11
-7.105427357601002e-15
 21
81.30530004291771
 31
0
 40
0.85052631578958
 41
3.142644187549586
 42
3.542273590470344
  0
ARC
  5
106
100
AcDbEntity
  8
0
  6
ByLayer
 62
  256
370
   -1
100
AcDbCircle
 10
89.00702063130349
 20
14.3302284397732
 40
0.3594334177664533
100
AcDbArc
 50
21.12854556112178
 51
120.3146903941534
  0
ELLIPSE
  5
107
100
AcDbEntity
  8
0
  6
ByLayer
 62
  256
370
   -1
100
AcDbEllipse
 10
55.28829817272225
 20
7.515153979595141
 30
0
 11
-0.166751000000005
 21
0
 31
0
 40
0.9900990099009899
 41
0
 42
6.283185307179586
  0
ELLIPSE
  5
108
100
AcDbEntity
  8
0
  6
ByLayer
 62
  256
370
   -1
100
AcDbEllipse
 10
60.57659634544452
 20
7.5803079591903
 30
0
 11
-0.166751000000005
 21
0
 31
0
 40
0.9900990099009899
 41
0
 42
6.283185307179586
  0
ELLIPSE
  5
109
100
AcDbEntity
  8
0
  6
ByLayer
 62
  256
370
   -1
100
AcDbEllipse
 10
65.86100651356708
 20
7.744578010599909
 30
0
 11
-0.166751000000005
 21
0
 31
0
 40
0.9900990099009899
 41
0
 42
6.283185307179586
  0
ELLIPSE
  5
10A
100
AcDbEntity
  8
0
  6
ByLayer
 62
  256
370
   -1
100
AcDbEllipse
 10
85.75999999999999
 20
12.54
 30
0
 11
-0.1667509999999908
 21
0
 31
0
 40
0.9900990099009899
 41
0
 42
6.283185307179586
  0
ELLIPSE
  5
10B
100
AcDbEntity
  8
0
  6
ByLayer
 62
  256
370
   -1
100
AcDbEllipse
 10
81.38
 20
10.87
 30
0
 11
-0.166751000000005
 21
0
 31
0
 40
0.9900990099009899
 41
0
 42
6.283185307179586
  0
ELLIPSE
  5
10C
100
AcDbEntity
  8
0
  6
ByLayer
 62
  256
370
   -1
100
AcDbEllipse
 10
71.12
 20
8.329999999999997
 30
0
 11
-0.166751000000005
 21
0
 31
0
 40
0.9900990099009899
 41
0
 42
6.283185307179586
  0
ELLIPSE
  5
10D
100
AcDbEntity
  8
0
  6
ByLayer
 62
  256
370
   -1
100
AcDbEllipse
 10
76.28
 20
9.400000000000002
 30
0
 11
-0.166751000000005
 21
0
 31
0
 40
0.9900990099009899
 41
0
 42
6.283185307179586
  0
MTEXT
  5
10E
100
AcDbEntity
  8
0
  6
ByLayer
 62
  256
370
   -1
100
AcDbMText
 10
0
 20
80
 30
0
 40
5
 41
94.17067145222471
 71
    5
 72
    1
  1
September 16, 2017 at 17:15\PUnits = cm
  7
unicode
210
0
220
0
230
1
 50
0
 73
    2
 44
1
  0
ENDSEC
  0
SECTION
  2
OBJECTS
  0
DICTIONARY
  5
C
330
0
100
AcDbDictionary
281
    1
  3
ACAD_GROUP
350
D
  0
DICTIONARY
  5
D
330
C
100
AcDbDictionary
281
    1
  0
ENDSEC
  0
EOF
