999
dxfrw 0.5.10
0
SECTION
2
HEADER
9
$ACADVER
1
AC1021
9
$HANDSEED
5
20000
9
$DWGCODEPAGE
3
ANSI_1252
9
$INSBASE
10
0
20
0
30
0
9
$EXTMIN
10
-42.2918881115
20
0.834374999998
30
0
9
$EXTMAX
10
34.4241841362
20
55.2161
30
0
9
$LIMMIN
10
0
20
0
9
$LIMMAX
10
420
20
297
9
$ORTHOMODE
70
0
9
$LTSCALE
40
1
9
$TEXTSTYLE
7
STANDARD
9
$CLAYER
8
0
9
$DIMASZ
40
0.1
9
$DIMLFAC
40
1
9
$DIMSCALE
40
1
9
$DIMEXO
40
0.025
9
$DIMEXE
40
0.05
9
$DIMTXT
40
0.1
9
$DIMTSZ
40
0
9
$DIMAUNIT
70
0
9
$DIMADEC
70
2
9
$DIMLUNIT
70
2
9
$DIMSTYLE
2
Standard
9
$DIMGAP
40
0.025
9
$DIMTIH
70
0
9
$LUNITS
70
2
9
$LUPREC
70
4
9
$AUNITS
70
0
9
$AUPREC
70
2
9
$SPLINESEGS
70
8
9
$GRIDMODE
70
1
9
$SNAPSTYLE
70
0
9
$GRIDUNIT
10
0
20
0
9
$PINSBASE
10
8.87813679639
20
6.12584868182
30
0
9
$PLIMMIN
10
0
20
0
9
$PLIMMAX
10
17.0078740157
20
10.9842519685
9
$INSUNITS
70
1
9
$PSVPSCALE
40
0.0998791462331
0
ENDSEC
0
SECTION
2
CLASSES
0
ENDSEC
0
SECTION
2
TABLES
0
TABLE
2
VPORT
5
8
330
0
100
AcDbSymbolTable
70
1
0
VPORT
5
31
330
2
100
AcDbSymbolTableRecord
100
AcDbViewportTableRecord
2
*ACTIVE
70
0
10
0
20
0
11
1
21
1
12
41.5700263643
22
34.6583834266
13
0
23
0
14
10
24
10
15
10
25
10
16
0
26
0
36
1
17
0
27
0
37
0
40
137.231171371
41
1.04087591241
42
50
43
0
44
0
50
0
51
0
71
0
72
100
73
1
74
3
75
0
76
1
77
0
78
0
281
0
65
1
110
0
120
0
130
0
111
1
121
0
131
0
112
0
122
1
132
0
79
0
146
0
348
10020
60
7
61
5
292
1
282
1
141
0
142
0
63
250
421
3358443
0
ENDTAB
0
TABLE
2
LTYPE
5
5
330
0
100
AcDbSymbolTable
70
4
0
LTYPE
5
14
330
5
100
AcDbSymbolTableRecord
100
AcDbLinetypeTableRecord
2
ByBlock
70
0
3

72
65
73
0
40
0
0
LTYPE
5
15
330
5
100
AcDbSymbolTableRecord
100
AcDbLinetypeTableRecord
2
ByLayer
70
0
3

72
65
73
0
40
0
0
LTYPE
5
16
330
5
100
AcDbSymbolTableRecord
100
AcDbLinetypeTableRecord
2
Continuous
70
0
3
Solid line
72
65
73
0
40
0
0
LTYPE
5
32
330
5
100
AcDbSymbolTableRecord
100
AcDbLinetypeTableRecord
2
DOT
70
0
3
Dot . . . . . . . . . . . . . . . . . . . . . .
72
65
73
2
40
6.35
49
0
74
0
49
-6.35
74
0
0
LTYPE
5
33
330
5
100
AcDbSymbolTableRecord
100
AcDbLinetypeTableRecord
2
DOT2
70
0
3
Dot (.5x) .....................................
72
65
73
2
40
3.175
49
0
74
0
49
-3.175
74
0
0
LTYPE
5
34
330
5
100
AcDbSymbolTableRecord
100
AcDbLinetypeTableRecord
2
DOTX2
70
0
3
Dot (2x) .  .  .  .  .  .  .  .  .  .  .  .  .
72
65
73
2
40
12.7
49
0
74
0
49
-12.7
74
0
0
LTYPE
5
35
330
5
100
AcDbSymbolTableRecord
100
AcDbLinetypeTableRecord
2
DASHED
70
0
3
Dot . . . . . . . . . . . . . . . . . . . . . .
72
65
73
2
40
19.05
49
12.7
74
0
49
-6.35
74
0
0
LTYPE
5
36
330
5
100
AcDbSymbolTableRecord
100
AcDbLinetypeTableRecord
2
DASHED2
70
0
3
Dashed (.5x) _ _ _ _ _ _ _ _ _ _ _ _ _ _ _ _ _
72
65
73
2
40
9.525
49
6.35
74
0
49
-3.175
74
0
0
LTYPE
5
37
330
5
100
AcDbSymbolTableRecord
100
AcDbLinetypeTableRecord
2
DASHEDX2
70
0
3
Dashed (2x) ____  ____  ____  ____  ____  ___
72
65
73
2
40
38.1
49
25.4
74
0
49
-12.7
74
0
0
LTYPE
5
38
330
5
100
AcDbSymbolTableRecord
100
AcDbLinetypeTableRecord
2
DASHDOT
70
0
3
Dash dot __ . __ . __ . __ . __ . __ . __ . __
72
65
73
4
40
25.4
49
12.7
74
0
49
-6.35
74
0
49
0
74
0
49
-6.35
74
0
0
LTYPE
5
39
330
5
100
AcDbSymbolTableRecord
100
AcDbLinetypeTableRecord
2
DASHDOT2
70
0
3
Dash dot (.5x) _._._._._._._._._._._._._._._.
72
65
73
4
40
12.7
49
6.35
74
0
49
-3.175
74
0
49
0
74
0
49
-3.175
74
0
0
LTYPE
5
3A
330
5
100
AcDbSymbolTableRecord
100
AcDbLinetypeTableRecord
2
DASHDOTX2
70
0
3
Dash dot (2x) ____  .  ____  .  ____  .  ___
72
65
73
4
40
50.8
49
25.4
74
0
49
-12.7
74
0
49
0
74
0
49
-12.7
74
0
0
LTYPE
5
3B
330
5
100
AcDbSymbolTableRecord
100
AcDbLinetypeTableRecord
2
DIVIDE
70
0
3
Divide ____ . . ____ . . ____ . . ____ . . ____
72
65
73
6
40
31.75
49
12.7
74
0
49
-6.35
74
0
49
0
74
0
49
-6.35
74
0
49
0
74
0
49
-6.35
74
0
0
LTYPE
5
3C
330
5
100
AcDbSymbolTableRecord
100
AcDbLinetypeTableRecord
2
DIVIDE2
70
0
3
Divide (.5x) __..__..__..__..__..__..__..__.._
72
65
73
6
40
15.875
49
6.35
74
0
49
-3.175
74
0
49
0
74
0
49
-3.175
74
0
49
0
74
0
49
-3.175
74
0
0
LTYPE
5
3D
330
5
100
AcDbSymbolTableRecord
100
AcDbLinetypeTableRecord
2
DIVIDEX2
70
0
3
Divide (2x) ________  .  .  ________  .  .  _
72
65
73
6
40
63.5
49
25.4
74
0
49
-12.7
74
0
49
0
74
0
49
-12.7
74
0
49
0
74
0
49
-12.7
74
0
0
LTYPE
5
3E
330
5
100
AcDbSymbolTableRecord
100
AcDbLinetypeTableRecord
2
BORDER
70
0
3
Border __ __ . __ __ . __ __ . __ __ . __ __ .
72
65
73
6
40
44.45
49
12.7
74
0
49
-6.35
74
0
49
12.7
74
0
49
-6.35
74
0
49
0
74
0
49
-6.35
74
0
0
LTYPE
5
3F
330
5
100
AcDbSymbolTableRecord
100
AcDbLinetypeTableRecord
2
BORDER2
70
0
3
Border (.5x) __.__.__.__.__.__.__.__.__.__.__.
72
65
73
6
40
22.225
49
6.35
74
0
49
-3.175
74
0
49
6.35
74
0
49
-3.175
74
0
49
0
74
0
49
-3.175
74
0
0
LTYPE
5
40
330
5
100
AcDbSymbolTableRecord
100
AcDbLinetypeTableRecord
2
BORDERX2
70
0
3
Border (2x) ____  ____  .  ____  ____  .  ___
72
65
73
6
40
88.9
49
25.4
74
0
49
-12.7
74
0
49
25.4
74
0
49
-12.7
74
0
49
0
74
0
49
-12.7
74
0
0
LTYPE
5
41
330
5
100
AcDbSymbolTableRecord
100
AcDbLinetypeTableRecord
2
CENTER
70
0
3
Center ____ _ ____ _ ____ _ ____ _ ____ _ ____
72
65
73
4
40
50.8
49
31.75
74
0
49
-6.35
74
0
49
6.35
74
0
49
-6.35
74
0
0
LTYPE
5
42
330
5
100
AcDbSymbolTableRecord
100
AcDbLinetypeTableRecord
2
CENTER2
70
0
3
Center (.5x) ___ _ ___ _ ___ _ ___ _ ___ _ ___
72
65
73
4
40
28.575
49
19.05
74
0
49
-3.175
74
0
49
3.175
74
0
49
-3.175
74
0
0
LTYPE
5
43
330
5
100
AcDbSymbolTableRecord
100
AcDbLinetypeTableRecord
2
CENTERX2
70
0
3
Center (2x) ________  __  ________  __  _____
72
65
73
4
40
101.6
49
63.5
74
0
49
-12.7
74
0
49
12.7
74
0
49
-12.7
74
0
0
ENDTAB
0
TABLE
2
LAYER
5
2
330
0
100
AcDbSymbolTable
70
1
0
LAYER
5
10
330
2
100
AcDbSymbolTableRecord
100
AcDbLayerTableRecord
2
0
70
0
62
7
6
CONTINUOUS
370
0
390
F
0
ENDTAB
0
TABLE
2
STYLE
5
3
330
0
100
AcDbSymbolTable
70
3
0
STYLE
5
44
330
2
100
AcDbSymbolTableRecord
100
AcDbTextStyleTableRecord
2
iso
70
0
40
0
41
1
50
0
71
0
42
1
3
iso
4

0
STYLE
5
45
330
2
100
AcDbSymbolTableRecord
100
AcDbTextStyleTableRecord
2
Standard
70
0
40
0
41
1
50
0
71
0
42
1
3
txt
4

0
ENDTAB
0
TABLE
2
VIEW
5
6
330
0
100
AcDbSymbolTable
70
0
0
ENDTAB
0
TABLE
2
UCS
5
7
330
0
100
AcDbSymbolTable
70
0
0
ENDTAB
0
TABLE
2
APPID
5
9
330
0
100
AcDbSymbolTable
70
1
0
APPID
5
12
330
9
100
AcDbSymbolTableRecord
100
AcDbRegAppTableRecord
2
ACAD
70
0
0
ENDTAB
0
TABLE
2
DIMSTYLE
5
A
330
0
100
AcDbSymbolTable
70
1
100
AcDbDimStyleTable
71
1
0
DIMSTYLE
105
46
330
A
100
AcDbSymbolTableRecord
100
AcDbDimStyleTableRecord
2
Standard
70
0
40
1
41
0.1
42
0.025
43
0.38
44
0.05
45
0
46
0
47
0
48
0
140
0.1
141
0.09
142
0
143
25.4
144
1
145
0
146
1
147
0.025
148
0
71
0
72
0
73
0
74
1
75
0
76
0
77
0
78
0
79
0
170
0
171
2
172
0
173
0
174
0
175
0
176
0
177
0
178
0
179
0
271
4
272
4
273
2
274
2
275
0
276
0
277
2
278
46
279
0
280
0
281
0
282
0
283
1
284
0
285
0
286
0
288
0
289
3
340
Standard
341

371
-2
372
-2
0
ENDTAB
0
TABLE
2
BLOCK_RECORD
5
1
330
0
100
AcDbSymbolTable
70
2
0
BLOCK_RECORD
5
1F
330
1
100
AcDbSymbolTableRecord
100
AcDbBlockTableRecord
2
*Model_Space
70
0
280
1
281
0
0
BLOCK_RECORD
5
1E
330
1
100
AcDbSymbolTableRecord
100
AcDbBlockTableRecord
2
*Paper_Space
70
0
280
1
281
0
0
ENDTAB
0
ENDSEC
0
SECTION
2
BLOCKS
0
BLOCK
5
20
330
1F
100
AcDbEntity
8
0
100
AcDbBlockBegin
2
*Model_Space
70
0
10
0
20
0
30
0
3
*Model_Space
1

0
ENDBLK
5
21
330
1F
100
AcDbEntity
8
0
100
AcDbBlockEnd
0
BLOCK
5
1C
330
1B
100
AcDbEntity
8
0
100
AcDbBlockBegin
2
*Paper_Space
70
0
10
0
20
0
30
0
3
*Paper_Space
1

0
ENDBLK
5
1D
330
1F
100
AcDbEntity
8
0
100
AcDbBlockEnd
0
ENDSEC
0
SECTION
2
ENTITIES
0
LWPOLYLINE
5
47
100
AcDbEntity
8
0
6
ByLayer
62
256
370
0
100
AcDbPolyline
90
2
70
0
43
0
10
-42.2918881115
20
33.41060183
10
-42.2918881115
20
33.41060183
0
ELLIPSE
5
48
100
AcDbEntity
8
0
6
ByLayer
62
256
370
0
100
AcDbEllipse
10
-31.166155
20
24.0303083333
30
0
11
0.243920767975
21
0
31
0
40
0.952380952381
41
1.72450385585
42
2.98788512454
0
LINE
5
49
100
AcDbEntity
8
0
6
ByLayer
62
256
370
0
100
AcDbLine
10
-31.4072
20
24.065875
11
-30.9998
21
21.543875
0
ELLIPSE
5
4A
100
AcDbEntity
8
0
6
ByLayer
62
256
370
0
100
AcDbEllipse
10
-30.758755
20
21.5794416667
30
0
11
0.243920767975
21
0
31
0
40
0.952380952381
41
3.29530018264
42
4.55868145133
0
ELLIPSE
5
4B
100
AcDbEntity
8
0
6
ByLayer
62
256
370
0
100
AcDbEllipse
10
-20
20
-20.3399021387
30
0
11
45.0859416966
21
0
31
0
40
0.952380952381
41
1.32899079819
42
1.8126018554
0
ELLIPSE
5
4C
100
AcDbEntity
8
0
6
ByLayer
62
256
370
0
100
AcDbEllipse
10
-9.241245
20
21.5794416667
30
0
11
0.243920767975
21
0
31
0
40
0.952380952381
41
4.86609650944
42
6.12947777813
0
LINE
5
4D
100
AcDbEntity
8
0
6
ByLayer
62
256
370
0
100
AcDbLine
10
-8.5928
20
24.065875
11
-9.0002
21
21.543875
0
ELLIPSE
5
4E
100
AcDbEntity
8
0
6
ByLayer
62
256
370
0
100
AcDbEllipse
10
-19.9785571518
20
-20.6631474879
30
0
11
48.4863927428
21
0
31
0
40
0.952380952381
41
1.3380788613
42
1.80442288314
0
ELLIPSE
5
4F
100
AcDbEntity
8
0
6
ByLayer
62
256
370
0
100
AcDbEllipse
10
-8.84080475
20
24.0351583333
30
0
11
0.250093142207
21
0
31
0
40
0.952380952381
41
0.129322119886
42
1.39270338856
0
LINE
5
50
100
AcDbEntity
8
0
6
ByLayer
62
256
370
0
100
AcDbLine
10
-22.087925
20
43.465875
11
-22.34255
21
33.377875
0
ELLIPSE
5
51
100
AcDbEntity
8
0
6
ByLayer
62
256
370
0
100
AcDbEllipse
10
-20
20
50.5527673246
30
0
11
7.57739430921
21
0
31
0
40
0.952380952381
41
4.46108831916
42
4.96368964161
0
ELLIPSE
5
52
100
AcDbEntity
8
0
6
ByLayer
62
256
370
0
100
AcDbEllipse
10
-21.9266625
20
43.4012083333
30
0
11
0.174974294987
21
0
31
0
40
0.952380952381
41
1.32581766367
42
2.74307020792
0
ELLIPSE
5
53
100
AcDbEntity
8
0
6
ByLayer
62
256
370
0
100
AcDbEllipse
10
-22.1337575
20
33.382725
30
0
11
0.208854594425
21
0
31
0
40
0.952380952381
41
3.16597806276
42
4.68800357122
0
ELLIPSE
5
54
100
AcDbEntity
8
0
6
ByLayer
62
256
370
0
100
AcDbEllipse
10
-91.784318787
20
38.2055191487
30
0
11
67.9754433701
21
0
31
0
40
0.952380952381
41
6.20568949042
42
0.0693242585542
0
ELLIPSE
5
55
100
AcDbEntity
8
0
6
ByLayer
62
256
370
0
100
AcDbEllipse
10
-24.2506705769
20
33.2051403846
30
0
11
0.23809046829
21
0
31
0
40
0.952380952381
41
5.03205837233
42
6.23215879914
0
ELLIPSE
5
56
100
AcDbEntity
8
0
6
ByLayer
62
256
370
0
100
AcDbEllipse
10
-25.5768600296
20
42.0801525148
30
0
11
1.72770406687
21
0
31
0
40
0.952380952381
41
0.379606007492
42
2.84943088329
0
ELLIPSE
5
57
100
AcDbEntity
8
0
6
ByLayer
62
256
370
0
100
AcDbEllipse
10
-33.2467975954
20
32.9093872137
30
0
11
0.759881106877
21
0
31
0
40
0.952380952381
41
3.43674409702
42
4.99238919852
0
ELLIPSE
5
58
100
AcDbEntity
8
0
6
ByLayer
62
256
370
0
100
AcDbEllipse
10
-21.564125
20
-40.3351964286
30
0
11
77.0356101601
21
0
31
0
40
0.952380952381
41
1.60470565228
42
1.72027931383
0
ELLIPSE
5
59
100
AcDbEntity
8
0
6
ByLayer
62
256
370
0
100
AcDbEllipse
10
-38.1410576838
20
44.1422360294
30
0
11
11.0364173709
21
0
31
0
40
0.952380952381
41
5.13168881174
42
6.13150743078
0
ELLIPSE
5
5A
100
AcDbEntity
8
0
6
ByLayer
62
256
370
0
100
AcDbEllipse
10
-33.3909947761
20
33.9584272388
30
0
11
0.664306963179
21
0
31
0
40
0.952380952381
41
1.96787577202
42
3.13930432806
0
LINE
5
5B
100
AcDbEntity
8
0
6
ByLayer
62
256
370
0
100
AcDbLine
10
-34.0553
20
33.959875
11
-33.97382
21
32.698875
0
ELLIPSE
5
5C
100
AcDbEntity
8
0
6
ByLayer
62
256
370
0
100
AcDbEllipse
10
-20.050925
20
-24.3898498061
30
0
11
58.0004102263
21
0
31
0
40
0.952380952381
41
1.37014411027
42
1.77144854332
0
LINE
5
5D
100
AcDbEntity
8
0
6
ByLayer
62
256
370
0
100
AcDbLine
10
-8.51132
20
27.024375
11
-8.16503
21
29.449375
0
LINE
5
5E
100
AcDbEntity
8
0
6
ByLayer
62
256
370
0
100
AcDbLine
10
-31.87571
20
29.497875
11
-31.539605
21
27.072875
0
ELLIPSE
5
5F
100
AcDbEntity
8
0
6
ByLayer
62
256
370
0
100
AcDbEllipse
10
-31.567645981
20
29.4451389241
30
0
11
0.313000951446
21
0
31
0
40
0.952380952381
41
1.70943132039
42
2.96374699828
0
ELLIPSE
5
60
100
AcDbEntity
8
0
6
ByLayer
62
256
370
0
100
AcDbEllipse
10
-8.5384453572
20
29.3810790816
30
0
11
0.380238682269
21
0
31
0
40
0.952380952381
41
0.18973020476
42
1.44555988691
0
ELLIPSE
5
61
100
AcDbEntity
8
0
6
ByLayer
62
256
370
0
100
AcDbEllipse
10
-8.77904
20
27.0357378571
30
0
11
0.267985721935
21
0
31
0
40
0.952380952381
41
4.60904665452
42
6.23864955773
0
ELLIPSE
5
62
100
AcDbEntity
8
0
6
ByLayer
62
256
370
0
100
AcDbEllipse
10
-20.0050925
20
-25.0446349201
30
0
11
55.5581239957
21
0
31
0
40
0.952380952381
41
1.36784391954
42
1.77374873405
0
ELLIPSE
5
63
100
AcDbEntity
8
0
6
ByLayer
62
256
370
0
100
AcDbEllipse
10
-31.1949846721
20
27.1123508197
30
0
11
0.347104077481
21
0
31
0
40
0.952380952381
41
3.26129381321
42
4.68785402732
0
ELLIPSE
5
64
100
AcDbEntity
8
0
6
ByLayer
62
256
370
0
100
AcDbEllipse
10
-20
20
54.106775
30
0
11
44.844555
21
0
31
0
40
0.952380952381
41
4.55272900896
42
4.87204895181
0
ELLIPSE
5
65
100
AcDbEntity
8
0
6
ByLayer
62
256
370
0
100
AcDbEllipse
10
-8.69465
20
13.298875
30
0
11
0.50925
21
0
31
0
40
0.952380952381
41
5.35589008918
42
3.5527136788e-15
0
LINE
5
66
100
AcDbEntity
8
0
6
ByLayer
62
256
370
0
100
AcDbLine
10
-9.0002
20
15.335875
11
-8.1854
21
13.298875
0
ELLIPSE
5
67
100
AcDbEntity
8
0
6
ByLayer
62
256
370
0
100
AcDbEllipse
10
-9.4092146951
20
15.2206579268
30
0
11
0.426530983172
21
0
31
0
40
0.952380952381
41
0.287579763809
42
1.56701067219
0
ELLIPSE
5
68
100
AcDbEntity
8
0
6
ByLayer
62
256
370
0
100
AcDbEllipse
10
-20
20
57.4135751008
30
0
11
45.1365195199
21
0
31
0
40
0.952380952381
41
4.47550505238
42
4.94927290839
0
ELLIPSE
5
69
100
AcDbEntity
8
0
6
ByLayer
62
256
370
0
100
AcDbEllipse
10
-31.30535
20
13.298875
30
0
11
0.50925
21
0
31
0
40
0.952380952381
41
3.14159265359
42
4.06888787159
0
LINE
5
6A
100
AcDbEntity
8
0
6
ByLayer
62
256
370
0
100
AcDbLine
10
-30.9998
20
15.335875
11
-31.8146
21
13.298875
0
ELLIPSE
5
6B
100
AcDbEntity
8
0
6
ByLayer
62
256
370
0
100
AcDbEllipse
10
-30.5907853049
20
15.2206579268
30
0
11
0.426530983172
21
0
31
0
40
0.952380952381
41
1.5745819814
42
2.85401288977
0
ELLIPSE
5
6C
100
AcDbEntity
8
0
6
ByLayer
62
256
370
0
100
AcDbEllipse
10
-15.1112
20
30.7265416667
30
0
11
19.8775727897
21
0
31
0
40
0.952380952381
41
4.95032550641
42
5.05736604332
0
ELLIPSE
5
6D
100
AcDbEntity
8
0
6
ByLayer
62
256
370
0
100
AcDbEllipse
10
-11.683143421
20
12.2140065789
30
0
11
0.780182204208
21
0
31
0
40
0.952380952381
41
0.289153409279
42
3.11754230891
0
ELLIPSE
5
6E
100
AcDbEntity
8
0
6
ByLayer
62
256
370
0
100
AcDbEllipse
10
-13.125125
20
12.668375
30
0
11
0.805194949221
21
0
31
0
40
0.952380952381
41
5.03413953478
42
5.67764064358
0
ELLIPSE
5
6F
100
AcDbEntity
8
0
6
ByLayer
62
256
370
0
100
AcDbEllipse
10
-10.578875
20
12.862375
30
0
11
0.580634335232
21
0
31
0
40
0.952380952381
41
4.05134581154
42
4.97864102953
0
ELLIPSE
5
70
100
AcDbEntity
8
0
6
ByLayer
62
256
370
0
100
AcDbEllipse
10
-28.3168565789
20
12.2140065789
30
0
11
0.780182204208
21
0
31
0
40
0.952380952381
41
0.0240503446854
42
2.85243924432
0
ELLIPSE
5
71
100
AcDbEntity
8
0
6
ByLayer
62
256
370
0
100
AcDbEllipse
10
-26.874875
20
12.668375
30
0
11
0.805194949221
21
0
31
0
40
0.952380952381
41
3.74713731719
42
4.39063842599
0
ELLIPSE
5
72
100
AcDbEntity
8
0
6
ByLayer
62
256
370
0
100
AcDbEllipse
10
-29.421125
20
12.862375
30
0
11
0.580634335232
21
0
31
0
40
0.952380952381
41
4.44613693123
42
5.37343214923
0
ELLIPSE
5
73
100
AcDbEntity
8
0
6
ByLayer
62
256
370
0
100
AcDbEllipse
10
-24.8888
20
30.7265416667
30
0
11
19.8775727897
21
0
31
0
40
0.952380952381
41
4.36741191745
42
4.47445245436
0
ELLIPSE
5
74
100
AcDbEntity
8
0
6
ByLayer
62
256
370
0
100
AcDbEllipse
10
-20
20
53.1186402174
30
0
11
46.1699334783
21
0
31
0
40
0.952380952381
41
4.46500966309
42
4.95976829768
0
LINE
5
75
100
AcDbEntity
8
0
6
ByLayer
62
256
370
0
100
AcDbLine
10
-7.9817
20
10.291875
11
-7.1669
21
8.254875
0
ELLIPSE
5
76
100
AcDbEntity
8
0
6
ByLayer
62
256
370
0
100
AcDbEllipse
10
-8.49095
20
9.879625
30
0
11
0.668360311813
21
0
31
0
40
0.952380952381
41
0.704494064242
42
1.88049927134
0
ELLIPSE
5
77
100
AcDbEntity
8
0
6
ByLayer
62
256
370
0
100
AcDbEllipse
10
-7.523375
20
8.109375
30
0
11
0.387833245416
21
0
31
0
40
0.952380952381
41
5.11728076668
42
0.404891786284
0
LINE
5
78
100
AcDbEntity
8
0
6
ByLayer
62
256
370
0
100
AcDbLine
10
-32.0183
20
10.291875
11
-32.8331
21
8.254875
0
ELLIPSE
5
79
100
AcDbEntity
8
0
6
ByLayer
62
256
370
0
100
AcDbEllipse
10
-31.50905
20
9.879625
30
0
11
0.668360311813
21
0
31
0
40
0.952380952381
41
1.26109338225
42
2.43709858935
0
ELLIPSE
5
7A
100
AcDbEntity
8
0
6
ByLayer
62
256
370
0
100
AcDbEllipse
10
-32.476625
20
8.109375
30
0
11
0.387833245416
21
0
31
0
40
0.952380952381
41
2.7367008673
42
4.30749719409
0
ELLIPSE
5
7B
100
AcDbEntity
8
0
6
ByLayer
62
256
370
0
100
AcDbEllipse
10
-20
20
52.2585043271
30
0
11
48.3902034822
21
0
31
0
40
0.952380952381
41
4.44834050235
42
4.97643745842
0
ELLIPSE
5
7C
100
AcDbEntity
8
0
6
ByLayer
62
256
370
0
100
AcDbEllipse
10
-20
20
47.1058126906
30
0
11
45.4358075751
21
0
31
0
40
0.952380952381
41
4.43071777289
42
4.99406018788
0
ELLIPSE
5
7D
100
AcDbEntity
8
0
6
ByLayer
62
256
370
0
100
AcDbEllipse
10
-20
20
46
30
0
11
47.42390625
21
0
31
0
40
0.952380952381
41
4.41823226961
42
5.00654569116
0
ELLIPSE
5
7E
100
AcDbEntity
8
0
6
ByLayer
62
256
370
0
100
AcDbEllipse
10
-32.7285930435
20
5.27381195652
30
0
11
0.295464320412
21
0
31
0
40
0.952380952381
41
1.22842769428
42
2.70274719871
0
ELLIPSE
5
7F
100
AcDbEntity
8
0
6
ByLayer
62
256
370
0
100
AcDbEllipse
10
-33.6556885294
20
3.06166617647
30
0
11
0.315980605235
21
0
31
0
40
0.952380952381
41
2.80035431167
42
4.41012621351
0
LINE
5
80
100
AcDbEntity
8
0
6
ByLayer
62
256
370
0
100
AcDbLine
10
-33.95345
20
3.162375
11
-32.99606
21
5.393375
0
ELLIPSE
5
81
100
AcDbEntity
8
0
6
ByLayer
62
256
370
0
100
AcDbEllipse
10
-7.2714069565
20
5.27381195652
30
0
11
0.295464320412
21
0
31
0
40
0.952380952381
41
0.438845454876
42
1.91316495931
0
ELLIPSE
5
82
100
AcDbEntity
8
0
6
ByLayer
62
256
370
0
100
AcDbEllipse
10
-6.3443114705
20
3.06166617647
30
0
11
0.315980605235
21
0
31
0
40
0.952380952381
41
5.01465174726
42
0.34123834191
0
LINE
5
83
100
AcDbEntity
8
0
6
ByLayer
62
256
370
0
100
AcDbLine
10
-6.04655
20
3.162375
11
-7.00394
21
5.393375
0
ELLIPSE
5
84
100
AcDbEntity
8
0
6
ByLayer
62
256
370
0
100
AcDbEllipse
10
-25.9073
20
42.689875
30
0
11
0.0763942896983
21
0
31
0
40
0.952380952381
41
0
42
6.28318530718
0
ELLIPSE
5
85
100
AcDbEntity
8
0
6
ByLayer
62
256
370
0
100
AcDbEllipse
10
-30.185
20
33.959875
30
0
11
0.0763942896983
21
0
31
0
40
0.952380952381
41
0
42
6.28318530718
0
MTEXT
5
86
100
AcDbEntity
8
0
6
ByLayer
62
256
370
0
100
AcDbMText
10
-20.7122714908
20
13.134546363
30
0
40
0.10185
41
1.49662916667
71
1
72
5
1
Lower Front Plate #1\PSize L
7
iso
210
0
220
0
230
1
50
0
73
2
44
1
0
CIRCLE
5
87
100
AcDbEntity
8
0
6
ByLayer
62
256
370
-1
100
AcDbCircle
10
-26.7221
20
42.893575
40
0.065
0
CIRCLE
5
88
100
AcDbEntity
8
0
6
ByLayer
62
256
370
-1
100
AcDbCircle
10
-27.200795
20
41.428875
40
0.065
0
CIRCLE
5
89
100
AcDbEntity
8
0
6
ByLayer
62
256
370
-1
100
AcDbCircle
10
-27.69986
20
39.973875
40
0.065
0
CIRCLE
5
8A
100
AcDbEntity
8
0
6
ByLayer
62
256
370
-1
100
AcDbCircle
10
-28.51466
20
38.518875
40
0.065
0
CIRCLE
5
8B
100
AcDbEntity
8
0
6
ByLayer
62
256
370
-1
100
AcDbCircle
10
-29.47205
20
37.160875
40
0.065
0
CIRCLE
5
8C
100
AcDbEntity
8
0
6
ByLayer
62
256
370
-1
100
AcDbCircle
10
-30.7961
20
35.899875
40
0.065
0
CIRCLE
5
8D
100
AcDbEntity
8
0
6
ByLayer
62
256
370
-1
100
AcDbCircle
10
-32.222
20
34.929875
40
0.065
0
CIRCLE
5
8E
100
AcDbEntity
8
0
6
ByLayer
62
256
370
-1
100
AcDbCircle
10
-33.759935
20
34.056875
40
0.065
0
CIRCLE
5
8F
100
AcDbEntity
8
0
6
ByLayer
62
256
370
-1
100
AcDbCircle
10
-33.474755
20
32.543675
40
0.065
0
CIRCLE
5
90
100
AcDbEntity
8
0
6
ByLayer
62
256
370
-1
100
AcDbCircle
10
-31.71275
20
32.660075
40
0.065
0
CIRCLE
5
91
100
AcDbEntity
8
0
6
ByLayer
62
256
370
-1
100
AcDbCircle
10
-30.185
20
32.834675
40
0.065
0
CIRCLE
5
92
100
AcDbEntity
8
0
6
ByLayer
62
256
370
-1
100
AcDbCircle
10
-28.65725
20
32.980175
40
0.065
0
CIRCLE
5
93
100
AcDbEntity
8
0
6
ByLayer
62
256
370
-1
100
AcDbCircle
10
-27.1295
20
33.096575
40
0.065
0
CIRCLE
5
94
100
AcDbEntity
8
0
6
ByLayer
62
256
370
-1
100
AcDbCircle
10
-25.4999
20
33.203275
40
0.065
0
CIRCLE
5
95
100
AcDbEntity
8
0
6
ByLayer
62
256
370
-1
100
AcDbCircle
10
-25.4999
20
34.250875
40
0.065
0
CIRCLE
5
96
100
AcDbEntity
8
0
6
ByLayer
62
256
370
-1
100
AcDbCircle
10
-25.39805
20
35.705875
40
0.065
0
CIRCLE
5
97
100
AcDbEntity
8
0
6
ByLayer
62
256
370
-1
100
AcDbCircle
10
-25.2962
20
37.548875
40
0.065
0
CIRCLE
5
98
100
AcDbEntity
8
0
6
ByLayer
62
256
370
-1
100
AcDbCircle
10
-25.2962
20
39.003875
40
0.065
0
CIRCLE
5
99
100
AcDbEntity
8
0
6
ByLayer
62
256
370
-1
100
AcDbCircle
10
-25.2962
20
40.458875
40
0.065
0
CIRCLE
5
9A
100
AcDbEntity
8
0
6
ByLayer
62
256
370
-1
100
AcDbCircle
10
-25.39805
20
42.010875
40
0.065
0
CIRCLE
5
9B
100
AcDbEntity
8
0
6
ByLayer
62
256
370
-1
100
AcDbCircle
10
-25.448975
20
43.446475
40
0.065
0
CIRCLE
5
9C
100
AcDbEntity
8
0
6
ByLayer
62
256
370
-1
100
AcDbCircle
10
-21.802745
20
43.271875
40
0.065
0
CIRCLE
5
9D
100
AcDbEntity
8
0
6
ByLayer
62
256
370
-1
100
AcDbCircle
10
-21.843485
20
41.816875
40
0.065
0
CIRCLE
5
9E
100
AcDbEntity
8
0
6
ByLayer
62
256
370
-1
100
AcDbCircle
10
-21.884225
20
40.361875
40
0.065
0
CIRCLE
5
9F
100
AcDbEntity
8
0
6
ByLayer
62
256
370
-1
100
AcDbCircle
10
-21.91478
20
38.906875
40
0.065
0
CIRCLE
5
A0
100
AcDbEntity
8
0
6
ByLayer
62
256
370
-1
100
AcDbCircle
10
-21.95552
20
37.451875
40
0.065
0
CIRCLE
5
A1
100
AcDbEntity
8
0
6
ByLayer
62
256
370
-1
100
AcDbCircle
10
-21.99626
20
35.996875
40
0.065
0
CIRCLE
5
A2
100
AcDbEntity
8
0
6
ByLayer
62
256
370
-1
100
AcDbCircle
10
-21.986075
20
34.541875
40
0.065
0
CIRCLE
5
A3
100
AcDbEntity
8
0
6
ByLayer
62
256
370
-1
100
AcDbCircle
10
-22.05737
20
33.455475
40
0.065
0
CIRCLE
5
A4
100
AcDbEntity
8
0
6
ByLayer
62
256
370
-1
100
AcDbCircle
10
-20.763875
20
33.455475
40
0.065
0
CIRCLE
5
A5
100
AcDbEntity
8
0
6
ByLayer
62
256
370
-1
100
AcDbCircle
10
-20.763875
20
43.097275
40
0.065
0
LINE
5
A6
100
AcDbEntity
8
0
6
ByLayer
62
256
370
0
100
AcDbLine
10
14.39825
20
54.598
11
13.2779
21
52.367
0
ELLIPSE
5
A7
100
AcDbEntity
8
0
6
ByLayer
62
256
370
0
100
AcDbEllipse
10
13.6307375
20
52.1556785714
30
0
11
0.416807346459
21
0
31
0
40
0.952380952381
41
2.58021813722
42
4.34646827873
0
ELLIPSE
5
A8
100
AcDbEntity
8
0
6
ByLayer
62
256
370
0
100
AcDbEllipse
10
20
20
80.2735802198
30
0
11
30.6149907692
21
0
31
0
40
0.952380952381
41
4.49783126909
42
4.92694669168
0
LINE
5
A9
100
AcDbEntity
8
0
6
ByLayer
62
256
370
0
100
AcDbLine
10
25.60175
20
54.598
11
26.7221
21
52.367
0
ELLIPSE
5
AA
100
AcDbEntity
8
0
6
ByLayer
62
256
370
0
100
AcDbEllipse
10
26.3692625
20
52.1556785714
30
0
11
0.416807346459
21
0
31
0
40
0.952380952381
41
5.07830968203
42
0.56137451636
0
ELLIPSE
5
AB
100
AcDbEntity
8
0
6
ByLayer
62
256
370
0
100
AcDbEllipse
10
24.5894857143
20
53.8378367347
30
0
11
1.28909139068
21
0
31
0
40
0.952380952381
41
0.667689938453
42
2.36873659192
0
ELLIPSE
5
AC
100
AcDbEntity
8
0
6
ByLayer
62
256
370
0
100
AcDbEllipse
10
15.4042785714
20
53.9288979592
30
0
11
1.22706154104
21
0
31
0
40
0.952380952381
41
0.830930221236
42
2.5319768747
0
ELLIPSE
5
AD
100
AcDbEntity
8
0
6
ByLayer
62
256
370
0
100
AcDbEllipse
10
19.9843477273
20
57.1957943723
30
0
11
4.52260837051
21
0
31
0
40
0.952380952381
41
3.73366461698
42
5.66371779705
0
LINE
5
AE
100
AcDbEntity
8
0
6
ByLayer
62
256
370
0
100
AcDbLine
10
13.6853
20
49.748
11
18.7778
21
49.166
0
LINE
5
AF
100
AcDbEntity
8
0
6
ByLayer
62
256
370
0
100
AcDbLine
10
13.17605
20
49.457
11
12.2594
21
47.226
0
ELLIPSE
5
B0
100
AcDbEntity
8
0
6
ByLayer
62
256
370
0
100
AcDbEllipse
10
20
20
77.9943080569
30
0
11
33.47185746
21
0
31
0
40
0.952380952381
41
4.48527018353
42
4.93950777724
0
ELLIPSE
5
B1
100
AcDbEntity
8
0
6
ByLayer
62
256
370
0
100
AcDbEllipse
10
13.736225
20
49.1175
30
0
11
0.66398076497
21
0
31
0
40
0.952380952381
41
1.64756821806
42
2.57486343606
0
ELLIPSE
5
B2
100
AcDbEntity
8
0
6
ByLayer
62
256
370
0
100
AcDbEllipse
10
12.514025
20
47.1775
30
0
11
0.259667568729
21
0
31
0
40
0.952380952381
41
2.94419709374
42
4.51499342054
0
LINE
5
B3
100
AcDbEntity
8
0
6
ByLayer
62
256
370
0
100
AcDbLine
10
26.3147
20
49.748
11
21.2222
21
49.166
0
LINE
5
B4
100
AcDbEntity
8
0
6
ByLayer
62
256
370
0
100
AcDbLine
10
26.82395
20
49.457
11
27.7406
21
47.226
0
ELLIPSE
5
B5
100
AcDbEntity
8
0
6
ByLayer
62
256
370
0
100
AcDbEllipse
10
26.263775
20
49.1175
30
0
11
0.66398076497
21
0
31
0
40
0.952380952381
41
0.566729217523
42
1.49402443553
0
ELLIPSE
5
B6
100
AcDbEntity
8
0
6
ByLayer
62
256
370
0
100
AcDbEllipse
10
27.485975
20
47.1775
30
0
11
0.259667568729
21
0
31
0
40
0.952380952381
41
4.90978454023
42
0.19739555985
0
ELLIPSE
5
B7
100
AcDbEntity
8
0
6
ByLayer
62
256
370
0
100
AcDbEllipse
10
20
20
63.10975
30
0
11
14.6918625
21
0
31
0
40
0.952380952381
41
4.62910382218
42
4.79567413859
0
ELLIPSE
5
B8
100
AcDbEntity
8
0
6
ByLayer
62
256
370
0
100
AcDbEllipse
10
20
20
-137.58325
30
0
11
191.0451375
21
0
31
0
40
0.952380952381
41
1.53080165885
42
1.61079099474
0
ELLIPSE
5
B9
100
AcDbEntity
8
0
6
ByLayer
62
256
370
0
100
AcDbEllipse
10
20
20
-129.799
30
0
11
179.76525
21
0
31
0
40
0.952380952381
41
1.52318627442
42
1.61840637916
0
ELLIPSE
5
BA
100
AcDbEntity
8
0
6
ByLayer
62
256
370
0
100
AcDbEllipse
10
12.412175
20
43.831
30
0
11
0.410570475832
21
0
31
0
40
0.952380952381
41
1.69515132134
42
2.62244653934
0
LINE
5
BB
100
AcDbEntity
8
0
6
ByLayer
62
256
370
0
100
AcDbLine
10
12.0557
20
44.025
11
11.07794
21
41.6
0
ELLIPSE
5
BC
100
AcDbEntity
8
0
6
ByLayer
62
256
370
0
100
AcDbEllipse
10
11.4308175459
20
41.5508770642
30
0
11
0.356627206112
21
0
31
0
40
0.952380952381
41
2.99645336857
42
4.77964557921
0
ELLIPSE
5
BD
100
AcDbEntity
8
0
6
ByLayer
62
256
370
0
100
AcDbEllipse
10
27.587825
20
43.831
30
0
11
0.410570475832
21
0
31
0
40
0.952380952381
41
0.519146114246
42
1.44644133225
0
LINE
5
BE
100
AcDbEntity
8
0
6
ByLayer
62
256
370
0
100
AcDbLine
10
27.9443
20
44.025
11
28.92206
21
41.6
0
ELLIPSE
5
BF
100
AcDbEntity
8
0
6
ByLayer
62
256
370
0
100
AcDbEllipse
10
28.5691824541
20
41.5508770642
30
0
11
0.356627206112
21
0
31
0
40
0.952380952381
41
4.64513238156
42
0.145139285022
0
ELLIPSE
5
C0
100
AcDbEntity
8
0
6
ByLayer
62
256
370
0
100
AcDbEllipse
10
20
20
-130.978935714
30
0
11
179.435721406
21
0
31
0
40
0.952380952381
41
1.5219622245
42
1.61963042909
0
ELLIPSE
5
C1
100
AcDbEntity
8
0
6
ByLayer
62
256
370
0
100
AcDbEllipse
10
11.2526519231
20
39.3992192308
30
0
11
0.324957378465
21
0
31
0
40
0.952380952381
41
1.60696872057
42
2.92410048541
0
ELLIPSE
5
C2
100
AcDbEntity
8
0
6
ByLayer
62
256
370
0
100
AcDbEllipse
10
20
20
-93.0784742424
30
0
11
136.523597954
21
0
31
0
40
0.952380952381
41
1.50061238429
42
1.6409802693
0
LINE
5
C3
100
AcDbEntity
8
0
6
ByLayer
62
256
370
0
100
AcDbLine
10
10.93535
20
39.466
11
10.2224
21
36.944
0
ELLIPSE
5
C4
100
AcDbEntity
8
0
6
ByLayer
62
256
370
0
100
AcDbEllipse
10
10.4486525
20
36.8557551948
30
0
11
0.244490330746
21
0
31
0
40
0.952380952381
41
2.75289838491
42
4.62001475317
0
ELLIPSE
5
C5
100
AcDbEntity
8
0
6
ByLayer
62
256
370
0
100
AcDbEllipse
10
28.7473480769
20
39.3992192308
30
0
11
0.324957378465
21
0
31
0
40
0.952380952381
41
0.217492168174
42
1.53462393302
0
ELLIPSE
5
C6
100
AcDbEntity
8
0
6
ByLayer
62
256
370
0
100
AcDbEllipse
10
29.5513475
20
36.8557551948
30
0
11
0.244490330746
21
0
31
0
40
0.952380952381
41
4.8047632076
42
0.388694268678
0
ELLIPSE
5
C7
100
AcDbEntity
8
0
6
ByLayer
62
256
370
0
100
AcDbEllipse
10
20
20
-115.936194828
30
0
11
158.629794569
21
0
31
0
40
0.952380952381
41
1.50976264871
42
1.63183000488
0
ELLIPSE
5
C8
100
AcDbEntity
8
0
6
ByLayer
62
256
370
0
100
AcDbEllipse
10
20
20
-71.2923853659
30
0
11
108.626999634
21
0
31
0
40
0.952380952381
41
1.44671335255
42
1.69487930104
0
LINE
5
C9
100
AcDbEntity
8
0
6
ByLayer
62
256
370
0
100
AcDbLine
10
6.1484
20
32.385
11
6.3521
21
31.512
0
ELLIPSE
5
CA
100
AcDbEntity
8
0
6
ByLayer
62
256
370
0
100
AcDbEllipse
10
5.11632
20
38.4852222222
30
0
11
6.22360739245
21
0
31
0
40
0.952380952381
41
4.91228079066
42
5.59333617065
0
ELLIPSE
5
CB
100
AcDbEntity
8
0
6
ByLayer
62
256
370
0
100
AcDbEllipse
10
6.4183025
20
32.4238
30
0
11
0.27295990018
21
0
31
0
40
0.952380952381
41
1.81577498992
42
3.29140511016
0
ELLIPSE
5
CC
100
AcDbEntity
8
0
6
ByLayer
62
256
370
0
100
AcDbEllipse
10
6.53797625
20
31.54595
30
0
11
0.189263637739
21
0
31
0
40
0.952380952381
41
3.33107281147
42
4.80670293171
0
LINE
5
CD
100
AcDbEntity
8
0
6
ByLayer
62
256
370
0
100
AcDbLine
10
33.8516
20
32.385
11
33.6479
21
31.512
0
ELLIPSE
5
CE
100
AcDbEntity
8
0
6
ByLayer
62
256
370
0
100
AcDbEllipse
10
34.88368
20
38.4852222222
30
0
11
6.22360739245
21
0
31
0
40
0.952380952381
41
3.83144179012
42
4.51249717011
0
ELLIPSE
5
CF
100
AcDbEntity
8
0
6
ByLayer
62
256
370
0
100
AcDbEllipse
10
33.5816975
20
32.4238
30
0
11
0.27295990018
21
0
31
0
40
0.952380952381
41
6.13337285061
42
1.32581766367
0
ELLIPSE
5
D0
100
AcDbEntity
8
0
6
ByLayer
62
256
370
0
100
AcDbEllipse
10
33.46202375
20
31.54595
30
0
11
0.189263637739
21
0
31
0
40
0.952380952381
41
4.61807502906
42
6.0937051493
0
ELLIPSE
5
D1
100
AcDbEntity
8
0
6
ByLayer
62
256
370
0
100
AcDbEllipse
10
29.6776361111
20
34.2732067901
30
0
11
0.614560764652
21
0
31
0
40
0.952380952381
41
0.850185942181
42
1.57386537087
0
ELLIPSE
5
D2
100
AcDbEntity
8
0
6
ByLayer
62
256
370
0
100
AcDbEllipse
10
10.3223638889
20
34.2732067901
30
0
11
0.614560764652
21
0
31
0
40
0.952380952381
41
1.56772728272
42
2.29140671141
0
LWPOLYLINE
5
D3
100
AcDbEntity
8
0
6
ByLayer
62
256
370
0
100
AcDbPolyline
90
2
70
0
43
0
10
6.770813498
20
29.45490451
10
6.7708165535
20
29.45490451
0
ELLIPSE
5
D4
100
AcDbEntity
8
0
6
ByLayer
62
256
370
0
100
AcDbEllipse
10
20
20
-72.88425
30
0
11
107.9864625
21
0
31
0
40
0.952380952381
41
1.44787441503
42
1.69371823856
0
LINE
5
D5
100
AcDbEntity
8
0
6
ByLayer
62
256
370
0
100
AcDbLine
10
6.382655
20
28.699
11
6.71876
21
26.371
0
ELLIPSE
5
D6
100
AcDbEntity
8
0
6
ByLayer
62
256
370
0
100
AcDbEllipse
10
6.8424541448
20
28.7502440789
30
0
11
0.462936679882
21
0
31
0
40
0.952380952381
41
1.75096053435
42
3.25808411428
0
ELLIPSE
5
D7
100
AcDbEntity
8
0
6
ByLayer
62
256
370
0
100
AcDbEllipse
10
20
20
-66.5413738095
30
0
11
98.2098325
21
0
31
0
40
0.952380952381
41
1.4387052589
42
1.70288739469
0
ELLIPSE
5
D8
100
AcDbEntity
8
0
6
ByLayer
62
256
370
0
100
AcDbEllipse
10
7.0114680435
20
26.4675782609
30
0
11
0.309776392964
21
0
31
0
40
0.952380952381
41
3.47509673543
42
4.88623309082
0
LINE
5
D9
100
AcDbEntity
8
0
6
ByLayer
62
256
370
0
100
AcDbLine
10
33.617345
20
28.699
11
33.28124
21
26.371
0
ELLIPSE
5
DA
100
AcDbEntity
8
0
6
ByLayer
62
256
370
0
100
AcDbEllipse
10
33.1575458552
20
28.7502440789
30
0
11
0.462936679882
21
0
31
0
40
0.952380952381
41
6.16669384649
42
1.39063211925
0
ELLIPSE
5
DB
100
AcDbEntity
8
0
6
ByLayer
62
256
370
0
100
AcDbEllipse
10
32.9885319565
20
26.4675782609
30
0
11
0.309776392964
21
0
31
0
40
0.952380952381
41
4.53854486995
42
5.94968122534
0
ELLIPSE
5
DC
100
AcDbEntity
8
0
6
ByLayer
62
256
370
0
100
AcDbEllipse
10
20
20
53.9869
30
0
11
44.844555
21
0
31
0
40
0.952380952381
41
4.55272900896
42
4.87204895181
0
ELLIPSE
5
DD
100
AcDbEntity
8
0
6
ByLayer
62
256
370
0
100
AcDbEllipse
10
28.316856579
20
12.0941315789
30
0
11
0.780182204208
21
0
31
0
40
0.952380952381
41
0.289153409279
42
3.11754230891
0
ELLIPSE
5
DE
100
AcDbEntity
8
0
6
ByLayer
62
256
370
0
100
AcDbEllipse
10
26.874875
20
12.5485
30
0
11
0.805194949221
21
0
31
0
40
0.952380952381
41
5.03413953478
42
5.67764064358
0
ELLIPSE
5
DF
100
AcDbEntity
8
0
6
ByLayer
62
256
370
0
100
AcDbEllipse
10
29.421125
20
12.7425
30
0
11
0.580634335232
21
0
31
0
40
0.952380952381
41
4.05134581154
42
4.97864102953
0
ELLIPSE
5
E0
100
AcDbEntity
8
0
6
ByLayer
62
256
370
0
100
AcDbEllipse
10
11.683143421
20
12.0941315789
30
0
11
0.780182204208
21
0
31
0
40
0.952380952381
41
0.0240503446854
42
2.85243924432
0
ELLIPSE
5
E1
100
AcDbEntity
8
0
6
ByLayer
62
256
370
0
100
AcDbEllipse
10
13.125125
20
12.5485
30
0
11
0.805194949221
21
0
31
0
40
0.952380952381
41
3.74713731719
42
4.39063842599
0
ELLIPSE
5
E2
100
AcDbEntity
8
0
6
ByLayer
62
256
370
0
100
AcDbEllipse
10
10.578875
20
12.7425
30
0
11
0.580634335232
21
0
31
0
40
0.952380952381
41
4.44613693123
42
5.37343214923
0
ELLIPSE
5
E3
100
AcDbEntity
8
0
6
ByLayer
62
256
370
0
100
AcDbEllipse
10
20
20
52.9987652174
30
0
11
46.1699334783
21
0
31
0
40
0.952380952381
41
4.46500966309
42
4.95976829768
0
ELLIPSE
5
E4
100
AcDbEntity
8
0
6
ByLayer
62
256
370
0
100
AcDbEllipse
10
20
20
52.1386293271
30
0
11
48.3902034822
21
0
31
0
40
0.952380952381
41
4.44834050235
42
4.97643745842
0
ELLIPSE
5
E5
100
AcDbEntity
8
0
6
ByLayer
62
256
370
0
100
AcDbEllipse
10
20
20
57.2937001008
30
0
11
45.1365195199
21
0
31
0
40
0.952380952381
41
4.47550505238
42
4.94927290839
0
ELLIPSE
5
E6
100
AcDbEntity
8
0
6
ByLayer
62
256
370
0
100
AcDbEllipse
10
13.023275
20
27.2925
30
0
11
12.8921744484
21
0
31
0
40
0.952380952381
41
4.31060921726
42
4.42812086267
0
ELLIPSE
5
E7
100
AcDbEntity
8
0
6
ByLayer
62
256
370
0
100
AcDbEllipse
10
7.828925
20
15.7495
30
0
11
0.296941225245
21
0
31
0
40
0.952380952381
41
1.03037682652
42
2.60117315332
0
ELLIPSE
5
E8
100
AcDbEntity
8
0
6
ByLayer
62
256
370
0
100
AcDbEllipse
10
19.15125
20
43.5238333333
30
0
11
34.0185310507
21
0
31
0
40
0.952380952381
41
4.34596748405
42
4.45300802096
0
LINE
5
E9
100
AcDbEntity
8
0
6
ByLayer
62
256
370
0
100
AcDbLine
10
7.5743
20
15.895
11
6.73913
21
13.858
0
ELLIPSE
5
EA
100
AcDbEntity
8
0
6
ByLayer
62
256
370
0
100
AcDbEllipse
10
7.1983809091
20
13.68825
30
0
11
0.492625622463
21
0
31
0
40
0.952380952381
41
2.77138259674
42
4.21469229846
0
ELLIPSE
5
EB
100
AcDbEntity
8
0
6
ByLayer
62
256
370
0
100
AcDbEllipse
10
20.84875
20
43.5238333333
30
0
11
34.0185310507
21
0
31
0
40
0.952380952381
41
4.97176993981
42
5.07881047672
0
ELLIPSE
5
EC
100
AcDbEntity
8
0
6
ByLayer
62
256
370
0
100
AcDbEllipse
10
26.976725
20
27.2925
30
0
11
12.8921744484
21
0
31
0
40
0.952380952381
41
4.9966570981
42
5.11416874351
0
ELLIPSE
5
ED
100
AcDbEntity
8
0
6
ByLayer
62
256
370
0
100
AcDbEllipse
10
32.171075
20
15.7495
30
0
11
0.296941225245
21
0
31
0
40
0.952380952381
41
0.540419500271
42
2.11121582706
0
LINE
5
EE
100
AcDbEntity
8
0
6
ByLayer
62
256
370
0
100
AcDbLine
10
32.4257
20
15.895
11
33.26087
21
13.858
0
ELLIPSE
5
EF
100
AcDbEntity
8
0
6
ByLayer
62
256
370
0
100
AcDbEllipse
10
32.8016190909
20
13.68825
30
0
11
0.492625622463
21
0
31
0
40
0.952380952381
41
5.21008566231
42
0.37021005686
0
ELLIPSE
5
F0
100
AcDbEntity
8
0
6
ByLayer
62
256
370
0
100
AcDbEllipse
10
13.2526261111
20
23.2501148148
30
0
11
14.2755246237
21
0
31
0
40
0.952380952381
41
4.25615091918
42
4.38741295419
0
ELLIPSE
5
F1
100
AcDbEntity
8
0
6
ByLayer
62
256
370
0
100
AcDbEllipse
10
6.8081616666
20
10.8111222222
30
0
11
0.290417506828
21
0
31
0
40
0.952380952381
41
1.00765346568
42
2.62389651417
0
LINE
5
F2
100
AcDbEntity
8
0
6
ByLayer
62
256
370
0
100
AcDbLine
10
6.5558
20
10.948
11
5.59841
21
8.62
0
ELLIPSE
5
F3
100
AcDbEntity
8
0
6
ByLayer
62
256
370
0
100
AcDbEllipse
10
20.5245275
20
40.58635
30
0
11
37.0002876071
21
0
31
0
40
0.952380952381
41
4.30015979957
42
4.34893061792
0
ELLIPSE
5
F4
100
AcDbEntity
8
0
6
ByLayer
62
256
370
0
100
AcDbEllipse
10
5.8465797183
20
8.51687488263
30
0
11
0.27076385445
21
0
31
0
40
0.952380952381
41
2.73017319674
42
4.14148124067
0
ELLIPSE
5
F5
100
AcDbEntity
8
0
6
ByLayer
62
256
370
0
100
AcDbEllipse
10
26.7473738889
20
23.2501148148
30
0
11
14.2755246237
21
0
31
0
40
0.952380952381
41
5.03736500658
42
5.16862704158
0
ELLIPSE
5
F6
100
AcDbEntity
8
0
6
ByLayer
62
256
370
0
100
AcDbEllipse
10
33.1918383334
20
10.8111222222
30
0
11
0.290417506828
21
0
31
0
40
0.952380952381
41
0.517696139429
42
2.13393918791
0
LINE
5
F7
100
AcDbEntity
8
0
6
ByLayer
62
256
370
0
100
AcDbLine
10
33.4442
20
10.948
11
34.40159
21
8.62
0
ELLIPSE
5
F8
100
AcDbEntity
8
0
6
ByLayer
62
256
370
0
100
AcDbEllipse
10
19.4754725
20
40.58635
30
0
11
37.0002876071
21
0
31
0
40
0.952380952381
41
5.07584734285
42
5.1246181612
0
ELLIPSE
5
F9
100
AcDbEntity
8
0
6
ByLayer
62
256
370
0
100
AcDbEllipse
10
34.1534202817
20
8.51687488263
30
0
11
0.27076385445
21
0
31
0
40
0.952380952381
41
5.2832967201
42
0.411419456852
0
ELLIPSE
5
FA
100
AcDbEntity
8
0
6
ByLayer
62
256
370
0
100
AcDbEllipse
10
20
20
-53.98865
30
0
11
82.6461825
21
0
31
0
40
0.952380952381
41
1.41364026642
42
1.72795238716
0
ELLIPSE
5
FB
100
AcDbEntity
8
0
6
ByLayer
62
256
370
0
100
AcDbEllipse
10
7.115975
20
23.4125
30
0
11
0.360094128319
21
0
31
0
40
0.952380952381
41
1.7126933814
42
2.99969559899
0
LINE
5
FC
100
AcDbEntity
8
0
6
ByLayer
62
256
370
0
100
AcDbLine
10
7.06505
20
21.23
11
6.7595
21
23.461
0
ELLIPSE
5
FD
100
AcDbEntity
8
0
6
ByLayer
62
256
370
0
100
AcDbEllipse
10
32.884025
20
23.4125
30
0
11
0.360094128319
21
0
31
0
40
0.952380952381
41
0.141897054604
42
1.42889927219
0
LINE
5
FE
100
AcDbEntity
8
0
6
ByLayer
62
256
370
0
100
AcDbLine
10
32.93495
20
21.23
11
33.2405
21
23.461
0
ELLIPSE
5
FF
100
AcDbEntity
8
0
6
ByLayer
62
256
370
0
100
AcDbEllipse
10
32.4445326416
20
21.2429943396
30
0
11
0.490607119587
21
0
31
0
40
0.952380952381
41
4.98891311128
42
6.25537116538
0
ELLIPSE
5
100
100
AcDbEntity
8
0
6
ByLayer
62
256
370
0
100
AcDbEllipse
10
20
20
-68.6534333333
30
0
11
94.757845
21
0
31
0
40
0.952380952381
41
1.43765999924
42
1.70393265435
0
ELLIPSE
5
101
100
AcDbEntity
8
0
6
ByLayer
62
256
370
0
100
AcDbEllipse
10
7.5554673584
20
21.2429943396
30
0
11
0.490607119587
21
0
31
0
40
0.952380952381
41
3.16940679539
42
4.43586484949
0
ELLIPSE
5
102
100
AcDbEntity
8
0
6
ByLayer
62
256
370
0
100
AcDbEllipse
10
11.597375
20
32.8215
30
0
11
0.0763942896983
21
0
31
0
40
0.952380952381
41
0
42
6.28318530718
0
ELLIPSE
5
103
100
AcDbEntity
8
0
6
ByLayer
62
256
370
0
100
AcDbEllipse
10
15.41675
20
54.21
30
0
11
0.0763942896983
21
0
31
0
40
0.952380952381
41
0
42
6.28318530718
0
ELLIPSE
5
104
100
AcDbEntity
8
0
6
ByLayer
62
256
370
0
100
AcDbEllipse
10
31.44794
20
10.1235
30
0
11
0.0763942896983
21
0
31
0
40
0.952380952381
41
0
42
6.28318530718
0
ELLIPSE
5
105
100
AcDbEntity
8
0
6
ByLayer
62
256
370
0
100
AcDbEllipse
10
30.69425
20
15.2257
30
0
11
0.0763942896983
21
0
31
0
40
0.952380952381
41
0
42
6.28318530718
0
LINE
5
106
100
AcDbEntity
8
0
6
ByLayer
62
256
370
0
100
AcDbLine
10
-17.912075
20
43.465875
11
-17.65745
21
33.377875
0
LINE
5
107
100
AcDbEntity
8
0
6
ByLayer
62
256
370
0
100
AcDbLine
10
-17.86115
20
33.183875
11
-22.13885
21
33.183875
0
ELLIPSE
5
108
100
AcDbEntity
8
0
6
ByLayer
62
256
370
0
100
AcDbEllipse
10
-18.0733375
20
43.4012083333
30
0
11
-0.174974294987
21
0
31
0
40
0.952380952381
41
3.54011509926
42
4.95736764351
0
ELLIPSE
5
109
100
AcDbEntity
8
0
6
ByLayer
62
256
370
0
100
AcDbEllipse
10
-17.8662425
20
33.382725
30
0
11
-0.208854594425
21
0
31
0
40
0.952380952381
41
1.59518173596
42
3.11720724442
0
ELLIPSE
5
10A
100
AcDbEntity
8
0
6
ByLayer
62
256
370
0
100
AcDbEllipse
10
51.784318787
20
38.2055191487
30
0
11
-67.9754433701
21
0
31
0
40
0.952380952381
41
6.21386104863
42
0.0774958167596
0
ELLIPSE
5
10B
100
AcDbEntity
8
0
6
ByLayer
62
256
370
0
100
AcDbEllipse
10
-15.7493294231
20
33.2051403846
30
0
11
-0.23809046829
21
0
31
0
40
0.952380952381
41
0.0510265080396
42
1.25112693485
0
ELLIPSE
5
10C
100
AcDbEntity
8
0
6
ByLayer
62
256
370
0
100
AcDbEllipse
10
-14.4231399704
20
42.0801525148
30
0
11
-1.72770406687
21
0
31
0
40
0.952380952381
41
3.43375442389
42
5.90357929969
0
ELLIPSE
5
10D
100
AcDbEntity
8
0
6
ByLayer
62
256
370
0
100
AcDbEllipse
10
-6.75320240458
20
32.9093872137
30
0
11
-0.759881106877
21
0
31
0
40
0.952380952381
41
1.29079610866
42
2.84644121016
0
ELLIPSE
5
10E
100
AcDbEntity
8
0
6
ByLayer
62
256
370
0
100
AcDbEllipse
10
-18.435875
20
-40.3351964286
30
0
11
-77.0356101601
21
0
31
0
40
0.952380952381
41
4.56290599335
42
4.6784796549
0
ELLIPSE
5
10F
100
AcDbEntity
8
0
6
ByLayer
62
256
370
0
100
AcDbEllipse
10
-1.85894231617
20
44.1422360294
30
0
11
-11.0364173709
21
0
31
0
40
0.952380952381
41
0.1516778764
42
1.15149649544
0
ELLIPSE
5
110
100
AcDbEntity
8
0
6
ByLayer
62
256
370
0
100
AcDbEllipse
10
-6.60900522388
20
33.9584272388
30
0
11
-0.664306963179
21
0
31
0
40
0.952380952381
41
3.14388097912
42
4.31530953516
0
LINE
5
111
100
AcDbEntity
8
0
6
ByLayer
62
256
370
0
100
AcDbLine
10
-5.9447
20
33.959875
11
-6.02618
21
32.698875
0
ELLIPSE
5
112
100
AcDbEntity
8
0
6
ByLayer
62
256
370
0
100
AcDbEllipse
10
-14.0927
20
42.689875
30
0
11
-0.0763942896983
21
0
31
0
40
0.952380952381
41
0
42
6.28318530718
0
ELLIPSE
5
113
100
AcDbEntity
8
0
6
ByLayer
62
256
370
0
100
AcDbEllipse
10
-9.815
20
33.959875
30
0
11
-0.0763942896983
21
0
31
0
40
0.952380952381
41
0
42
6.28318530718
0
CIRCLE
5
114
100
AcDbEntity
8
0
6
ByLayer
62
256
370
-1
100
AcDbCircle
10
-13.2779
20
42.893575
40
0.065
0
CIRCLE
5
115
100
AcDbEntity
8
0
6
ByLayer
62
256
370
-1
100
AcDbCircle
10
-12.799205
20
41.428875
40
0.065
0
CIRCLE
5
116
100
AcDbEntity
8
0
6
ByLayer
62
256
370
-1
100
AcDbCircle
10
-12.30014
20
39.973875
40
0.065
0
CIRCLE
5
117
100
AcDbEntity
8
0
6
ByLayer
62
256
370
-1
100
AcDbCircle
10
-11.48534
20
38.518875
40
0.065
0
CIRCLE
5
118
100
AcDbEntity
8
0
6
ByLayer
62
256
370
-1
100
AcDbCircle
10
-10.52795
20
37.160875
40
0.065
0
CIRCLE
5
119
100
AcDbEntity
8
0
6
ByLayer
62
256
370
-1
100
AcDbCircle
10
-9.2039
20
35.899875
40
0.065
0
CIRCLE
5
11A
100
AcDbEntity
8
0
6
ByLayer
62
256
370
-1
100
AcDbCircle
10
-7.778
20
34.929875
40
0.065
0
CIRCLE
5
11B
100
AcDbEntity
8
0
6
ByLayer
62
256
370
-1
100
AcDbCircle
10
-6.240065
20
34.056875
40
0.065
0
CIRCLE
5
11C
100
AcDbEntity
8
0
6
ByLayer
62
256
370
-1
100
AcDbCircle
10
-6.525245
20
32.543675
40
0.065
0
CIRCLE
5
11D
100
AcDbEntity
8
0
6
ByLayer
62
256
370
-1
100
AcDbCircle
10
-8.28725
20
32.660075
40
0.065
0
CIRCLE
5
11E
100
AcDbEntity
8
0
6
ByLayer
62
256
370
-1
100
AcDbCircle
10
-9.815
20
32.834675
40
0.065
0
CIRCLE
5
11F
100
AcDbEntity
8
0
6
ByLayer
62
256
370
-1
100
AcDbCircle
10
-11.34275
20
32.980175
40
0.065
0
CIRCLE
5
120
100
AcDbEntity
8
0
6
ByLayer
62
256
370
-1
100
AcDbCircle
10
-12.8705
20
33.096575
40
0.065
0
CIRCLE
5
121
100
AcDbEntity
8
0
6
ByLayer
62
256
370
-1
100
AcDbCircle
10
-14.5001
20
33.203275
40
0.065
0
CIRCLE
5
122
100
AcDbEntity
8
0
6
ByLayer
62
256
370
-1
100
AcDbCircle
10
-14.5001
20
34.250875
40
0.065
0
CIRCLE
5
123
100
AcDbEntity
8
0
6
ByLayer
62
256
370
-1
100
AcDbCircle
10
-14.60195
20
35.705875
40
0.065
0
CIRCLE
5
124
100
AcDbEntity
8
0
6
ByLayer
62
256
370
-1
100
AcDbCircle
10
-14.7038
20
37.548875
40
0.065
0
CIRCLE
5
125
100
AcDbEntity
8
0
6
ByLayer
62
256
370
-1
100
AcDbCircle
10
-14.7038
20
39.003875
40
0.065
0
CIRCLE
5
126
100
AcDbEntity
8
0
6
ByLayer
62
256
370
-1
100
AcDbCircle
10
-14.7038
20
40.458875
40
0.065
0
CIRCLE
5
127
100
AcDbEntity
8
0
6
ByLayer
62
256
370
-1
100
AcDbCircle
10
-14.60195
20
42.010875
40
0.065
0
CIRCLE
5
128
100
AcDbEntity
8
0
6
ByLayer
62
256
370
-1
100
AcDbCircle
10
-14.551025
20
43.446475
40
0.065
0
CIRCLE
5
129
100
AcDbEntity
8
0
6
ByLayer
62
256
370
-1
100
AcDbCircle
10
-18.197255
20
43.271875
40
0.065
0
CIRCLE
5
12A
100
AcDbEntity
8
0
6
ByLayer
62
256
370
-1
100
AcDbCircle
10
-18.156515
20
41.816875
40
0.065
0
CIRCLE
5
12B
100
AcDbEntity
8
0
6
ByLayer
62
256
370
-1
100
AcDbCircle
10
-18.115775
20
40.361875
40
0.065
0
CIRCLE
5
12C
100
AcDbEntity
8
0
6
ByLayer
62
256
370
-1
100
AcDbCircle
10
-18.08522
20
38.906875
40
0.065
0
CIRCLE
5
12D
100
AcDbEntity
8
0
6
ByLayer
62
256
370
-1
100
AcDbCircle
10
-18.04448
20
37.451875
40
0.065
0
CIRCLE
5
12E
100
AcDbEntity
8
0
6
ByLayer
62
256
370
-1
100
AcDbCircle
10
-18.00374
20
35.996875
40
0.065
0
CIRCLE
5
12F
100
AcDbEntity
8
0
6
ByLayer
62
256
370
-1
100
AcDbCircle
10
-18.013925
20
34.541875
40
0.065
0
CIRCLE
5
130
100
AcDbEntity
8
0
6
ByLayer
62
256
370
-1
100
AcDbCircle
10
-17.94263
20
33.455475
40
0.065
0
CIRCLE
5
131
100
AcDbEntity
8
0
6
ByLayer
62
256
370
-1
100
AcDbCircle
10
-19.236125
20
33.455475
40
0.065
0
CIRCLE
5
132
100
AcDbEntity
8
0
6
ByLayer
62
256
370
-1
100
AcDbCircle
10
-19.236125
20
43.097275
40
0.065
0
MTEXT
5
133
100
AcDbEntity
8
0
6
ByLayer
62
256
370
60
100
AcDbMText
10
-20.896787328
20
38.3516115662
30
0
40
0.10185
41
1.76822921905
71
1
72
5
1
Front Center Chest Plate
7
iso
210
0
220
0
230
1
50
0
73
2
44
1
0
MTEXT
5
134
100
AcDbEntity
8
0
6
ByLayer
62
256
370
0
100
AcDbMText
10
-20.7935633458
20
29.7800214204
30
0
40
0.10185
41
1.50794583333
71
1
72
5
1
Upper Front Plate #2
7
iso
210
0
220
0
230
1
50
0
73
2
44
1
0
MTEXT
5
135
100
AcDbEntity
8
0
6
ByLayer
62
256
370
0
100
AcDbMText
10
-20.6193665137
20
24.360564425
30
0
40
0.10185
41
1.4853125
71
1
72
5
1
Upper Front Plate #1
7
iso
210
0
220
0
230
1
50
0
73
2
44
1
0
MTEXT
5
136
100
AcDbEntity
8
0
6
ByLayer
62
256
370
0
100
AcDbMText
10
-20.7122714908
20
7.64872866973
30
0
40
0.10185
41
1.5192625
71
1
72
5
1
Lower Front Plate #2
7
iso
210
0
220
0
230
1
50
0
73
2
44
1
0
MTEXT
5
137
100
AcDbEntity
8
0
6
ByLayer
62
256
370
0
100
AcDbMText
10
-20.718465156
20
2.39296139581
30
0
40
0.10185
41
1.5192625
71
1
72
5
1
Lower Front Plate #3
7
iso
210
0
220
0
230
1
50
0
73
2
44
1
0
MTEXT
5
138
100
AcDbEntity
8
0
6
ByLayer
62
256
370
0
100
AcDbMText
10
19.3612782827
20
52.0323464941
30
0
40
0.10185
41
1.4513625
71
1
72
5
1
Upper Back Plate #7
7
iso
210
0
220
0
230
1
50
0
73
2
44
1
0
MTEXT
5
139
100
AcDbEntity
8
0
6
ByLayer
62
256
370
0
100
AcDbMText
10
19.2877285092
20
47.9622236894
30
0
40
0.10185
41
1.4513625
71
1
72
5
1
Upper Back Plate #6
7
iso
210
0
220
0
230
1
50
0
73
2
44
1
0
MTEXT
5
13A
100
AcDbEntity
8
0
6
ByLayer
62
256
370
0
100
AcDbMText
10
19.2864897762
20
43.1612483984
30
0
40
0.10185
41
1.4513625
71
1
72
5
1
Upper Back Plate #5
7
iso
210
0
220
0
230
1
50
0
73
2
44
1
0
MTEXT
5
13B
100
AcDbEntity
8
0
6
ByLayer
62
256
370
0
100
AcDbMText
10
19.3419230792
20
38.7417733863
30
0
40
0.10185
41
1.46267916667
71
1
72
5
1
Upper Back Plate #4
7
iso
210
0
220
0
230
1
50
0
73
2
44
1
0
MTEXT
5
13C
100
AcDbEntity
8
0
6
ByLayer
62
256
370
0
100
AcDbMText
10
19.3612782827
20
34.1149580603
30
0
40
0.10185
41
1.4513625
71
1
72
5
1
Upper Back Plate #3
7
iso
210
0
220
0
230
1
50
0
73
2
44
1
0
MTEXT
5
13D
100
AcDbEntity
8
0
6
ByLayer
62
256
370
0
100
AcDbMText
10
19.2257918578
20
28.9351369184
30
0
40
0.10185
41
1.4513625
71
1
72
5
1
Upper Back Plate #2
7
iso
210
0
220
0
230
1
50
0
73
2
44
1
0
MTEXT
5
13E
100
AcDbEntity
8
0
6
ByLayer
62
256
370
0
100
AcDbMText
10
19.2645022649
20
23.6262810862
30
0
40
0.10185
41
1.42872916667
71
1
72
5
1
Upper Back Plate #1
7
iso
210
0
220
0
230
1
50
0
73
2
44
1
0
MTEXT
5
13F
100
AcDbEntity
8
0
6
ByLayer
62
256
370
0
100
AcDbMText
10
19.2468503193
20
12.7917616482
30
0
40
0.10185
41
1.44004583333
71
1
72
5
1
Lower Back Plate #1
7
iso
210
0
220
0
230
1
50
0
73
2
44
1
0
MTEXT
5
140
100
AcDbEntity
8
0
6
ByLayer
62
256
370
0
100
AcDbMText
10
19.3612782827
20
7.55224537186
30
0
40
0.10185
41
1.46267916667
71
1
72
5
1
Lower Back Plate #2
7
iso
210
0
220
0
230
1
50
0
73
2
44
1
0
MTEXT
5
141
100
AcDbEntity
8
0
6
ByLayer
62
256
370
0
100
AcDbMText
10
19.25
20
2.72
30
0
40
0.10185
41
1.46267916667
71
1
72
5
1
Lower Back Plate #3
7
iso
210
0
220
0
230
1
50
360
73
2
44
1
0
MTEXT
5
142
100
AcDbEntity
8
0
6
ByLayer
62
256
370
0
100
AcDbMText
10
-28.8
20
35.9
30
0
40
0.10185
41
1.60979588571
71
1
72
5
1
Front Left Chest Plate
7
iso
210
0
220
0
230
1
50
0
73
2
44
1
0
MTEXT
5
143
100
AcDbEntity
8
0
6
ByLayer
62
256
370
0
100
AcDbMText
10
-28.8
20
35.6
30
0
40
0.10185
41
0.8911875
71
1
72
5
1
Height: 178cm\PWeight: 92kg
7
iso
210
0
220
0
230
1
50
0
73
2
44
1
0
MTEXT
5
144
100
AcDbEntity
8
0
6
ByLayer
62
256
370
0
100
AcDbMText
10
-20.5
20
37.9
30
0
40
0.10185
41
0.8911875
71
1
72
5
1
Height: 178cm\PWeight: 92kg
7
iso
210
0
220
0
230
1
50
0
73
2
44
1
0
MTEXT
5
145
100
AcDbEntity
8
0
6
ByLayer
62
256
370
0
100
AcDbMText
10
-13
20
35.6
30
0
40
0.10185
41
0.8911875
71
1
72
5
1
Height: 178cm\PWeight: 92kg
7
iso
210
0
220
0
230
1
50
0
73
2
44
1
0
MTEXT
5
146
100
AcDbEntity
8
0
6
ByLayer
62
256
370
0
100
AcDbMText
10
-13
20
35.9
30
0
40
0.10185
41
1.66637921905
71
1
72
5
1
Front Right Chest Plate
7
iso
210
0
220
0
230
1
50
0
73
2
44
1
0
MTEXT
5
147
100
AcDbEntity
8
0
6
ByLayer
62
256
370
0
100
AcDbMText
10
-20.4
20
29.4
30
0
40
0.10185
41
0.8911875
71
1
72
5
1
Height: 178cm\PWeight: 92kg
7
iso
210
0
220
0
230
1
50
0
73
2
44
1
0
MTEXT
5
148
100
AcDbEntity
8
0
6
ByLayer
62
256
370
0
100
AcDbMText
10
-20.3
20
24
30
0
40
0.10185
41
0.8911875
71
1
72
5
1
Height: 178cm\PWeight: 92kg
7
iso
210
0
220
0
230
1
50
0
73
2
44
1
0
MTEXT
5
149
100
AcDbEntity
8
0
6
ByLayer
62
256
370
0
100
AcDbMText
10
-20.5
20
12.5
30
0
40
0.10185
41
0.8911875
71
1
72
5
1
Height: 178cm\PWeight: 92kg
7
iso
210
0
220
0
230
1
50
0
73
2
44
1
0
MTEXT
5
14A
100
AcDbEntity
8
0
6
ByLayer
62
256
370
0
100
AcDbMText
10
-20.4
20
7.2
30
0
40
0.10185
41
0.8911875
71
1
72
5
1
Height: 178cm\PWeight: 92kg
7
iso
210
0
220
0
230
1
50
0
73
2
44
1
0
MTEXT
5
14B
100
AcDbEntity
8
0
6
ByLayer
62
256
370
0
100
AcDbMText
10
-20.4
20
1.9
30
0
40
0.10185
41
0.8911875
71
1
72
5
1
Height: 178cm\PWeight: 92kg
7
iso
210
0
220
0
230
1
50
0
73
2
44
1
0
MTEXT
5
14C
100
AcDbEntity
8
0
6
ByLayer
62
256
370
0
100
AcDbMText
10
19.6
20
51.7
30
0
40
0.10185
41
0.8911875
71
1
72
5
1
Height: 178cm\PWeight: 92kg
7
iso
210
0
220
0
230
1
50
0
73
2
44
1
0
MTEXT
5
14D
100
AcDbEntity
8
0
6
ByLayer
62
256
370
0
100
AcDbMText
10
19.6
20
47.6
30
0
40
0.10185
41
0.8911875
71
1
72
5
1
Height: 178cm\PWeight: 92kg
7
iso
210
0
220
0
230
1
50
0
73
2
44
1
0
MTEXT
5
14E
100
AcDbEntity
8
0
6
ByLayer
62
256
370
0
100
AcDbMText
10
19.6
20
42.7
30
0
40
0.10185
41
0.8911875
71
1
72
5
1
Height: 178cm\PWeight: 92kg
7
iso
210
0
220
0
230
1
50
0
73
2
44
1
0
MTEXT
5
14F
100
AcDbEntity
8
0
6
ByLayer
62
256
370
0
100
AcDbMText
10
19.6
20
38.4
30
0
40
0.10185
41
0.8911875
71
1
72
5
1
Height: 178cm\PWeight: 92kg
7
iso
210
0
220
0
230
1
50
0
73
2
44
1
0
MTEXT
5
150
100
AcDbEntity
8
0
6
ByLayer
62
256
370
0
100
AcDbMText
10
19.6
20
33.5
30
0
40
0.10185
41
0.8911875
71
1
72
5
1
Height: 178cm\PWeight: 92kg
7
iso
210
0
220
0
230
1
50
0
73
2
44
1
0
MTEXT
5
151
100
AcDbEntity
8
0
6
ByLayer
62
256
370
0
100
AcDbMText
10
19.5
20
28.4
30
0
40
0.10185
41
0.8911875
71
1
72
5
1
Height: 178cm\PWeight: 92kg
7
iso
210
0
220
0
230
1
50
0
73
2
44
1
0
MTEXT
5
152
100
AcDbEntity
8
0
6
ByLayer
62
256
370
0
100
AcDbMText
10
19.6
20
23.1
30
0
40
0.10185
41
0.8911875
71
1
72
5
1
Height: 178cm\PWeight: 92kg
7
iso
210
0
220
0
230
1
50
0
73
2
44
1
0
MTEXT
5
153
100
AcDbEntity
8
0
6
ByLayer
62
256
370
0
100
AcDbMText
10
19.6
20
12.3
30
0
40
0.10185
41
0.8911875
71
1
72
5
1
Height: 178cm\PWeight: 92kg
7
iso
210
0
220
0
230
1
50
0
73
2
44
1
0
MTEXT
5
154
100
AcDbEntity
8
0
6
ByLayer
62
256
370
0
100
AcDbMText
10
19.6
20
7
30
0
40
0.10185
41
0.8911875
71
1
72
5
1
Height: 178cm\PWeight: 92kg
7
iso
210
0
220
0
230
1
50
0
73
2
44
1
0
CIRCLE
5
155
100
AcDbEntity
8
0
6
ByLayer
62
256
370
-1
100
AcDbCircle
10
-26.874875
20
27.732475
40
0.065
0
CIRCLE
5
156
100
AcDbEntity
8
0
6
ByLayer
62
256
370
-1
100
AcDbCircle
10
-25.347125
20
27.887675
40
0.065
0
CIRCLE
5
157
100
AcDbEntity
8
0
6
ByLayer
62
256
370
-1
100
AcDbCircle
10
-23.819375
20
28.013775
40
0.065
0
CIRCLE
5
158
100
AcDbEntity
8
0
6
ByLayer
62
256
370
-1
100
AcDbCircle
10
-22.291625
20
28.091375
40
0.065
0
CIRCLE
5
159
100
AcDbEntity
8
0
6
ByLayer
62
256
370
-1
100
AcDbCircle
10
-20.763875
20
28.130175
40
0.065
0
CIRCLE
5
15A
100
AcDbEntity
8
0
6
ByLayer
62
256
370
-1
100
AcDbCircle
10
-28.402625
20
27.528775
40
0.065
0
CIRCLE
5
15B
100
AcDbEntity
8
0
6
ByLayer
62
256
370
-1
100
AcDbCircle
10
-29.930375
20
27.276575
40
0.065
0
CIRCLE
5
15C
100
AcDbEntity
8
0
6
ByLayer
62
256
370
-1
100
AcDbCircle
10
-31.2035
20
27.053475
40
0.065
0
CIRCLE
5
15D
100
AcDbEntity
8
0
6
ByLayer
62
256
370
-1
100
AcDbCircle
10
-13.125125
20
27.732475
40
0.065
0
CIRCLE
5
15E
100
AcDbEntity
8
0
6
ByLayer
62
256
370
-1
100
AcDbCircle
10
-14.652875
20
27.887675
40
0.065
0
CIRCLE
5
15F
100
AcDbEntity
8
0
6
ByLayer
62
256
370
-1
100
AcDbCircle
10
-16.180625
20
28.013775
40
0.065
0
CIRCLE
5
160
100
AcDbEntity
8
0
6
ByLayer
62
256
370
-1
100
AcDbCircle
10
-17.708375
20
28.091375
40
0.065
0
CIRCLE
5
161
100
AcDbEntity
8
0
6
ByLayer
62
256
370
-1
100
AcDbCircle
10
-19.236125
20
28.130175
40
0.065
0
CIRCLE
5
162
100
AcDbEntity
8
0
6
ByLayer
62
256
370
-1
100
AcDbCircle
10
-11.597375
20
27.528775
40
0.065
0
CIRCLE
5
163
100
AcDbEntity
8
0
6
ByLayer
62
256
370
-1
100
AcDbCircle
10
-10.069625
20
27.276575
40
0.065
0
CIRCLE
5
164
100
AcDbEntity
8
0
6
ByLayer
62
256
370
-1
100
AcDbCircle
10
-8.7965
20
27.053475
40
0.065
0
CIRCLE
5
165
100
AcDbEntity
8
0
6
ByLayer
62
256
370
-1
100
AcDbCircle
10
-20.763875
20
22.863075
40
0.065
0
CIRCLE
5
166
100
AcDbEntity
8
0
6
ByLayer
62
256
370
-1
100
AcDbCircle
10
-22.291625
20
22.804875
40
0.065
0
CIRCLE
5
167
100
AcDbEntity
8
0
6
ByLayer
62
256
370
-1
100
AcDbCircle
10
-23.819375
20
22.717575
40
0.065
0
CIRCLE
5
168
100
AcDbEntity
8
0
6
ByLayer
62
256
370
-1
100
AcDbCircle
10
-25.347125
20
22.562375
40
0.065
0
CIRCLE
5
169
100
AcDbEntity
8
0
6
ByLayer
62
256
370
-1
100
AcDbCircle
10
-26.874875
20
22.368375
40
0.065
0
CIRCLE
5
16A
100
AcDbEntity
8
0
6
ByLayer
62
256
370
-1
100
AcDbCircle
10
-28.402625
20
22.116175
40
0.065
0
CIRCLE
5
16B
100
AcDbEntity
8
0
6
ByLayer
62
256
370
-1
100
AcDbCircle
10
-29.930375
20
21.815475
40
0.065
0
CIRCLE
5
16C
100
AcDbEntity
8
0
6
ByLayer
62
256
370
-1
100
AcDbCircle
10
-30.69425
20
21.640875
40
0.065
0
CIRCLE
5
16D
100
AcDbEntity
8
0
6
ByLayer
62
256
370
-1
100
AcDbCircle
10
-19.236125
20
22.863075
40
0.065
0
CIRCLE
5
16E
100
AcDbEntity
8
0
6
ByLayer
62
256
370
-1
100
AcDbCircle
10
-17.708375
20
22.804875
40
0.065
0
CIRCLE
5
16F
100
AcDbEntity
8
0
6
ByLayer
62
256
370
-1
100
AcDbCircle
10
-16.180625
20
22.717575
40
0.065
0
CIRCLE
5
170
100
AcDbEntity
8
0
6
ByLayer
62
256
370
-1
100
AcDbCircle
10
-14.652875
20
22.562375
40
0.065
0
CIRCLE
5
171
100
AcDbEntity
8
0
6
ByLayer
62
256
370
-1
100
AcDbCircle
10
-13.125125
20
22.368375
40
0.065
0
CIRCLE
5
172
100
AcDbEntity
8
0
6
ByLayer
62
256
370
-1
100
AcDbCircle
10
-11.597375
20
22.116175
40
0.065
0
CIRCLE
5
173
100
AcDbEntity
8
0
6
ByLayer
62
256
370
-1
100
AcDbCircle
10
-10.069625
20
21.815475
40
0.065
0
CIRCLE
5
174
100
AcDbEntity
8
0
6
ByLayer
62
256
370
-1
100
AcDbCircle
10
-9.30575
20
21.640875
40
0.065
0
LINE
5
175
100
AcDbEntity
8
0
6
ByLayer
62
256
370
-1
100
AcDbLine
10
-29.991
20
19.497
11
-10.009
21
19.497
0
ARC
5
176
100
AcDbEntity
8
0
6
ByLayer
62
256
370
-1
100
AcDbCircle
10
-10.0184153064
20
19.2776456901
40
0.219556282636
100
AcDbArc
50
5.84374488668
51
87.5422119886
0
ARC
5
177
100
AcDbEntity
8
0
6
ByLayer
62
256
370
-1
100
AcDbCircle
10
-29.9815846936
20
19.2776456901
40
0.219556282636
100
AcDbArc
50
92.4577880114
51
174.156255113
0
ARC
5
178
100
AcDbEntity
8
0
6
ByLayer
62
256
370
-1
100
AcDbCircle
10
-10.0184153064
20
17.5223543099
40
0.219556282636
100
AcDbArc
50
272.457788011
51
354.156255113
0
ARC
5
179
100
AcDbEntity
8
0
6
ByLayer
62
256
370
-1
100
AcDbCircle
10
-29.9815846936
20
17.5223543099
40
0.219556282636
100
AcDbArc
50
185.843744887
51
267.542211989
0
LINE
5
17A
100
AcDbEntity
8
0
6
ByLayer
62
256
370
-1
100
AcDbLine
10
-29.991
20
17.303
11
-10.009
21
17.303
0
LINE
5
17B
100
AcDbEntity
8
0
6
ByLayer
62
256
370
-1
100
AcDbLine
10
-30.2
20
19.3
11
-30.2
21
17.5
0
LINE
5
17C
100
AcDbEntity
8
0
6
ByLayer
62
256
370
-1
100
AcDbLine
10
-9.8
20
19.3
11
-9.8
21
17.5
0
MTEXT
5
17D
100
AcDbEntity
8
0
6
ByLayer
62
256
370
0
100
AcDbMText
10
-20.5693665137
20
19.050689425
30
0
40
0.10185
41
1.23917505238
71
1
72
5
1
Front Waist Plate
7
iso
210
0
220
0
230
1
50
0
73
2
44
1
0
MTEXT
5
17E
100
AcDbEntity
8
0
6
ByLayer
62
256
370
0
100
AcDbMText
10
-20.45
20
18.690125
30
0
40
0.10185
41
0.8911875
71
1
72
5
1
Height: 178cm\PWeight: 92kg
7
iso
210
0
220
0
230
1
50
0
73
2
44
1
0
CIRCLE
5
17F
100
AcDbEntity
8
0
6
ByLayer
62
256
370
-1
100
AcDbCircle
10
-20.73
20
18.4
40
0.065
0
CIRCLE
5
180
100
AcDbEntity
8
0
6
ByLayer
62
256
370
-1
100
AcDbCircle
10
-22.19
20
18.4
40
0.065
0
CIRCLE
5
181
100
AcDbEntity
8
0
6
ByLayer
62
256
370
-1
100
AcDbCircle
10
-23.65
20
18.4
40
0.065
0
CIRCLE
5
182
100
AcDbEntity
8
0
6
ByLayer
62
256
370
-1
100
AcDbCircle
10
-25.11
20
18.4
40
0.065
0
CIRCLE
5
183
100
AcDbEntity
8
0
6
ByLayer
62
256
370
-1
100
AcDbCircle
10
-28.03
20
18.4
40
0.065
0
CIRCLE
5
184
100
AcDbEntity
8
0
6
ByLayer
62
256
370
-1
100
AcDbCircle
10
-29.49
20
18.4
40
0.065
0
CIRCLE
5
185
100
AcDbEntity
8
0
6
ByLayer
62
256
370
-1
100
AcDbCircle
10
-19.27
20
18.4
40
0.065
0
CIRCLE
5
186
100
AcDbEntity
8
0
6
ByLayer
62
256
370
-1
100
AcDbCircle
10
-17.81
20
18.4
40
0.065
0
CIRCLE
5
187
100
AcDbEntity
8
0
6
ByLayer
62
256
370
-1
100
AcDbCircle
10
-16.35
20
18.4
40
0.065
0
CIRCLE
5
188
100
AcDbEntity
8
0
6
ByLayer
62
256
370
-1
100
AcDbCircle
10
-14.89
20
18.4
40
0.065
0
CIRCLE
5
189
100
AcDbEntity
8
0
6
ByLayer
62
256
370
-1
100
AcDbCircle
10
-11.97
20
18.4
40
0.065
0
CIRCLE
5
18A
100
AcDbEntity
8
0
6
ByLayer
62
256
370
-1
100
AcDbCircle
10
-10.51
20
18.4
40
0.065
0
ARC
5
18B
100
AcDbEntity
8
0
6
ByLayer
62
256
370
-1
100
AcDbCircle
10
8.4094153064
20
19.3306456901
40
0.219556282636
100
AcDbArc
50
92.4577880114
51
174.156255113
0
ARC
5
18C
100
AcDbEntity
8
0
6
ByLayer
62
256
370
-1
100
AcDbCircle
10
8.4094153064
20
17.5753543099
40
0.219556282636
100
AcDbArc
50
185.843744887
51
267.542211989
0
LINE
5
18D
100
AcDbEntity
8
0
6
ByLayer
62
256
370
-1
100
AcDbLine
10
8.191
20
19.353
11
8.191
21
17.553
0
ARC
5
18E
100
AcDbEntity
8
0
6
ByLayer
62
256
370
-1
100
AcDbCircle
10
31.5905846936
20
19.3306456901
40
0.219556282636
100
AcDbArc
50
5.84374488668
51
87.5422119886
0
ARC
5
18F
100
AcDbEntity
8
0
6
ByLayer
62
256
370
-1
100
AcDbCircle
10
31.5905846936
20
17.5753543099
40
0.219556282636
100
AcDbArc
50
272.457788011
51
354.156255113
0
LINE
5
190
100
AcDbEntity
8
0
6
ByLayer
62
256
370
-1
100
AcDbLine
10
31.809
20
19.353
11
31.809
21
17.553
0
LINE
5
191
100
AcDbEntity
8
0
6
ByLayer
62
256
370
-1
100
AcDbLine
10
8.4
20
17.35
11
31.6
21
17.356
0
LINE
5
192
100
AcDbEntity
8
0
6
ByLayer
62
256
370
-1
100
AcDbLine
10
8.4
20
19.55
11
31.6
21
19.55
0
MTEXT
5
193
100
AcDbEntity
8
0
6
ByLayer
62
256
370
0
100
AcDbMText
10
19.4306334863
20
19.100689425
30
0
40
0.10185
41
1.23917505238
71
1
72
5
1
Front Waist Plate
7
iso
210
0
220
0
230
1
50
0
73
2
44
1
0
MTEXT
5
194
100
AcDbEntity
8
0
6
ByLayer
62
256
370
0
100
AcDbMText
10
19.55
20
18.83
30
0
40
0.10185
41
0.8911875
71
1
72
5
1
Height: 178cm\PWeight: 92kg
7
iso
210
0
220
0
230
1
50
0
73
2
44
1
0
CIRCLE
5
195
100
AcDbEntity
8
0
6
ByLayer
62
256
370
-1
100
AcDbCircle
10
19.27
20
18.45
40
0.065
0
CIRCLE
5
196
100
AcDbEntity
8
0
6
ByLayer
62
256
370
-1
100
AcDbCircle
10
17.81
20
18.45
40
0.065
0
CIRCLE
5
197
100
AcDbEntity
8
0
6
ByLayer
62
256
370
-1
100
AcDbCircle
10
16.35
20
18.45
40
0.065
0
CIRCLE
5
198
100
AcDbEntity
8
0
6
ByLayer
62
256
370
-1
100
AcDbCircle
10
14.89
20
18.45
40
0.065
0
CIRCLE
5
199
100
AcDbEntity
8
0
6
ByLayer
62
256
370
-1
100
AcDbCircle
10
11.97
20
18.45
40
0.065
0
CIRCLE
5
19A
100
AcDbEntity
8
0
6
ByLayer
62
256
370
-1
100
AcDbCircle
10
10.51
20
18.45
40
0.065
0
CIRCLE
5
19B
100
AcDbEntity
8
0
6
ByLayer
62
256
370
-1
100
AcDbCircle
10
20.73
20
18.45
40
0.065
0
CIRCLE
5
19C
100
AcDbEntity
8
0
6
ByLayer
62
256
370
-1
100
AcDbCircle
10
22.19
20
18.45
40
0.065
0
CIRCLE
5
19D
100
AcDbEntity
8
0
6
ByLayer
62
256
370
-1
100
AcDbCircle
10
23.65
20
18.45
40
0.065
0
CIRCLE
5
19E
100
AcDbEntity
8
0
6
ByLayer
62
256
370
-1
100
AcDbCircle
10
25.11
20
18.45
40
0.065
0
CIRCLE
5
19F
100
AcDbEntity
8
0
6
ByLayer
62
256
370
-1
100
AcDbCircle
10
28.03
20
18.45
40
0.065
0
CIRCLE
5
1A0
100
AcDbEntity
8
0
6
ByLayer
62
256
370
-1
100
AcDbCircle
10
29.49
20
18.45
40
0.065
0
CIRCLE
5
1A1
100
AcDbEntity
8
0
6
ByLayer
62
256
370
-1
100
AcDbCircle
10
-22.291625
20
14.210675
40
0.065
0
CIRCLE
5
1A2
100
AcDbEntity
8
0
6
ByLayer
62
256
370
-1
100
AcDbCircle
10
-20.763875
20
14.133075
40
0.065
0
CIRCLE
5
1A3
100
AcDbEntity
8
0
6
ByLayer
62
256
370
-1
100
AcDbCircle
10
-30.69425
20
15.345575
40
0.065
0
CIRCLE
5
1A4
100
AcDbEntity
8
0
6
ByLayer
62
256
370
-1
100
AcDbCircle
10
-29.930375
20
15.209775
40
0.065
0
CIRCLE
5
1A5
100
AcDbEntity
8
0
6
ByLayer
62
256
370
-1
100
AcDbCircle
10
-28.402625
20
14.909075
40
0.065
0
CIRCLE
5
1A6
100
AcDbEntity
8
0
6
ByLayer
62
256
370
-1
100
AcDbCircle
10
-26.874875
20
14.656875
40
0.065
0
CIRCLE
5
1A7
100
AcDbEntity
8
0
6
ByLayer
62
256
370
-1
100
AcDbCircle
10
-25.347125
20
14.462875
40
0.065
0
CIRCLE
5
1A8
100
AcDbEntity
8
0
6
ByLayer
62
256
370
-1
100
AcDbCircle
10
-23.819375
20
14.307675
40
0.065
0
CIRCLE
5
1A9
100
AcDbEntity
8
0
6
ByLayer
62
256
370
-1
100
AcDbCircle
10
-17.708375
20
14.210675
40
0.065
0
CIRCLE
5
1AA
100
AcDbEntity
8
0
6
ByLayer
62
256
370
-1
100
AcDbCircle
10
-19.236125
20
14.133075
40
0.065
0
CIRCLE
5
1AB
100
AcDbEntity
8
0
6
ByLayer
62
256
370
-1
100
AcDbCircle
10
-9.30575
20
15.345575
40
0.065
0
CIRCLE
5
1AC
100
AcDbEntity
8
0
6
ByLayer
62
256
370
-1
100
AcDbCircle
10
-10.069625
20
15.209775
40
0.065
0
CIRCLE
5
1AD
100
AcDbEntity
8
0
6
ByLayer
62
256
370
-1
100
AcDbCircle
10
-11.597375
20
14.909075
40
0.065
0
CIRCLE
5
1AE
100
AcDbEntity
8
0
6
ByLayer
62
256
370
-1
100
AcDbCircle
10
-13.125125
20
14.656875
40
0.065
0
CIRCLE
5
1AF
100
AcDbEntity
8
0
6
ByLayer
62
256
370
-1
100
AcDbCircle
10
-14.652875
20
14.462875
40
0.065
0
CIRCLE
5
1B0
100
AcDbEntity
8
0
6
ByLayer
62
256
370
-1
100
AcDbCircle
10
-16.180625
20
14.307675
40
0.065
0
CIRCLE
5
1B1
100
AcDbEntity
8
0
6
ByLayer
62
256
370
-1
100
AcDbCircle
10
-22.291625
20
8.933875
40
0.065
0
CIRCLE
5
1B2
100
AcDbEntity
8
0
6
ByLayer
62
256
370
-1
100
AcDbCircle
10
-20.763875
20
8.885375
40
0.065
0
CIRCLE
5
1B3
100
AcDbEntity
8
0
6
ByLayer
62
256
370
-1
100
AcDbCircle
10
-31.44794
20
10.243375
40
0.065
0
CIRCLE
5
1B4
100
AcDbEntity
8
0
6
ByLayer
62
256
370
-1
100
AcDbCircle
10
-29.930375
20
9.903875
40
0.065
0
CIRCLE
5
1B5
100
AcDbEntity
8
0
6
ByLayer
62
256
370
-1
100
AcDbCircle
10
-26.874875
20
9.370375
40
0.065
0
CIRCLE
5
1B6
100
AcDbEntity
8
0
6
ByLayer
62
256
370
-1
100
AcDbCircle
10
-25.347125
20
9.176375
40
0.065
0
CIRCLE
5
1B7
100
AcDbEntity
8
0
6
ByLayer
62
256
370
-1
100
AcDbCircle
10
-23.819375
20
9.030875
40
0.065
0
CIRCLE
5
1B8
100
AcDbEntity
8
0
6
ByLayer
62
256
370
-1
100
AcDbCircle
10
-17.708375
20
8.933875
40
0.065
0
CIRCLE
5
1B9
100
AcDbEntity
8
0
6
ByLayer
62
256
370
-1
100
AcDbCircle
10
-19.236125
20
8.885375
40
0.065
0
CIRCLE
5
1BA
100
AcDbEntity
8
0
6
ByLayer
62
256
370
-1
100
AcDbCircle
10
-8.55206
20
10.243375
40
0.065
0
CIRCLE
5
1BB
100
AcDbEntity
8
0
6
ByLayer
62
256
370
-1
100
AcDbCircle
10
-10.069625
20
9.903875
40
0.065
0
CIRCLE
5
1BC
100
AcDbEntity
8
0
6
ByLayer
62
256
370
-1
100
AcDbCircle
10
-13.125125
20
9.370375
40
0.065
0
CIRCLE
5
1BD
100
AcDbEntity
8
0
6
ByLayer
62
256
370
-1
100
AcDbCircle
10
-14.652875
20
9.176375
40
0.065
0
CIRCLE
5
1BE
100
AcDbEntity
8
0
6
ByLayer
62
256
370
-1
100
AcDbCircle
10
-16.180625
20
9.030875
40
0.065
0
CIRCLE
5
1BF
100
AcDbEntity
8
0
6
ByLayer
62
256
370
-1
100
AcDbCircle
10
-22.291625
20
3.618275
40
0.065
0
CIRCLE
5
1C0
100
AcDbEntity
8
0
6
ByLayer
62
256
370
-1
100
AcDbCircle
10
-20.763875
20
3.569775
40
0.065
0
CIRCLE
5
1C1
100
AcDbEntity
8
0
6
ByLayer
62
256
370
-1
100
AcDbCircle
10
-26.874875
20
4.054775
40
0.065
0
CIRCLE
5
1C2
100
AcDbEntity
8
0
6
ByLayer
62
256
370
-1
100
AcDbCircle
10
-25.347125
20
3.860775
40
0.065
0
CIRCLE
5
1C3
100
AcDbEntity
8
0
6
ByLayer
62
256
370
-1
100
AcDbCircle
10
-23.819375
20
3.715275
40
0.065
0
CIRCLE
5
1C4
100
AcDbEntity
8
0
6
ByLayer
62
256
370
-1
100
AcDbCircle
10
-28.402625
20
4.306975
40
0.065
0
CIRCLE
5
1C5
100
AcDbEntity
8
0
6
ByLayer
62
256
370
-1
100
AcDbCircle
10
-29.930375
20
4.607675
40
0.065
0
CIRCLE
5
1C6
100
AcDbEntity
8
0
6
ByLayer
62
256
370
-1
100
AcDbCircle
10
-31.458125
20
4.966575
40
0.065
0
CIRCLE
5
1C7
100
AcDbEntity
8
0
6
ByLayer
62
256
370
-1
100
AcDbCircle
10
-32.73125
20
5.286675
40
0.065
0
CIRCLE
5
1C8
100
AcDbEntity
8
0
6
ByLayer
62
256
370
-1
100
AcDbCircle
10
-22.291625
20
1.154475
40
0.065
0
CIRCLE
5
1C9
100
AcDbEntity
8
0
6
ByLayer
62
256
370
-1
100
AcDbCircle
10
-20.763875
20
1.105975
40
0.065
0
CIRCLE
5
1CA
100
AcDbEntity
8
0
6
ByLayer
62
256
370
-1
100
AcDbCircle
10
-25.347125
20
1.387275
40
0.065
0
CIRCLE
5
1CB
100
AcDbEntity
8
0
6
ByLayer
62
256
370
-1
100
AcDbCircle
10
-23.819375
20
1.251475
40
0.065
0
CIRCLE
5
1CC
100
AcDbEntity
8
0
6
ByLayer
62
256
370
-1
100
AcDbCircle
10
-26.874875
20
1.581275
40
0.065
0
CIRCLE
5
1CD
100
AcDbEntity
8
0
6
ByLayer
62
256
370
-1
100
AcDbCircle
10
-32.6294
20
2.745275
40
0.065
0
CIRCLE
5
1CE
100
AcDbEntity
8
0
6
ByLayer
62
256
370
-1
100
AcDbCircle
10
-31.458125
20
2.434875
40
0.065
0
CIRCLE
5
1CF
100
AcDbEntity
8
0
6
ByLayer
62
256
370
-1
100
AcDbCircle
10
-29.930375
20
2.105075
40
0.065
0
CIRCLE
5
1D0
100
AcDbEntity
8
0
6
ByLayer
62
256
370
-1
100
AcDbCircle
10
-28.402625
20
1.814075
40
0.065
0
CIRCLE
5
1D1
100
AcDbEntity
8
0
6
ByLayer
62
256
370
-1
100
AcDbCircle
10
-33.68864
20
3.026575
40
0.065
0
CIRCLE
5
1D2
100
AcDbEntity
8
0
6
ByLayer
62
256
370
-1
100
AcDbCircle
10
-17.708375
20
3.618275
40
0.065
0
CIRCLE
5
1D3
100
AcDbEntity
8
0
6
ByLayer
62
256
370
-1
100
AcDbCircle
10
-19.236125
20
3.569775
40
0.065
0
CIRCLE
5
1D4
100
AcDbEntity
8
0
6
ByLayer
62
256
370
-1
100
AcDbCircle
10
-13.125125
20
4.054775
40
0.065
0
CIRCLE
5
1D5
100
AcDbEntity
8
0
6
ByLayer
62
256
370
-1
100
AcDbCircle
10
-14.652875
20
3.860775
40
0.065
0
CIRCLE
5
1D6
100
AcDbEntity
8
0
6
ByLayer
62
256
370
-1
100
AcDbCircle
10
-16.180625
20
3.715275
40
0.065
0
CIRCLE
5
1D7
100
AcDbEntity
8
0
6
ByLayer
62
256
370
-1
100
AcDbCircle
10
-11.597375
20
4.306975
40
0.065
0
CIRCLE
5
1D8
100
AcDbEntity
8
0
6
ByLayer
62
256
370
-1
100
AcDbCircle
10
-10.069625
20
4.607675
40
0.065
0
CIRCLE
5
1D9
100
AcDbEntity
8
0
6
ByLayer
62
256
370
-1
100
AcDbCircle
10
-8.541875
20
4.966575
40
0.065
0
CIRCLE
5
1DA
100
AcDbEntity
8
0
6
ByLayer
62
256
370
-1
100
AcDbCircle
10
-7.26875
20
5.286675
40
0.065
0
CIRCLE
5
1DB
100
AcDbEntity
8
0
6
ByLayer
62
256
370
-1
100
AcDbCircle
10
-17.708375
20
1.154475
40
0.065
0
CIRCLE
5
1DC
100
AcDbEntity
8
0
6
ByLayer
62
256
370
-1
100
AcDbCircle
10
-19.236125
20
1.105975
40
0.065
0
CIRCLE
5
1DD
100
AcDbEntity
8
0
6
ByLayer
62
256
370
-1
100
AcDbCircle
10
-14.652875
20
1.387275
40
0.065
0
CIRCLE
5
1DE
100
AcDbEntity
8
0
6
ByLayer
62
256
370
-1
100
AcDbCircle
10
-16.180625
20
1.251475
40
0.065
0
CIRCLE
5
1DF
100
AcDbEntity
8
0
6
ByLayer
62
256
370
-1
100
AcDbCircle
10
-13.125125
20
1.581275
40
0.065
0
CIRCLE
5
1E0
100
AcDbEntity
8
0
6
ByLayer
62
256
370
-1
100
AcDbCircle
10
-7.3706
20
2.745275
40
0.065
0
CIRCLE
5
1E1
100
AcDbEntity
8
0
6
ByLayer
62
256
370
-1
100
AcDbCircle
10
-8.541875
20
2.434875
40
0.065
0
CIRCLE
5
1E2
100
AcDbEntity
8
0
6
ByLayer
62
256
370
-1
100
AcDbCircle
10
-10.069625
20
2.105075
40
0.065
0
CIRCLE
5
1E3
100
AcDbEntity
8
0
6
ByLayer
62
256
370
-1
100
AcDbCircle
10
-11.597375
20
1.814075
40
0.065
0
CIRCLE
5
1E4
100
AcDbEntity
8
0
6
ByLayer
62
256
370
-1
100
AcDbCircle
10
-6.31136
20
3.026575
40
0.065
0
CIRCLE
5
1E5
100
AcDbEntity
8
0
6
ByLayer
62
256
370
-1
100
AcDbCircle
10
17.708375
20
14.0908
40
0.065
0
CIRCLE
5
1E6
100
AcDbEntity
8
0
6
ByLayer
62
256
370
-1
100
AcDbCircle
10
19.236125
20
14.0132
40
0.065
0
CIRCLE
5
1E7
100
AcDbEntity
8
0
6
ByLayer
62
256
370
-1
100
AcDbCircle
10
9.30575
20
15.2257
40
0.065
0
CIRCLE
5
1E8
100
AcDbEntity
8
0
6
ByLayer
62
256
370
-1
100
AcDbCircle
10
10.069625
20
15.0899
40
0.065
0
CIRCLE
5
1E9
100
AcDbEntity
8
0
6
ByLayer
62
256
370
-1
100
AcDbCircle
10
11.597375
20
14.7892
40
0.065
0
CIRCLE
5
1EA
100
AcDbEntity
8
0
6
ByLayer
62
256
370
-1
100
AcDbCircle
10
13.125125
20
14.537
40
0.065
0
CIRCLE
5
1EB
100
AcDbEntity
8
0
6
ByLayer
62
256
370
-1
100
AcDbCircle
10
14.652875
20
14.343
40
0.065
0
CIRCLE
5
1EC
100
AcDbEntity
8
0
6
ByLayer
62
256
370
-1
100
AcDbCircle
10
16.180625
20
14.1878
40
0.065
0
CIRCLE
5
1ED
100
AcDbEntity
8
0
6
ByLayer
62
256
370
-1
100
AcDbCircle
10
22.291625
20
14.0908
40
0.065
0
CIRCLE
5
1EE
100
AcDbEntity
8
0
6
ByLayer
62
256
370
-1
100
AcDbCircle
10
20.763875
20
14.0132
40
0.065
0
CIRCLE
5
1EF
100
AcDbEntity
8
0
6
ByLayer
62
256
370
-1
100
AcDbCircle
10
30.69425
20
15.2257
40
0.065
0
CIRCLE
5
1F0
100
AcDbEntity
8
0
6
ByLayer
62
256
370
-1
100
AcDbCircle
10
29.930375
20
15.0899
40
0.065
0
CIRCLE
5
1F1
100
AcDbEntity
8
0
6
ByLayer
62
256
370
-1
100
AcDbCircle
10
28.402625
20
14.7892
40
0.065
0
CIRCLE
5
1F2
100
AcDbEntity
8
0
6
ByLayer
62
256
370
-1
100
AcDbCircle
10
26.874875
20
14.537
40
0.065
0
CIRCLE
5
1F3
100
AcDbEntity
8
0
6
ByLayer
62
256
370
-1
100
AcDbCircle
10
25.347125
20
14.343
40
0.065
0
CIRCLE
5
1F4
100
AcDbEntity
8
0
6
ByLayer
62
256
370
-1
100
AcDbCircle
10
23.819375
20
14.1878
40
0.065
0
CIRCLE
5
1F5
100
AcDbEntity
8
0
6
ByLayer
62
256
370
-1
100
AcDbCircle
10
17.708375
20
8.814
40
0.065
0
CIRCLE
5
1F6
100
AcDbEntity
8
0
6
ByLayer
62
256
370
-1
100
AcDbCircle
10
19.236125
20
8.7655
40
0.065
0
CIRCLE
5
1F7
100
AcDbEntity
8
0
6
ByLayer
62
256
370
-1
100
AcDbCircle
10
8.55206
20
10.1235
40
0.065
0
CIRCLE
5
1F8
100
AcDbEntity
8
0
6
ByLayer
62
256
370
-1
100
AcDbCircle
10
10.069625
20
9.784
40
0.065
0
CIRCLE
5
1F9
100
AcDbEntity
8
0
6
ByLayer
62
256
370
-1
100
AcDbCircle
10
13.125125
20
9.2505
40
0.065
0
CIRCLE
5
1FA
100
AcDbEntity
8
0
6
ByLayer
62
256
370
-1
100
AcDbCircle
10
14.652875
20
9.0565
40
0.065
0
CIRCLE
5
1FB
100
AcDbEntity
8
0
6
ByLayer
62
256
370
-1
100
AcDbCircle
10
16.180625
20
8.911
40
0.065
0
CIRCLE
5
1FC
100
AcDbEntity
8
0
6
ByLayer
62
256
370
-1
100
AcDbCircle
10
22.291625
20
8.814
40
0.065
0
CIRCLE
5
1FD
100
AcDbEntity
8
0
6
ByLayer
62
256
370
-1
100
AcDbCircle
10
20.763875
20
8.7655
40
0.065
0
CIRCLE
5
1FE
100
AcDbEntity
8
0
6
ByLayer
62
256
370
-1
100
AcDbCircle
10
31.44794
20
10.1235
40
0.065
0
CIRCLE
5
1FF
100
AcDbEntity
8
0
6
ByLayer
62
256
370
-1
100
AcDbCircle
10
29.930375
20
9.784
40
0.065
0
CIRCLE
5
200
100
AcDbEntity
8
0
6
ByLayer
62
256
370
-1
100
AcDbCircle
10
26.874875
20
9.2505
40
0.065
0
CIRCLE
5
201
100
AcDbEntity
8
0
6
ByLayer
62
256
370
-1
100
AcDbCircle
10
25.347125
20
9.0565
40
0.065
0
CIRCLE
5
202
100
AcDbEntity
8
0
6
ByLayer
62
256
370
-1
100
AcDbCircle
10
23.819375
20
8.911
40
0.065
0
ELLIPSE
5
203
100
AcDbEntity
8
0
6
ByLayer
62
256
370
0
100
AcDbEllipse
10
20
20
47.1058126906
30
0
11
-45.4358075751
21
0
31
0
40
0.952380952381
41
1.2891251193
42
1.85246753429
0
ELLIPSE
5
204
100
AcDbEntity
8
0
6
ByLayer
62
256
370
0
100
AcDbEllipse
10
20
20
46
30
0
11
-47.42390625
21
0
31
0
40
0.952380952381
41
1.27663961602
42
1.86495303757
0
ELLIPSE
5
205
100
AcDbEntity
8
0
6
ByLayer
62
256
370
0
100
AcDbEllipse
10
32.7285930435
20
5.27381195652
30
0
11
-0.295464320412
21
0
31
0
40
0.952380952381
41
3.58043810847
42
5.0547576129
0
ELLIPSE
5
206
100
AcDbEntity
8
0
6
ByLayer
62
256
370
0
100
AcDbEllipse
10
33.6556885294
20
3.06166617647
30
0
11
-0.315980605235
21
0
31
0
40
0.952380952381
41
1.87305909367
42
3.48283099551
0
LINE
5
207
100
AcDbEntity
8
0
6
ByLayer
62
256
370
0
100
AcDbLine
10
33.95345
20
3.162375
11
32.99606
21
5.393375
0
ELLIPSE
5
208
100
AcDbEntity
8
0
6
ByLayer
62
256
370
0
100
AcDbEllipse
10
7.2714069565
20
5.27381195652
30
0
11
-0.295464320412
21
0
31
0
40
0.952380952381
41
4.37002034787
42
5.8443398523
0
ELLIPSE
5
209
100
AcDbEntity
8
0
6
ByLayer
62
256
370
0
100
AcDbEllipse
10
6.3443114705
20
3.06166617647
30
0
11
-0.315980605235
21
0
31
0
40
0.952380952381
41
5.94194696527
42
1.26853355992
0
LINE
5
20A
100
AcDbEntity
8
0
6
ByLayer
62
256
370
0
100
AcDbLine
10
6.04655
20
3.162375
11
7.00394
21
5.393375
0
CIRCLE
5
20B
100
AcDbEntity
8
0
6
ByLayer
62
256
370
-1
100
AcDbCircle
10
22.291625
20
3.618275
40
0.065
0
CIRCLE
5
20C
100
AcDbEntity
8
0
6
ByLayer
62
256
370
-1
100
AcDbCircle
10
20.763875
20
3.569775
40
0.065
0
CIRCLE
5
20D
100
AcDbEntity
8
0
6
ByLayer
62
256
370
-1
100
AcDbCircle
10
26.874875
20
4.054775
40
0.065
0
CIRCLE
5
20E
100
AcDbEntity
8
0
6
ByLayer
62
256
370
-1
100
AcDbCircle
10
25.347125
20
3.860775
40
0.065
0
CIRCLE
5
20F
100
AcDbEntity
8
0
6
ByLayer
62
256
370
-1
100
AcDbCircle
10
23.819375
20
3.715275
40
0.065
0
CIRCLE
5
210
100
AcDbEntity
8
0
6
ByLayer
62
256
370
-1
100
AcDbCircle
10
28.402625
20
4.306975
40
0.065
0
CIRCLE
5
211
100
AcDbEntity
8
0
6
ByLayer
62
256
370
-1
100
AcDbCircle
10
29.930375
20
4.607675
40
0.065
0
CIRCLE
5
212
100
AcDbEntity
8
0
6
ByLayer
62
256
370
-1
100
AcDbCircle
10
31.458125
20
4.966575
40
0.065
0
CIRCLE
5
213
100
AcDbEntity
8
0
6
ByLayer
62
256
370
-1
100
AcDbCircle
10
32.73125
20
5.286675
40
0.065
0
CIRCLE
5
214
100
AcDbEntity
8
0
6
ByLayer
62
256
370
-1
100
AcDbCircle
10
22.291625
20
1.154475
40
0.065
0
CIRCLE
5
215
100
AcDbEntity
8
0
6
ByLayer
62
256
370
-1
100
AcDbCircle
10
20.763875
20
1.105975
40
0.065
0
CIRCLE
5
216
100
AcDbEntity
8
0
6
ByLayer
62
256
370
-1
100
AcDbCircle
10
25.347125
20
1.387275
40
0.065
0
CIRCLE
5
217
100
AcDbEntity
8
0
6
ByLayer
62
256
370
-1
100
AcDbCircle
10
23.819375
20
1.251475
40
0.065
0
CIRCLE
5
218
100
AcDbEntity
8
0
6
ByLayer
62
256
370
-1
100
AcDbCircle
10
26.874875
20
1.581275
40
0.065
0
CIRCLE
5
219
100
AcDbEntity
8
0
6
ByLayer
62
256
370
-1
100
AcDbCircle
10
32.6294
20
2.745275
40
0.065
0
CIRCLE
5
21A
100
AcDbEntity
8
0
6
ByLayer
62
256
370
-1
100
AcDbCircle
10
31.458125
20
2.434875
40
0.065
0
CIRCLE
5
21B
100
AcDbEntity
8
0
6
ByLayer
62
256
370
-1
100
AcDbCircle
10
29.930375
20
2.105075
40
0.065
0
CIRCLE
5
21C
100
AcDbEntity
8
0
6
ByLayer
62
256
370
-1
100
AcDbCircle
10
28.402625
20
1.814075
40
0.065
0
CIRCLE
5
21D
100
AcDbEntity
8
0
6
ByLayer
62
256
370
-1
100
AcDbCircle
10
33.68864
20
3.026575
40
0.065
0
CIRCLE
5
21E
100
AcDbEntity
8
0
6
ByLayer
62
256
370
-1
100
AcDbCircle
10
17.708375
20
3.618275
40
0.065
0
CIRCLE
5
21F
100
AcDbEntity
8
0
6
ByLayer
62
256
370
-1
100
AcDbCircle
10
19.236125
20
3.569775
40
0.065
0
CIRCLE
5
220
100
AcDbEntity
8
0
6
ByLayer
62
256
370
-1
100
AcDbCircle
10
13.125125
20
4.054775
40
0.065
0
CIRCLE
5
221
100
AcDbEntity
8
0
6
ByLayer
62
256
370
-1
100
AcDbCircle
10
14.652875
20
3.860775
40
0.065
0
CIRCLE
5
222
100
AcDbEntity
8
0
6
ByLayer
62
256
370
-1
100
AcDbCircle
10
16.180625
20
3.715275
40
0.065
0
CIRCLE
5
223
100
AcDbEntity
8
0
6
ByLayer
62
256
370
-1
100
AcDbCircle
10
11.597375
20
4.306975
40
0.065
0
CIRCLE
5
224
100
AcDbEntity
8
0
6
ByLayer
62
256
370
-1
100
AcDbCircle
10
10.069625
20
4.607675
40
0.065
0
CIRCLE
5
225
100
AcDbEntity
8
0
6
ByLayer
62
256
370
-1
100
AcDbCircle
10
8.541875
20
4.966575
40
0.065
0
CIRCLE
5
226
100
AcDbEntity
8
0
6
ByLayer
62
256
370
-1
100
AcDbCircle
10
7.26875
20
5.286675
40
0.065
0
CIRCLE
5
227
100
AcDbEntity
8
0
6
ByLayer
62
256
370
-1
100
AcDbCircle
10
17.708375
20
1.154475
40
0.065
0
CIRCLE
5
228
100
AcDbEntity
8
0
6
ByLayer
62
256
370
-1
100
AcDbCircle
10
19.236125
20
1.105975
40
0.065
0
CIRCLE
5
229
100
AcDbEntity
8
0
6
ByLayer
62
256
370
-1
100
AcDbCircle
10
14.652875
20
1.387275
40
0.065
0
CIRCLE
5
22A
100
AcDbEntity
8
0
6
ByLayer
62
256
370
-1
100
AcDbCircle
10
16.180625
20
1.251475
40
0.065
0
CIRCLE
5
22B
100
AcDbEntity
8
0
6
ByLayer
62
256
370
-1
100
AcDbCircle
10
13.125125
20
1.581275
40
0.065
0
CIRCLE
5
22C
100
AcDbEntity
8
0
6
ByLayer
62
256
370
-1
100
AcDbCircle
10
7.3706
20
2.745275
40
0.065
0
CIRCLE
5
22D
100
AcDbEntity
8
0
6
ByLayer
62
256
370
-1
100
AcDbCircle
10
8.541875
20
2.434875
40
0.065
0
CIRCLE
5
22E
100
AcDbEntity
8
0
6
ByLayer
62
256
370
-1
100
AcDbCircle
10
10.069625
20
2.105075
40
0.065
0
CIRCLE
5
22F
100
AcDbEntity
8
0
6
ByLayer
62
256
370
-1
100
AcDbCircle
10
11.597375
20
1.814075
40
0.065
0
CIRCLE
5
230
100
AcDbEntity
8
0
6
ByLayer
62
256
370
-1
100
AcDbCircle
10
6.31136
20
3.026575
40
0.065
0
MTEXT
5
231
100
AcDbEntity
8
0
6
ByLayer
62
256
370
0
100
AcDbMText
10
20.4
20
2.2
30
0
40
0.10185
41
0.8911875
71
3
72
5
1
Height: 178cm\PWeight: 92kg
7
iso
210
0
220
0
230
1
50
360
73
2
44
1
0
CIRCLE
5
232
100
AcDbEntity
8
0
6
ByLayer
62
256
370
-1
100
AcDbCircle
10
16.180625
20
21.8122
40
0.065
0
CIRCLE
5
233
100
AcDbEntity
8
0
6
ByLayer
62
256
370
-1
100
AcDbCircle
10
9.30575
20
21.2882
40
0.065
0
CIRCLE
5
234
100
AcDbEntity
8
0
6
ByLayer
62
256
370
-1
100
AcDbCircle
10
10.069625
20
21.3755
40
0.065
0
CIRCLE
5
235
100
AcDbEntity
8
0
6
ByLayer
62
256
370
-1
100
AcDbCircle
10
11.597375
20
21.521
40
0.065
0
CIRCLE
5
236
100
AcDbEntity
8
0
6
ByLayer
62
256
370
-1
100
AcDbCircle
10
13.125125
20
21.6471
40
0.065
0
CIRCLE
5
237
100
AcDbEntity
8
0
6
ByLayer
62
256
370
-1
100
AcDbCircle
10
14.652875
20
21.7441
40
0.065
0
CIRCLE
5
238
100
AcDbEntity
8
0
6
ByLayer
62
256
370
-1
100
AcDbCircle
10
17.708375
20
21.8605
40
0.065
0
CIRCLE
5
239
100
AcDbEntity
8
0
6
ByLayer
62
256
370
-1
100
AcDbCircle
10
19.236125
20
21.8896
40
0.065
0
CIRCLE
5
23A
100
AcDbEntity
8
0
6
ByLayer
62
256
370
-1
100
AcDbCircle
10
23.819375
20
21.8122
40
0.065
0
CIRCLE
5
23B
100
AcDbEntity
8
0
6
ByLayer
62
256
370
-1
100
AcDbCircle
10
30.69425
20
21.2882
40
0.065
0
CIRCLE
5
23C
100
AcDbEntity
8
0
6
ByLayer
62
256
370
-1
100
AcDbCircle
10
29.930375
20
21.3755
40
0.065
0
CIRCLE
5
23D
100
AcDbEntity
8
0
6
ByLayer
62
256
370
-1
100
AcDbCircle
10
28.402625
20
21.521
40
0.065
0
CIRCLE
5
23E
100
AcDbEntity
8
0
6
ByLayer
62
256
370
-1
100
AcDbCircle
10
26.874875
20
21.6471
40
0.065
0
CIRCLE
5
23F
100
AcDbEntity
8
0
6
ByLayer
62
256
370
-1
100
AcDbCircle
10
25.347125
20
21.7441
40
0.065
0
CIRCLE
5
240
100
AcDbEntity
8
0
6
ByLayer
62
256
370
-1
100
AcDbCircle
10
22.291625
20
21.8605
40
0.065
0
CIRCLE
5
241
100
AcDbEntity
8
0
6
ByLayer
62
256
370
-1
100
AcDbCircle
10
20.763875
20
21.8896
40
0.065
0
CIRCLE
5
242
100
AcDbEntity
8
0
6
ByLayer
62
256
370
-1
100
AcDbCircle
10
13.125125
20
27.0306
40
0.065
0
CIRCLE
5
243
100
AcDbEntity
8
0
6
ByLayer
62
256
370
-1
100
AcDbCircle
10
19.236125
20
27.2731
40
0.065
0
CIRCLE
5
244
100
AcDbEntity
8
0
6
ByLayer
62
256
370
-1
100
AcDbCircle
10
11.597375
20
26.9239
40
0.065
0
CIRCLE
5
245
100
AcDbEntity
8
0
6
ByLayer
62
256
370
-1
100
AcDbCircle
10
10.069625
20
26.7784
40
0.065
0
CIRCLE
5
246
100
AcDbEntity
8
0
6
ByLayer
62
256
370
-1
100
AcDbCircle
10
8.7965
20
26.6329
40
0.065
0
CIRCLE
5
247
100
AcDbEntity
8
0
6
ByLayer
62
256
370
-1
100
AcDbCircle
10
14.652875
20
27.1179
40
0.065
0
CIRCLE
5
248
100
AcDbEntity
8
0
6
ByLayer
62
256
370
-1
100
AcDbCircle
10
16.180625
20
27.1858
40
0.065
0
CIRCLE
5
249
100
AcDbEntity
8
0
6
ByLayer
62
256
370
-1
100
AcDbCircle
10
17.708375
20
27.2052
40
0.065
0
CIRCLE
5
24A
100
AcDbEntity
8
0
6
ByLayer
62
256
370
-1
100
AcDbCircle
10
26.874875
20
27.0306
40
0.065
0
CIRCLE
5
24B
100
AcDbEntity
8
0
6
ByLayer
62
256
370
-1
100
AcDbCircle
10
20.763875
20
27.2731
40
0.065
0
CIRCLE
5
24C
100
AcDbEntity
8
0
6
ByLayer
62
256
370
-1
100
AcDbCircle
10
28.402625
20
26.9239
40
0.065
0
CIRCLE
5
24D
100
AcDbEntity
8
0
6
ByLayer
62
256
370
-1
100
AcDbCircle
10
29.930375
20
26.7784
40
0.065
0
CIRCLE
5
24E
100
AcDbEntity
8
0
6
ByLayer
62
256
370
-1
100
AcDbCircle
10
31.2035
20
26.6329
40
0.065
0
CIRCLE
5
24F
100
AcDbEntity
8
0
6
ByLayer
62
256
370
-1
100
AcDbCircle
10
25.347125
20
27.1179
40
0.065
0
CIRCLE
5
250
100
AcDbEntity
8
0
6
ByLayer
62
256
370
-1
100
AcDbCircle
10
23.819375
20
27.1858
40
0.065
0
CIRCLE
5
251
100
AcDbEntity
8
0
6
ByLayer
62
256
370
-1
100
AcDbCircle
10
22.291625
20
27.2052
40
0.065
0
CIRCLE
5
252
100
AcDbEntity
8
0
6
ByLayer
62
256
370
-1
100
AcDbCircle
10
19.236125
20
32.4238
40
0.065
0
CIRCLE
5
253
100
AcDbEntity
8
0
6
ByLayer
62
256
370
-1
100
AcDbCircle
10
17.708375
20
32.4238
40
0.065
0
CIRCLE
5
254
100
AcDbEntity
8
0
6
ByLayer
62
256
370
-1
100
AcDbCircle
10
16.180625
20
32.3656
40
0.065
0
CIRCLE
5
255
100
AcDbEntity
8
0
6
ByLayer
62
256
370
-1
100
AcDbCircle
10
14.652875
20
32.3268
40
0.065
0
CIRCLE
5
256
100
AcDbEntity
8
0
6
ByLayer
62
256
370
-1
100
AcDbCircle
10
13.125125
20
32.2201
40
0.065
0
CIRCLE
5
257
100
AcDbEntity
8
0
6
ByLayer
62
256
370
-1
100
AcDbCircle
10
11.597375
20
32.1231
40
0.065
0
CIRCLE
5
258
100
AcDbEntity
8
0
6
ByLayer
62
256
370
-1
100
AcDbCircle
10
10.069625
20
31.997
40
0.065
0
CIRCLE
5
259
100
AcDbEntity
8
0
6
ByLayer
62
256
370
-1
100
AcDbCircle
10
8.541875
20
31.8515
40
0.065
0
ELLIPSE
5
25A
100
AcDbEntity
8
0
6
ByLayer
62
256
370
0
100
AcDbEllipse
10
28.402625
20
32.8215
30
0
11
-0.0763942896983
21
0
31
0
40
0.952380952381
41
0
42
6.28318530718
0
CIRCLE
5
25B
100
AcDbEntity
8
0
6
ByLayer
62
256
370
-1
100
AcDbCircle
10
20.763875
20
32.4238
40
0.065
0
CIRCLE
5
25C
100
AcDbEntity
8
0
6
ByLayer
62
256
370
-1
100
AcDbCircle
10
22.291625
20
32.4238
40
0.065
0
CIRCLE
5
25D
100
AcDbEntity
8
0
6
ByLayer
62
256
370
-1
100
AcDbCircle
10
23.819375
20
32.3656
40
0.065
0
CIRCLE
5
25E
100
AcDbEntity
8
0
6
ByLayer
62
256
370
-1
100
AcDbCircle
10
25.347125
20
32.3268
40
0.065
0
CIRCLE
5
25F
100
AcDbEntity
8
0
6
ByLayer
62
256
370
-1
100
AcDbCircle
10
26.874875
20
32.2201
40
0.065
0
CIRCLE
5
260
100
AcDbEntity
8
0
6
ByLayer
62
256
370
-1
100
AcDbCircle
10
28.402625
20
32.1231
40
0.065
0
CIRCLE
5
261
100
AcDbEntity
8
0
6
ByLayer
62
256
370
-1
100
AcDbCircle
10
29.930375
20
31.997
40
0.065
0
CIRCLE
5
262
100
AcDbEntity
8
0
6
ByLayer
62
256
370
-1
100
AcDbCircle
10
31.458125
20
31.8515
40
0.065
0
CIRCLE
5
263
100
AcDbEntity
8
0
6
ByLayer
62
256
370
-1
100
AcDbCircle
10
19.236125
20
37.2156
40
0.065
0
CIRCLE
5
264
100
AcDbEntity
8
0
6
ByLayer
62
256
370
-1
100
AcDbCircle
10
17.708375
20
37.1962
40
0.065
0
CIRCLE
5
265
100
AcDbEntity
8
0
6
ByLayer
62
256
370
-1
100
AcDbCircle
10
16.180625
20
37.1671
40
0.065
0
CIRCLE
5
266
100
AcDbEntity
8
0
6
ByLayer
62
256
370
-1
100
AcDbCircle
10
14.652875
20
37.1186
40
0.065
0
CIRCLE
5
267
100
AcDbEntity
8
0
6
ByLayer
62
256
370
-1
100
AcDbCircle
10
13.125125
20
37.0507
40
0.065
0
CIRCLE
5
268
100
AcDbEntity
8
0
6
ByLayer
62
256
370
-1
100
AcDbCircle
10
11.597375
20
36.9731
40
0.065
0
CIRCLE
5
269
100
AcDbEntity
8
0
6
ByLayer
62
256
370
-1
100
AcDbCircle
10
10.48721
20
36.8955
40
0.065
0
CIRCLE
5
26A
100
AcDbEntity
8
0
6
ByLayer
62
256
370
-1
100
AcDbCircle
10
20.763875
20
37.2156
40
0.065
0
CIRCLE
5
26B
100
AcDbEntity
8
0
6
ByLayer
62
256
370
-1
100
AcDbCircle
10
22.291625
20
37.1962
40
0.065
0
CIRCLE
5
26C
100
AcDbEntity
8
0
6
ByLayer
62
256
370
-1
100
AcDbCircle
10
23.819375
20
37.1671
40
0.065
0
CIRCLE
5
26D
100
AcDbEntity
8
0
6
ByLayer
62
256
370
-1
100
AcDbCircle
10
25.347125
20
37.1186
40
0.065
0
CIRCLE
5
26E
100
AcDbEntity
8
0
6
ByLayer
62
256
370
-1
100
AcDbCircle
10
26.874875
20
37.0507
40
0.065
0
CIRCLE
5
26F
100
AcDbEntity
8
0
6
ByLayer
62
256
370
-1
100
AcDbCircle
10
28.402625
20
36.9731
40
0.065
0
CIRCLE
5
270
100
AcDbEntity
8
0
6
ByLayer
62
256
370
-1
100
AcDbCircle
10
29.51279
20
36.8955
40
0.065
0
CIRCLE
5
271
100
AcDbEntity
8
0
6
ByLayer
62
256
370
-1
100
AcDbCircle
10
19.236125
20
41.6776
40
0.065
0
CIRCLE
5
272
100
AcDbEntity
8
0
6
ByLayer
62
256
370
-1
100
AcDbCircle
10
17.708375
20
41.6582
40
0.065
0
CIRCLE
5
273
100
AcDbEntity
8
0
6
ByLayer
62
256
370
-1
100
AcDbCircle
10
16.180625
20
41.6388
40
0.065
0
CIRCLE
5
274
100
AcDbEntity
8
0
6
ByLayer
62
256
370
-1
100
AcDbCircle
10
14.652875
20
41.6
40
0.065
0
CIRCLE
5
275
100
AcDbEntity
8
0
6
ByLayer
62
256
370
-1
100
AcDbCircle
10
13.125125
20
41.5515
40
0.065
0
CIRCLE
5
276
100
AcDbEntity
8
0
6
ByLayer
62
256
370
-1
100
AcDbCircle
10
11.597375
20
41.4933
40
0.065
0
CIRCLE
5
277
100
AcDbEntity
8
0
6
ByLayer
62
256
370
-1
100
AcDbCircle
10
20.763875
20
41.6776
40
0.065
0
CIRCLE
5
278
100
AcDbEntity
8
0
6
ByLayer
62
256
370
-1
100
AcDbCircle
10
22.291625
20
41.6582
40
0.065
0
CIRCLE
5
279
100
AcDbEntity
8
0
6
ByLayer
62
256
370
-1
100
AcDbCircle
10
23.819375
20
41.6388
40
0.065
0
CIRCLE
5
27A
100
AcDbEntity
8
0
6
ByLayer
62
256
370
-1
100
AcDbCircle
10
25.347125
20
41.6
40
0.065
0
CIRCLE
5
27B
100
AcDbEntity
8
0
6
ByLayer
62
256
370
-1
100
AcDbCircle
10
26.874875
20
41.5515
40
0.065
0
CIRCLE
5
27C
100
AcDbEntity
8
0
6
ByLayer
62
256
370
-1
100
AcDbCircle
10
28.402625
20
41.4933
40
0.065
0
LINE
5
27D
100
AcDbEntity
8
0
6
ByLayer
62
256
370
0
100
AcDbLine
10
29.06465
20
39.466
11
29.7776
21
36.944
0
CIRCLE
5
27E
100
AcDbEntity
8
0
6
ByLayer
62
256
370
-1
100
AcDbCircle
10
19.236125
20
46.3918
40
0.065
0
CIRCLE
5
27F
100
AcDbEntity
8
0
6
ByLayer
62
256
370
-1
100
AcDbCircle
10
17.708375
20
46.4985
40
0.065
0
CIRCLE
5
280
100
AcDbEntity
8
0
6
ByLayer
62
256
370
-1
100
AcDbCircle
10
16.180625
20
46.5955
40
0.065
0
CIRCLE
5
281
100
AcDbEntity
8
0
6
ByLayer
62
256
370
-1
100
AcDbCircle
10
14.652875
20
46.7992
40
0.065
0
CIRCLE
5
282
100
AcDbEntity
8
0
6
ByLayer
62
256
370
-1
100
AcDbCircle
10
13.125125
20
47.0611
40
0.065
0
CIRCLE
5
283
100
AcDbEntity
8
0
6
ByLayer
62
256
370
-1
100
AcDbCircle
10
20.763875
20
46.3918
40
0.065
0
CIRCLE
5
284
100
AcDbEntity
8
0
6
ByLayer
62
256
370
-1
100
AcDbCircle
10
22.291625
20
46.4985
40
0.065
0
CIRCLE
5
285
100
AcDbEntity
8
0
6
ByLayer
62
256
370
-1
100
AcDbCircle
10
23.819375
20
46.5955
40
0.065
0
CIRCLE
5
286
100
AcDbEntity
8
0
6
ByLayer
62
256
370
-1
100
AcDbCircle
10
25.347125
20
46.7992
40
0.065
0
CIRCLE
5
287
100
AcDbEntity
8
0
6
ByLayer
62
256
370
-1
100
AcDbCircle
10
26.874875
20
47.0611
40
0.065
0
CIRCLE
5
288
100
AcDbEntity
8
0
6
ByLayer
62
256
370
-1
100
AcDbCircle
10
19.236125
20
51.397
40
0.065
0
CIRCLE
5
289
100
AcDbEntity
8
0
6
ByLayer
62
256
370
-1
100
AcDbCircle
10
17.708375
20
51.4746
40
0.065
0
CIRCLE
5
28A
100
AcDbEntity
8
0
6
ByLayer
62
256
370
-1
100
AcDbCircle
10
16.180625
20
51.6201
40
0.065
0
CIRCLE
5
28B
100
AcDbEntity
8
0
6
ByLayer
62
256
370
-1
100
AcDbCircle
10
14.652875
20
51.8335
40
0.065
0
CIRCLE
5
28C
100
AcDbEntity
8
0
6
ByLayer
62
256
370
-1
100
AcDbCircle
10
13.512155
20
52.0566
40
0.065
0
CIRCLE
5
28D
100
AcDbEntity
8
0
6
ByLayer
62
256
370
-1
100
AcDbCircle
10
19.236125
20
52.6774
40
0.065
0
CIRCLE
5
28E
100
AcDbEntity
8
0
6
ByLayer
62
256
370
-1
100
AcDbCircle
10
17.708375
20
53.1624
40
0.065
0
CIRCLE
5
28F
100
AcDbEntity
8
0
6
ByLayer
62
256
370
-1
100
AcDbCircle
10
15.66119
20
54.7726
40
0.065
0
CIRCLE
5
290
100
AcDbEntity
8
0
6
ByLayer
62
256
370
-1
100
AcDbCircle
10
16.57784
20
53.9675
40
0.065
0
CIRCLE
5
291
100
AcDbEntity
8
0
6
ByLayer
62
256
370
-1
100
AcDbCircle
10
14.60195
20
54.404
40
0.065
0
CIRCLE
5
292
100
AcDbEntity
8
0
6
ByLayer
62
256
370
-1
100
AcDbCircle
10
14.041775
20
53.24
40
0.065
0
ELLIPSE
5
293
100
AcDbEntity
8
0
6
ByLayer
62
256
370
0
100
AcDbEllipse
10
24.58325
20
54.21
30
0
11
-0.0763942896983
21
0
31
0
40
0.952380952381
41
0
42
6.28318530718
0
CIRCLE
5
294
100
AcDbEntity
8
0
6
ByLayer
62
256
370
-1
100
AcDbCircle
10
20.763875
20
51.397
40
0.065
0
CIRCLE
5
295
100
AcDbEntity
8
0
6
ByLayer
62
256
370
-1
100
AcDbCircle
10
22.291625
20
51.4746
40
0.065
0
CIRCLE
5
296
100
AcDbEntity
8
0
6
ByLayer
62
256
370
-1
100
AcDbCircle
10
23.819375
20
51.6201
40
0.065
0
CIRCLE
5
297
100
AcDbEntity
8
0
6
ByLayer
62
256
370
-1
100
AcDbCircle
10
25.347125
20
51.8335
40
0.065
0
CIRCLE
5
298
100
AcDbEntity
8
0
6
ByLayer
62
256
370
-1
100
AcDbCircle
10
26.487845
20
52.0566
40
0.065
0
CIRCLE
5
299
100
AcDbEntity
8
0
6
ByLayer
62
256
370
-1
100
AcDbCircle
10
20.763875
20
52.6774
40
0.065
0
CIRCLE
5
29A
100
AcDbEntity
8
0
6
ByLayer
62
256
370
-1
100
AcDbCircle
10
22.291625
20
53.1624
40
0.065
0
CIRCLE
5
29B
100
AcDbEntity
8
0
6
ByLayer
62
256
370
-1
100
AcDbCircle
10
24.33881
20
54.7726
40
0.065
0
CIRCLE
5
29C
100
AcDbEntity
8
0
6
ByLayer
62
256
370
-1
100
AcDbCircle
10
23.42216
20
53.9675
40
0.065
0
CIRCLE
5
29D
100
AcDbEntity
8
0
6
ByLayer
62
256
370
-1
100
AcDbCircle
10
25.39805
20
54.404
40
0.065
0
CIRCLE
5
29E
100
AcDbEntity
8
0
6
ByLayer
62
256
370
-1
100
AcDbCircle
10
25.958225
20
53.24
40
0.065
0
ELLIPSE
5
29F
100
AcDbEntity
8
0
6
ByLayer
62
256
370
0
100
AcDbEllipse
10
13.43
20
18.45
30
0
11
0.0763942896983
21
0
31
0
40
0.952380952381
41
0
42
6.28318530718
0
ELLIPSE
5
2A0
100
AcDbEntity
8
0
6
ByLayer
62
256
370
0
100
AcDbEllipse
10
26.57
20
18.45
30
0
11
-0.0763942896983
21
0
31
0
40
0.952380952381
41
0
42
6.28318530718
0
ELLIPSE
5
2A1
100
AcDbEntity
8
0
6
ByLayer
62
256
370
0
100
AcDbEllipse
10
-13.43
20
18.4
30
0
11
-0.0763942896983
21
0
31
0
40
0.952380952381
41
0
42
6.28318530718
0
ELLIPSE
5
2A2
100
AcDbEntity
8
0
6
ByLayer
62
256
370
0
100
AcDbEllipse
10
-26.57
20
18.4
30
0
11
-0.0763942896983
21
0
31
0
40
0.952380952381
41
0
42
6.28318530718
0
ELLIPSE
5
2A3
100
AcDbEntity
8
0
6
ByLayer
62
256
370
0
100
AcDbEllipse
10
11.597375
20
9.493
30
0
11
0.0763942896983
21
0
31
0
40
0.952380952381
41
0
42
6.28318530718
0
ELLIPSE
5
2A4
100
AcDbEntity
8
0
6
ByLayer
62
256
370
0
100
AcDbEllipse
10
28.402625
20
9.493
30
0
11
0.0763942896983
21
0
31
0
40
0.952380952381
41
0
42
6.28318530718
0
ELLIPSE
5
2A5
100
AcDbEntity
8
0
6
ByLayer
62
256
370
0
100
AcDbEllipse
10
-11.597375
20
9.612875
30
0
11
0.0763942896983
21
0
31
0
40
0.952380952381
41
0
42
6.28318530718
0
ELLIPSE
5
2A6
100
AcDbEntity
8
0
6
ByLayer
62
256
370
0
100
AcDbEllipse
10
-28.402625
20
9.612875
30
0
11
0.0763942896983
21
0
31
0
40
0.952380952381
41
0
42
6.28318530718
0
ENDSEC
0
SECTION
2
OBJECTS
0
DICTIONARY
5
C
330
0
100
AcDbDictionary
281
1
3
ACAD_GROUP
350
D
0
DICTIONARY
5
D
330
C
100
AcDbDictionary
281
1
0
ENDSEC
0
EOF
