999
dxfrw 0.5.7
0
SECTION
2
HEADER
9
$ACADVER
1
AC1021
9
$HANDSEED
5
20000
9
$DWGCODEPAGE
3
ANSI_1252
9
$INSBASE
10
0
20
0
30
0
9
$EXTMIN
10
-30.213909481
20
-11.1499321125
30
0
9
$EXTMAX
10
32.3232
20
24.318
30
0
9
$LIMMIN
10
0
20
0
9
$LIMMAX
10
420
20
297
9
$ORTHOMODE
70
0
9
$LTSCALE
40
1
9
$TEXTSTYLE
7
STANDARD
9
$DIMASZ
40
0.1
9
$DIMSCALE
40
1
9
$DIMEXO
40
0.025
9
$DIMEXE
40
0.05
9
$DIMTXT
40
0.1
9
$DIMTSZ
40
0
9
$DIMAUNIT
70
0
9
$DIMADEC
70
2
9
$DIMLUNIT
70
2
9
$DIMSTYLE
2
Standard
9
$DIMGAP
40
0.025
9
$DIMTIH
70
0
9
$LUNITS
70
2
9
$LUPREC
70
4
9
$AUNITS
70
0
9
$AUPREC
70
2
9
$SPLINESEGS
70
8
9
$GRIDMODE
70
1
9
$SNAPSTYLE
70
0
9
$GRIDUNIT
10
0
20
0
9
$PINSBASE
10
-1.32515356233
20
-7.2502019319
30
0
9
$PLIMMIN
10
0
20
0
9
$PLIMMAX
10
17.0078740157
20
10.9842519685
9
$INSUNITS
70
1
9
$PSVPSCALE
40
1
0
ENDSEC
0
SECTION
2
CLASSES
0
ENDSEC
0
SECTION
2
TABLES
0
TABLE
2
VPORT
5
8
330
0
100
AcDbSymbolTable
70
1
0
VPORT
5
31
330
2
100
AcDbSymbolTableRecord
100
AcDbViewportTableRecord
2
*ACTIVE
70
0
10
0
20
0
11
1
21
1
12
16.4360351841
22
14.5569153079
13
0
23
0
14
10
24
10
15
10
25
10
16
0
26
0
36
1
17
0
27
0
37
0
40
44.9986573028
41
1.41202672606
42
50
43
0
44
0
50
0
51
0
71
0
72
100
73
1
74
3
75
0
76
1
77
0
78
0
281
0
65
1
110
0
120
0
130
0
111
1
121
0
131
0
112
0
122
1
132
0
79
0
146
0
348
10020
60
7
61
5
292
1
282
1
141
0
142
0
63
250
421
3358443
0
ENDTAB
0
TABLE
2
LTYPE
5
5
330
0
100
AcDbSymbolTable
70
4
0
LTYPE
5
14
330
5
100
AcDbSymbolTableRecord
100
AcDbLinetypeTableRecord
2
ByBlock
70
0
3

72
65
73
0
40
0
0
LTYPE
5
15
330
5
100
AcDbSymbolTableRecord
100
AcDbLinetypeTableRecord
2
ByLayer
70
0
3

72
65
73
0
40
0
0
LTYPE
5
16
330
5
100
AcDbSymbolTableRecord
100
AcDbLinetypeTableRecord
2
Continuous
70
0
3
Solid line
72
65
73
0
40
0
0
LTYPE
5
32
330
5
100
AcDbSymbolTableRecord
100
AcDbLinetypeTableRecord
2
DOT
70
0
3
Dot . . . . . . . . . . . . . . . . . . . . . .
72
65
73
2
40
6.35
49
0
74
0
49
-6.35
74
0
0
LTYPE
5
33
330
5
100
AcDbSymbolTableRecord
100
AcDbLinetypeTableRecord
2
DOT2
70
0
3
Dot (.5x) .....................................
72
65
73
2
40
3.175
49
0
74
0
49
-3.175
74
0
0
LTYPE
5
34
330
5
100
AcDbSymbolTableRecord
100
AcDbLinetypeTableRecord
2
DOTX2
70
0
3
Dot (2x) .  .  .  .  .  .  .  .  .  .  .  .  .
72
65
73
2
40
12.7
49
0
74
0
49
-12.7
74
0
0
LTYPE
5
35
330
5
100
AcDbSymbolTableRecord
100
AcDbLinetypeTableRecord
2
DASHED
70
0
3
Dot . . . . . . . . . . . . . . . . . . . . . .
72
65
73
2
40
19.05
49
12.7
74
0
49
-6.35
74
0
0
LTYPE
5
36
330
5
100
AcDbSymbolTableRecord
100
AcDbLinetypeTableRecord
2
DASHED2
70
0
3
Dashed (.5x) _ _ _ _ _ _ _ _ _ _ _ _ _ _ _ _ _
72
65
73
2
40
9.525
49
6.35
74
0
49
-3.175
74
0
0
LTYPE
5
37
330
5
100
AcDbSymbolTableRecord
100
AcDbLinetypeTableRecord
2
DASHEDX2
70
0
3
Dashed (2x) ____  ____  ____  ____  ____  ___
72
65
73
2
40
38.1
49
25.4
74
0
49
-12.7
74
0
0
LTYPE
5
38
330
5
100
AcDbSymbolTableRecord
100
AcDbLinetypeTableRecord
2
DASHDOT
70
0
3
Dash dot __ . __ . __ . __ . __ . __ . __ . __
72
65
73
4
40
25.4
49
12.7
74
0
49
-6.35
74
0
49
0
74
0
49
-6.35
74
0
0
LTYPE
5
39
330
5
100
AcDbSymbolTableRecord
100
AcDbLinetypeTableRecord
2
DASHDOT2
70
0
3
Dash dot (.5x) _._._._._._._._._._._._._._._.
72
65
73
4
40
12.7
49
6.35
74
0
49
-3.175
74
0
49
0
74
0
49
-3.175
74
0
0
LTYPE
5
3A
330
5
100
AcDbSymbolTableRecord
100
AcDbLinetypeTableRecord
2
DASHDOTX2
70
0
3
Dash dot (2x) ____  .  ____  .  ____  .  ___
72
65
73
4
40
50.8
49
25.4
74
0
49
-12.7
74
0
49
0
74
0
49
-12.7
74
0
0
LTYPE
5
3B
330
5
100
AcDbSymbolTableRecord
100
AcDbLinetypeTableRecord
2
DIVIDE
70
0
3
Divide ____ . . ____ . . ____ . . ____ . . ____
72
65
73
6
40
31.75
49
12.7
74
0
49
-6.35
74
0
49
0
74
0
49
-6.35
74
0
49
0
74
0
49
-6.35
74
0
0
LTYPE
5
3C
330
5
100
AcDbSymbolTableRecord
100
AcDbLinetypeTableRecord
2
DIVIDE2
70
0
3
Divide (.5x) __..__..__..__..__..__..__..__.._
72
65
73
6
40
15.875
49
6.35
74
0
49
-3.175
74
0
49
0
74
0
49
-3.175
74
0
49
0
74
0
49
-3.175
74
0
0
LTYPE
5
3D
330
5
100
AcDbSymbolTableRecord
100
AcDbLinetypeTableRecord
2
DIVIDEX2
70
0
3
Divide (2x) ________  .  .  ________  .  .  _
72
65
73
6
40
63.5
49
25.4
74
0
49
-12.7
74
0
49
0
74
0
49
-12.7
74
0
49
0
74
0
49
-12.7
74
0
0
LTYPE
5
3E
330
5
100
AcDbSymbolTableRecord
100
AcDbLinetypeTableRecord
2
BORDER
70
0
3
Border __ __ . __ __ . __ __ . __ __ . __ __ .
72
65
73
6
40
44.45
49
12.7
74
0
49
-6.35
74
0
49
12.7
74
0
49
-6.35
74
0
49
0
74
0
49
-6.35
74
0
0
LTYPE
5
3F
330
5
100
AcDbSymbolTableRecord
100
AcDbLinetypeTableRecord
2
BORDER2
70
0
3
Border (.5x) __.__.__.__.__.__.__.__.__.__.__.
72
65
73
6
40
22.225
49
6.35
74
0
49
-3.175
74
0
49
6.35
74
0
49
-3.175
74
0
49
0
74
0
49
-3.175
74
0
0
LTYPE
5
40
330
5
100
AcDbSymbolTableRecord
100
AcDbLinetypeTableRecord
2
BORDERX2
70
0
3
Border (2x) ____  ____  .  ____  ____  .  ___
72
65
73
6
40
88.9
49
25.4
74
0
49
-12.7
74
0
49
25.4
74
0
49
-12.7
74
0
49
0
74
0
49
-12.7
74
0
0
LTYPE
5
41
330
5
100
AcDbSymbolTableRecord
100
AcDbLinetypeTableRecord
2
CENTER
70
0
3
Center ____ _ ____ _ ____ _ ____ _ ____ _ ____
72
65
73
4
40
50.8
49
31.75
74
0
49
-6.35
74
0
49
6.35
74
0
49
-6.35
74
0
0
LTYPE
5
42
330
5
100
AcDbSymbolTableRecord
100
AcDbLinetypeTableRecord
2
CENTER2
70
0
3
Center (.5x) ___ _ ___ _ ___ _ ___ _ ___ _ ___
72
65
73
4
40
28.575
49
19.05
74
0
49
-3.175
74
0
49
3.175
74
0
49
-3.175
74
0
0
LTYPE
5
43
330
5
100
AcDbSymbolTableRecord
100
AcDbLinetypeTableRecord
2
CENTERX2
70
0
3
Center (2x) ________  __  ________  __  _____
72
65
73
4
40
101.6
49
63.5
74
0
49
-12.7
74
0
49
12.7
74
0
49
-12.7
74
0
0
ENDTAB
0
TABLE
2
LAYER
5
2
330
0
100
AcDbSymbolTable
70
1
0
LAYER
5
10
330
2
100
AcDbSymbolTableRecord
100
AcDbLayerTableRecord
2
0
70
0
62
7
6
CONTINUOUS
370
8
390
F
0
LAYER
5
44
330
2
100
AcDbSymbolTableRecord
100
AcDbLayerTableRecord
2
Layer_1
70
0
62
7
6
CONTINUOUS
370
8
390
F
0
ENDTAB
0
TABLE
2
STYLE
5
3
330
0
100
AcDbSymbolTable
70
3
0
STYLE
5
45
330
2
100
AcDbSymbolTableRecord
100
AcDbTextStyleTableRecord
2
iso
70
0
40
0
41
1
50
0
71
0
42
1
3
iso
4

0
STYLE
5
46
330
2
100
AcDbSymbolTableRecord
100
AcDbTextStyleTableRecord
2
Standard
70
0
40
0
41
1
50
0
71
0
42
1
3
txt
4

0
ENDTAB
0
TABLE
2
VIEW
5
6
330
0
100
AcDbSymbolTable
70
0
0
ENDTAB
0
TABLE
2
UCS
5
7
330
0
100
AcDbSymbolTable
70
0
0
ENDTAB
0
TABLE
2
APPID
5
9
330
0
100
AcDbSymbolTable
70
1
0
APPID
5
12
330
9
100
AcDbSymbolTableRecord
100
AcDbRegAppTableRecord
2
ACAD
70
0
0
ENDTAB
0
TABLE
2
DIMSTYLE
5
A
330
0
100
AcDbSymbolTable
70
1
100
AcDbDimStyleTable
71
1
0
DIMSTYLE
105
47
330
A
100
AcDbSymbolTableRecord
100
AcDbDimStyleTableRecord
2
Standard
70
0
40
1
41
0.1
42
0.025
43
0.38
44
0.05
45
0
46
0
47
0
48
0
140
0.1
141
0.09
142
0
143
25.4
144
1
145
0
146
1
147
0.025
148
0
71
0
72
0
73
0
74
1
75
0
76
0
77
0
78
0
79
0
170
0
171
2
172
0
173
0
174
0
175
0
176
0
177
0
178
0
179
0
271
4
272
4
273
2
274
2
275
0
276
0
277
2
278
46
279
0
280
0
281
0
282
0
283
1
284
0
285
0
286
0
288
0
289
3
340
Standard
341

371
-2
372
-2
0
ENDTAB
0
TABLE
2
BLOCK_RECORD
5
1
330
0
100
AcDbSymbolTable
70
2
0
BLOCK_RECORD
5
1F
330
1
100
AcDbSymbolTableRecord
100
AcDbBlockTableRecord
2
*Model_Space
70
0
280
1
281
0
0
BLOCK_RECORD
5
1E
330
1
100
AcDbSymbolTableRecord
100
AcDbBlockTableRecord
2
*Paper_Space
70
0
280
1
281
0
0
ENDTAB
0
ENDSEC
0
SECTION
2
BLOCKS
0
BLOCK
5
20
330
1F
100
AcDbEntity
8
0
100
AcDbBlockBegin
2
*Model_Space
70
0
10
0
20
0
30
0
3
*Model_Space
1

0
ENDBLK
5
21
330
1F
100
AcDbEntity
8
0
100
AcDbBlockEnd
0
BLOCK
5
1C
330
1B
100
AcDbEntity
8
0
100
AcDbBlockBegin
2
*Paper_Space
70
0
10
0
20
0
30
0
3
*Paper_Space
1

0
ENDBLK
5
1D
330
1F
100
AcDbEntity
8
0
100
AcDbBlockEnd
0
ENDSEC
0
SECTION
2
ENTITIES
0
LINE
5
48
100
AcDbEntity
8
Layer_1
6
ByLayer
62
256
370
8
100
AcDbLine
10
-14.6187
20
-0.777
11
-15.8841
21
-9.849
0
ELLIPSE
5
49
100
AcDbEntity
8
Layer_1
6
ByLayer
62
256
370
8
100
AcDbEllipse
10
-8.57120837647
20
16.0200905791
30
0
11
28.3082060843
21
0
31
0
40
0.945945945946
41
4.45109465761
42
5.00522190729
0
LINE
5
4A
100
AcDbEntity
8
Layer_1
6
ByLayer
62
256
370
8
100
AcDbLine
10
-0.3996
20
-9.618
11
-2.664
21
-0.5775
0
ELLIPSE
5
4B
100
AcDbEntity
8
Layer_1
6
ByLayer
62
256
370
8
100
AcDbEllipse
10
-9.09889766206
20
23.8565467588
30
0
11
26.6197514937
21
0
31
0
40
0.945945945946
41
4.50351611468
42
4.95654138048
0
MTEXT
5
4C
100
AcDbEntity
8
Layer_1
6
ByLayer
62
256
370
8
100
AcDbMText
10
-14.43
20
-4.2
30
0
40
0.888
41
11.74133379
71
1
72
5
1
Inside Canvas Shell\PFauld Panel\PCut out 4 of these
7
iso
210
0
220
0
230
1
50
0
73
2
44
1
0
ELLIPSE
5
4D
100
AcDbEntity
8
Layer_1
6
ByLayer
62
256
370
8
100
AcDbEllipse
10
-29.7423525094
20
27.892466123
30
0
11
6.04498136133
21
0
31
0
40
0.945945945946
41
4.68758115004
42
5.44071149638
0
LINE
5
4E
100
AcDbEntity
8
Layer_1
6
ByLayer
62
256
370
8
100
AcDbLine
10
-25.7187
20
23.625
11
-23.0436
21
23.2932
0
LINE
5
4F
100
AcDbEntity
8
Layer_1
6
ByLayer
62
256
370
8
100
AcDbLine
10
-23.0436
20
23.2932
11
-19.647
21
12.6
0
ELLIPSE
5
50
100
AcDbEntity
8
Layer_1
6
ByLayer
62
256
370
8
100
AcDbEllipse
10
-13.673577937
20
16.2694641834
30
0
11
7.12246861651
21
0
31
0
40
0.945945945946
41
3.71754685649
42
4.31023835905
0
LINE
5
51
100
AcDbEntity
8
Layer_1
6
ByLayer
62
256
370
8
100
AcDbLine
10
-16.4613
20
10.0695
11
-17.1939
21
0.546
0
ELLIPSE
5
52
100
AcDbEntity
8
Layer_1
6
ByLayer
62
256
370
8
100
AcDbEllipse
10
-25.41573958
20
-62.012261341
30
0
11
66.6421403136
21
0
31
0
40
0.945945945946
41
1.44710820695
42
1.63368028902
0
ELLIPSE
5
53
100
AcDbEntity
8
Layer_1
6
ByLayer
62
256
370
8
100
AcDbEllipse
10
422.281515221
20
22.4984549061
30
0
11
452.461526468
21
0
31
0
40
0.945945945946
41
3.16251326411
42
3.19207026843
0
ELLIPSE
5
54
100
AcDbEntity
8
Layer_1
6
ByLayer
62
256
370
8
100
AcDbEllipse
10
19.4498170732
20
16.979695122
30
0
11
49.6637265542
21
0
31
0
40
0.945945945946
41
3.0424438244
42
3.21476891694
0
ELLIPSE
5
55
100
AcDbEntity
8
Layer_1
6
ByLayer
62
256
370
8
100
AcDbEllipse
10
-22.29435
20
20.9305384615
30
0
11
7.71118413637
21
0
31
0
40
0.945945945946
41
2.97000895314
42
3.04555439909
0
MTEXT
5
56
100
AcDbEntity
8
Layer_1
6
ByLayer
62
256
370
8
100
AcDbMText
10
-29.304
20
9.975
30
0
40
0.888
41
11.6426671234
71
1
72
5
1
Inside Canvas Shell\PBack Panel \PCut out 2 of these
7
iso
210
0
220
0
230
1
50
0
73
2
44
1
0
LINE
5
57
100
AcDbEntity
8
Layer_1
6
ByLayer
62
256
370
8
100
AcDbLine
10
-5.772
20
20.244
11
-8.6025
21
18.9
0
ELLIPSE
5
58
100
AcDbEntity
8
Layer_1
6
ByLayer
62
256
370
8
100
AcDbEllipse
10
-2.22538959538
20
25.056603685
30
0
11
6.20179142701
21
0
31
0
40
0.945945945946
41
4.10360698471
42
4.67566384988
0
ELLIPSE
5
59
100
AcDbEntity
8
Layer_1
6
ByLayer
62
256
370
8
100
AcDbEllipse
10
-101.323920821
20
13.5510957447
30
0
11
99.0506167628
21
0
31
0
40
0.945945945946
41
6.22481387067
42
0.0602617951116
0
ELLIPSE
5
5A
100
AcDbEntity
8
Layer_1
6
ByLayer
62
256
370
8
100
AcDbEllipse
10
-170.169374862
20
10.3942919725
30
0
11
167.745139981
21
0
31
0
40
0.945945945946
41
6.2261186978
42
6.26863145663
0
ELLIPSE
5
5B
100
AcDbEntity
8
Layer_1
6
ByLayer
62
256
370
8
100
AcDbEllipse
10
-19.6507826724
20
19.8264626369
30
0
11
11.0916085826
21
0
31
0
40
0.945945945946
41
5.08346123072
42
6.19476886225
0
ELLIPSE
5
5C
100
AcDbEntity
8
Layer_1
6
ByLayer
62
256
370
8
100
AcDbEllipse
10
-2.87309333048
20
-78.891207655
30
0
11
84.8202588333
21
0
31
0
40
0.945945945946
41
1.56872378589
42
1.71196588559
0
LINE
5
5D
100
AcDbEntity
8
Layer_1
6
ByLayer
62
256
370
8
100
AcDbLine
10
-15.6288
20
10.0485
11
-14.8074
21
0.546
0
MTEXT
5
5E
100
AcDbEntity
8
Layer_1
6
ByLayer
62
256
370
8
100
AcDbMText
10
-14.541
20
9.975
30
0
40
0.888
41
11.6426671234
71
1
72
5
1
Inside Canvas Shell\PFront Panel\PCut out 2 of these
7
iso
210
0
220
0
230
1
50
0
73
2
44
1
0
LINE
5
5F
100
AcDbEntity
8
Layer_1
6
ByLayer
62
256
370
8
100
AcDbLine
10
2.3865
20
-0.798
11
0.3996
21
-10.5735
0
ELLIPSE
5
60
100
AcDbEntity
8
Layer_1
6
ByLayer
62
256
370
8
100
AcDbEllipse
10
7.63558326923
20
29.7778990385
30
0
11
43.2665643596
21
0
31
0
40
0.945945945946
41
4.54435745961
42
4.92515880034
0
LINE
5
61
100
AcDbEntity
8
Layer_1
6
ByLayer
62
256
370
8
100
AcDbLine
10
16.7721
20
-10.227
11
14.8851
21
-0.441
0
ELLIPSE
5
62
100
AcDbEntity
8
Layer_1
6
ByLayer
62
256
370
8
100
AcDbEllipse
10
7.88025359949
20
23.0498828648
30
0
11
25.8022603741
21
0
31
0
40
0.945945945946
41
4.49782898655
42
4.98732139403
0
MTEXT
5
63
100
AcDbEntity
8
Layer_1
6
ByLayer
62
256
370
8
100
AcDbMText
10
4.44
20
-3.15
30
0
40
0.555
41
10.3600002854
71
1
72
5
1
Outside Leather Shell\PFauld Panel\P\PCut out 4 of these, 2 with \Pthe pattern face up and 2\Pwith it face down.
7
iso
210
0
220
0
230
1
50
0
73
2
44
1
0
ELLIPSE
5
64
100
AcDbEntity
8
Layer_1
6
ByLayer
62
256
370
8
100
AcDbEllipse
10
2.81385
20
28.77525
30
0
11
9.42443275879
21
0
31
0
40
0.945945945946
41
4.74831929721
42
4.92179597457
0
ELLIPSE
5
65
100
AcDbEntity
8
Layer_1
6
ByLayer
62
256
370
8
100
AcDbEllipse
10
3.80020994764
20
23.8780170157
30
0
11
4.15690289994
21
0
31
0
40
0.945945945946
41
4.94859736629
42
5.55548702827
0
LINE
5
66
100
AcDbEntity
8
Layer_1
6
ByLayer
62
256
370
8
100
AcDbLine
10
6.9042
20
21.2625
11
10.0011
21
19.656
0
LINE
5
67
100
AcDbEntity
8
Layer_1
6
ByLayer
62
256
370
8
100
AcDbLine
10
10.0011
20
19.656
11
10.2675
21
19.2465
0
ELLIPSE
5
68
100
AcDbEntity
8
Layer_1
6
ByLayer
62
256
370
8
100
AcDbEllipse
10
36.7218303681
20
21.9646150307
30
0
11
26.6099272648
21
0
31
0
40
0.945945945946
41
3.24978722441
42
3.43000738379
0
ELLIPSE
5
69
100
AcDbEntity
8
Layer_1
6
ByLayer
62
256
370
8
100
AcDbEllipse
10
75.4654619026
20
11.144888413
30
0
11
72.8984045062
21
0
31
0
40
0.945945945946
41
3.01478306833
42
3.17531362515
0
ELLIPSE
5
6A
100
AcDbEntity
8
Layer_1
6
ByLayer
62
256
370
8
100
AcDbEllipse
10
-19246.154025
20
-71.1296249999
30
0
11
19248.9480768
21
0
31
0
40
0.945945945946
41
0.00397734341363
42
0.00439080859052
0
ELLIPSE
5
6B
100
AcDbEntity
8
Layer_1
6
ByLayer
62
256
370
8
100
AcDbEllipse
10
19.850356625
20
18.263004375
30
0
11
9.38093428547
21
0
31
0
40
0.945945945946
41
3.54188163271
42
4.37805546278
0
ELLIPSE
5
6C
100
AcDbEntity
8
Layer_1
6
ByLayer
62
256
370
8
100
AcDbEllipse
10
1.93085024419
20
-64.932751911
30
0
11
70.0121047002
21
0
31
0
40
0.945945945946
41
1.38179051267
42
1.56064148317
0
LINE
5
6D
100
AcDbEntity
8
Layer_1
6
ByLayer
62
256
370
8
100
AcDbLine
10
15.0849
20
0.1155
11
16.7721
21
9.8805
0
LINE
5
6E
100
AcDbEntity
8
Layer_1
6
ByLayer
62
256
370
8
100
AcDbLine
10
24.7641
20
23.7615
11
25.1304
21
24.003
0
LINE
5
6F
100
AcDbEntity
8
Layer_1
6
ByLayer
62
256
370
8
100
AcDbLine
10
25.1304
20
24.003
11
27.3948
21
24.318
0
ELLIPSE
5
70
100
AcDbEntity
8
Layer_1
6
ByLayer
62
256
370
8
100
AcDbEllipse
10
32.4624223404
20
29.2703138298
30
0
11
7.28623329931
21
0
31
0
40
0.945945945946
41
3.94326445188
42
4.42582353814
0
ELLIPSE
5
71
100
AcDbEntity
8
Layer_1
6
ByLayer
62
256
370
8
100
AcDbEllipse
10
33.4337285714
20
34.0025
30
0
11
12.3687829118
21
0
31
0
40
0.945945945946
41
4.46482953072
42
4.59270377772
0
ELLIPSE
5
72
100
AcDbEntity
8
Layer_1
6
ByLayer
62
256
370
8
100
AcDbEllipse
10
-41.4186810655
20
15.343512516
30
0
11
73.752306141
21
0
31
0
40
0.945945945946
41
0.0168140338222
42
0.10111707469
0
ELLIPSE
5
73
100
AcDbEntity
8
Layer_1
6
ByLayer
62
256
370
8
100
AcDbEllipse
10
-406.539245871
20
24.6882340873
30
0
11
438.947460826
21
0
31
0
40
0.945945945946
41
6.22468004085
42
6.2635035711
0
ELLIPSE
5
74
100
AcDbEntity
8
Layer_1
6
ByLayer
62
256
370
8
100
AcDbEllipse
10
26.7443698081
20
-55.3854700943
30
0
11
59.1875000712
21
0
31
0
40
0.945945945946
41
1.48769619398
42
1.70423305069
0
LINE
5
75
100
AcDbEntity
8
Layer_1
6
ByLayer
62
256
370
8
100
AcDbLine
10
24.7641
20
23.7615
11
21.0678
21
12.558
0
LINE
5
76
100
AcDbEntity
8
Layer_1
6
ByLayer
62
256
370
8
100
AcDbLine
10
18.87
20
0.105
11
17.8377
21
9.7545
0
ELLIPSE
5
77
100
AcDbEntity
8
Layer_1
6
ByLayer
62
256
370
8
100
AcDbEllipse
10
11.8699984615
20
20.0821384615
30
0
11
12.4423303018
21
0
31
0
40
0.945945945946
41
5.21262075549
42
5.49276966825
0
ELLIPSE
5
78
100
AcDbEntity
8
Layer_1
6
ByLayer
62
256
370
8
100
AcDbEllipse
10
16.428
20
14.2275
30
0
11
4.96413296055
21
0
31
0
40
0.945945945946
41
5.71937153329
42
5.91970386307
0
MTEXT
5
79
100
AcDbEntity
8
Layer_1
6
ByLayer
62
256
370
8
100
AcDbMText
10
4.44
20
9.45
30
0
40
0.555
41
10.1750002854
71
1
72
5
1
Outside Leather Shell\PFront Panel\P\PCut out 2 of these, 1 with \Pthe pattern face up and 1\Pwith it face down.
7
iso
210
0
220
0
230
1
50
0
73
2
44
1
0
MTEXT
5
7A
100
AcDbEntity
8
Layer_1
6
ByLayer
62
256
370
8
100
AcDbMText
10
21.09
20
9.45
30
0
40
0.555
41
10.1750002854
71
1
72
5
1
Outside Leather Shell\PBack Panel\P\PCut out 2 of these, 1 with \Pthe pattern face up and 1\Pwith it face down.
7
iso
210
0
220
0
230
1
50
0
73
2
44
1
0
ENDSEC
0
SECTION
2
OBJECTS
0
DICTIONARY
5
C
330
0
100
AcDbDictionary
281
1
3
ACAD_GROUP
350
D
0
DICTIONARY
5
D
330
C
100
AcDbDictionary
281
1
0
ENDSEC
0
EOF
