999
dxfrw 0.5.11
0
SECTION
2
HEADER
9
$ACADVER
1
AC1021
9
$HANDSEED
5
20000
9
$DWGCODEPAGE
3
ANSI_1252
9
$INSBASE
10
0
20
0
30
0
9
$EXTMIN
10
-30.4773173329
20
-13.3667999864
30
0
9
$EXTMAX
10
32.5296000016
20
24
30
0
9
$LIMMIN
10
0
20
0
9
$LIMMAX
10
420
20
297
9
$ORTHOMODE
70
0
9
$LTSCALE
40
1
9
$TEXTSTYLE
7
STANDARD
9
$CLAYER
8
0
9
$DIMASZ
40
0.1
9
$DIMLFAC
40
1
9
$DIMSCALE
40
1
9
$DIMEXO
40
0.025
9
$DIMEXE
40
0.05
9
$DIMTXT
40
0.1
9
$DIMTSZ
40
0
9
$DIMAUNIT
70
0
9
$DIMADEC
70
2
9
$DIMLUNIT
70
2
9
$DIMSTYLE
2
Standard
9
$DIMGAP
40
0.025
9
$DIMTIH
70
0
9
$LUNITS
70
2
9
$LUPREC
70
4
9
$AUNITS
70
0
9
$AUPREC
70
2
9
$SPLINESEGS
70
8
9
$GRIDMODE
70
1
9
$SNAPSTYLE
70
0
9
$GRIDUNIT
10
0
20
0
9
$PINSBASE
10
-0.289624642785
20
0.366623091571
30
0
9
$PLIMMIN
10
0
20
0
9
$PLIMMAX
10
35.9842519685
20
24.0157480315
9
$INSUNITS
70
1
9
$PSVPSCALE
40
1
0
ENDSEC
0
SECTION
2
CLASSES
0
ENDSEC
0
SECTION
2
TABLES
0
TABLE
2
VPORT
5
8
330
0
100
AcDbSymbolTable
70
1
0
VPORT
5
31
330
2
100
AcDbSymbolTableRecord
100
AcDbViewportTableRecord
2
*ACTIVE
70
0
10
0
20
0
11
1
21
1
12
31.8635969899
22
23.2867791535
13
0
23
0
14
10
24
10
15
10
25
10
16
0
26
0
36
1
17
0
27
0
37
0
40
97.7469742247
41
1.16470588235
42
50
43
0
44
0
50
0
51
0
71
0
72
100
73
1
74
3
75
0
76
1
77
0
78
0
281
0
65
1
110
0
120
0
130
0
111
1
121
0
131
0
112
0
122
1
132
0
79
0
146
0
348
10020
60
7
61
5
292
1
282
1
141
0
142
0
63
250
421
3358443
0
ENDTAB
0
TABLE
2
LTYPE
5
5
330
0
100
AcDbSymbolTable
70
4
0
LTYPE
5
14
330
5
100
AcDbSymbolTableRecord
100
AcDbLinetypeTableRecord
2
ByBlock
70
0
3

72
65
73
0
40
0
0
LTYPE
5
15
330
5
100
AcDbSymbolTableRecord
100
AcDbLinetypeTableRecord
2
ByLayer
70
0
3

72
65
73
0
40
0
0
LTYPE
5
16
330
5
100
AcDbSymbolTableRecord
100
AcDbLinetypeTableRecord
2
Continuous
70
0
3
Solid line
72
65
73
0
40
0
0
LTYPE
5
32
330
5
100
AcDbSymbolTableRecord
100
AcDbLinetypeTableRecord
2
DOT
70
0
3
Dot . . . . . . . . . . . . . . . . . . . . . .
72
65
73
2
40
6.35
49
0
74
0
49
-6.35
74
0
0
LTYPE
5
33
330
5
100
AcDbSymbolTableRecord
100
AcDbLinetypeTableRecord
2
DOT2
70
0
3
Dot (.5x) .....................................
72
65
73
2
40
3.175
49
0
74
0
49
-3.175
74
0
0
LTYPE
5
34
330
5
100
AcDbSymbolTableRecord
100
AcDbLinetypeTableRecord
2
DOTX2
70
0
3
Dot (2x) .  .  .  .  .  .  .  .  .  .  .  .  .
72
65
73
2
40
12.7
49
0
74
0
49
-12.7
74
0
0
LTYPE
5
35
330
5
100
AcDbSymbolTableRecord
100
AcDbLinetypeTableRecord
2
DASHED
70
0
3
Dot . . . . . . . . . . . . . . . . . . . . . .
72
65
73
2
40
19.05
49
12.7
74
0
49
-6.35
74
0
0
LTYPE
5
36
330
5
100
AcDbSymbolTableRecord
100
AcDbLinetypeTableRecord
2
DASHED2
70
0
3
Dashed (.5x) _ _ _ _ _ _ _ _ _ _ _ _ _ _ _ _ _
72
65
73
2
40
9.525
49
6.35
74
0
49
-3.175
74
0
0
LTYPE
5
37
330
5
100
AcDbSymbolTableRecord
100
AcDbLinetypeTableRecord
2
DASHEDX2
70
0
3
Dashed (2x) ____  ____  ____  ____  ____  ___
72
65
73
2
40
38.1
49
25.4
74
0
49
-12.7
74
0
0
LTYPE
5
38
330
5
100
AcDbSymbolTableRecord
100
AcDbLinetypeTableRecord
2
DASHDOT
70
0
3
Dash dot __ . __ . __ . __ . __ . __ . __ . __
72
65
73
4
40
25.4
49
12.7
74
0
49
-6.35
74
0
49
0
74
0
49
-6.35
74
0
0
LTYPE
5
39
330
5
100
AcDbSymbolTableRecord
100
AcDbLinetypeTableRecord
2
DASHDOT2
70
0
3
Dash dot (.5x) _._._._._._._._._._._._._._._.
72
65
73
4
40
12.7
49
6.35
74
0
49
-3.175
74
0
49
0
74
0
49
-3.175
74
0
0
LTYPE
5
3A
330
5
100
AcDbSymbolTableRecord
100
AcDbLinetypeTableRecord
2
DASHDOTX2
70
0
3
Dash dot (2x) ____  .  ____  .  ____  .  ___
72
65
73
4
40
50.8
49
25.4
74
0
49
-12.7
74
0
49
0
74
0
49
-12.7
74
0
0
LTYPE
5
3B
330
5
100
AcDbSymbolTableRecord
100
AcDbLinetypeTableRecord
2
DIVIDE
70
0
3
Divide ____ . . ____ . . ____ . . ____ . . ____
72
65
73
6
40
31.75
49
12.7
74
0
49
-6.35
74
0
49
0
74
0
49
-6.35
74
0
49
0
74
0
49
-6.35
74
0
0
LTYPE
5
3C
330
5
100
AcDbSymbolTableRecord
100
AcDbLinetypeTableRecord
2
DIVIDE2
70
0
3
Divide (.5x) __..__..__..__..__..__..__..__.._
72
65
73
6
40
15.875
49
6.35
74
0
49
-3.175
74
0
49
0
74
0
49
-3.175
74
0
49
0
74
0
49
-3.175
74
0
0
LTYPE
5
3D
330
5
100
AcDbSymbolTableRecord
100
AcDbLinetypeTableRecord
2
DIVIDEX2
70
0
3
Divide (2x) ________  .  .  ________  .  .  _
72
65
73
6
40
63.5
49
25.4
74
0
49
-12.7
74
0
49
0
74
0
49
-12.7
74
0
49
0
74
0
49
-12.7
74
0
0
LTYPE
5
3E
330
5
100
AcDbSymbolTableRecord
100
AcDbLinetypeTableRecord
2
BORDER
70
0
3
Border __ __ . __ __ . __ __ . __ __ . __ __ .
72
65
73
6
40
44.45
49
12.7
74
0
49
-6.35
74
0
49
12.7
74
0
49
-6.35
74
0
49
0
74
0
49
-6.35
74
0
0
LTYPE
5
3F
330
5
100
AcDbSymbolTableRecord
100
AcDbLinetypeTableRecord
2
BORDER2
70
0
3
Border (.5x) __.__.__.__.__.__.__.__.__.__.__.
72
65
73
6
40
22.225
49
6.35
74
0
49
-3.175
74
0
49
6.35
74
0
49
-3.175
74
0
49
0
74
0
49
-3.175
74
0
0
LTYPE
5
40
330
5
100
AcDbSymbolTableRecord
100
AcDbLinetypeTableRecord
2
BORDERX2
70
0
3
Border (2x) ____  ____  .  ____  ____  .  ___
72
65
73
6
40
88.9
49
25.4
74
0
49
-12.7
74
0
49
25.4
74
0
49
-12.7
74
0
49
0
74
0
49
-12.7
74
0
0
LTYPE
5
41
330
5
100
AcDbSymbolTableRecord
100
AcDbLinetypeTableRecord
2
CENTER
70
0
3
Center ____ _ ____ _ ____ _ ____ _ ____ _ ____
72
65
73
4
40
50.8
49
31.75
74
0
49
-6.35
74
0
49
6.35
74
0
49
-6.35
74
0
0
LTYPE
5
42
330
5
100
AcDbSymbolTableRecord
100
AcDbLinetypeTableRecord
2
CENTER2
70
0
3
Center (.5x) ___ _ ___ _ ___ _ ___ _ ___ _ ___
72
65
73
4
40
28.575
49
19.05
74
0
49
-3.175
74
0
49
3.175
74
0
49
-3.175
74
0
0
LTYPE
5
43
330
5
100
AcDbSymbolTableRecord
100
AcDbLinetypeTableRecord
2
CENTERX2
70
0
3
Center (2x) ________  __  ________  __  _____
72
65
73
4
40
101.6
49
63.5
74
0
49
-12.7
74
0
49
12.7
74
0
49
-12.7
74
0
0
ENDTAB
0
TABLE
2
LAYER
5
2
330
0
100
AcDbSymbolTable
70
1
0
LAYER
5
10
330
2
100
AcDbSymbolTableRecord
100
AcDbLayerTableRecord
2
0
70
0
62
7
6
CONTINUOUS
370
-3
390
F
0
ENDTAB
0
TABLE
2
STYLE
5
3
330
0
100
AcDbSymbolTable
70
3
0
STYLE
5
44
330
2
100
AcDbSymbolTableRecord
100
AcDbTextStyleTableRecord
2
unicode
70
0
40
0
41
1
50
0
71
0
42
1
3
unicode
4

0
STYLE
5
45
330
2
100
AcDbSymbolTableRecord
100
AcDbTextStyleTableRecord
2
iso
70
0
40
0
41
1
50
0
71
0
42
1
3
iso
4

0
STYLE
5
46
330
2
100
AcDbSymbolTableRecord
100
AcDbTextStyleTableRecord
2
Standard
70
0
40
0
41
1
50
0
71
0
42
1
3
txt
4

0
ENDTAB
0
TABLE
2
VIEW
5
6
330
0
100
AcDbSymbolTable
70
0
0
ENDTAB
0
TABLE
2
UCS
5
7
330
0
100
AcDbSymbolTable
70
0
0
ENDTAB
0
TABLE
2
APPID
5
9
330
0
100
AcDbSymbolTable
70
1
0
APPID
5
12
330
9
100
AcDbSymbolTableRecord
100
AcDbRegAppTableRecord
2
ACAD
70
0
0
ENDTAB
0
TABLE
2
DIMSTYLE
5
A
330
0
100
AcDbSymbolTable
70
1
100
AcDbDimStyleTable
71
1
0
DIMSTYLE
105
47
330
A
100
AcDbSymbolTableRecord
100
AcDbDimStyleTableRecord
2
Standard
70
0
40
1
41
0.1
42
0.025
43
0.38
44
0.05
45
0
46
0
47
0
48
0
140
0.1
141
0.09
142
0
143
25.4
144
1
145
0
146
1
147
0.025
148
0
71
0
72
0
73
0
74
1
75
0
76
0
77
0
78
0
79
0
170
0
171
2
172
0
173
0
174
0
175
0
176
0
177
0
178
0
179
0
271
4
272
4
273
2
274
2
275
0
276
0
277
2
278
46
279
0
280
0
281
0
282
0
283
1
284
0
285
0
286
0
288
0
289
3
340
Standard
341

371
-2
372
-2
0
ENDTAB
0
TABLE
2
BLOCK_RECORD
5
1
330
0
100
AcDbSymbolTable
70
2
0
BLOCK_RECORD
5
1F
330
1
100
AcDbSymbolTableRecord
100
AcDbBlockTableRecord
2
*Model_Space
70
0
280
1
281
0
0
BLOCK_RECORD
5
1E
330
1
100
AcDbSymbolTableRecord
100
AcDbBlockTableRecord
2
*Paper_Space
70
0
280
1
281
0
0
ENDTAB
0
ENDSEC
0
SECTION
2
BLOCKS
0
BLOCK
5
20
330
1F
100
AcDbEntity
8
0
100
AcDbBlockBegin
2
*Model_Space
70
0
10
0
20
0
30
0
3
*Model_Space
1

0
ENDBLK
5
21
330
1F
100
AcDbEntity
8
0
100
AcDbBlockEnd
0
BLOCK
5
1C
330
1B
100
AcDbEntity
8
0
100
AcDbBlockBegin
2
*Paper_Space
70
0
10
0
20
0
30
0
3
*Paper_Space
1

0
ENDBLK
5
1D
330
1F
100
AcDbEntity
8
0
100
AcDbBlockEnd
0
ENDSEC
0
SECTION
2
ENTITIES
0
ELLIPSE
5
48
100
AcDbEntity
8
0
6
ByLayer
62
256
370
-1
100
AcDbEllipse
10
-9.93298150904
20
22.7205207226
30
0
11
25.9002987507
21
0
31
0
40
0.925925925926
41
4.50351611467
42
4.95654138047
0
MTEXT
5
49
100
AcDbEntity
8
0
6
ByLayer
62
256
370
-1
100
AcDbMText
10
-15.12
20
-4
30
0
40
0.864
41
11.4240004443
71
1
72
5
1
Inside Canvas Shell\PFauld Panel\PCut out 4 of these
7
iso
210
0
220
0
230
1
50
0
73
1
44
0.96
0
ELLIPSE
5
4A
100
AcDbEntity
8
0
6
ByLayer
62
256
370
-1
100
AcDbEllipse
10
-30.0185051442
20
26.5642534504
30
0
11
5.88160348671
21
0
31
0
40
0.925925925926
41
4.68758115005
42
5.44071149638
0
LINE
5
4B
100
AcDbEntity
8
0
6
ByLayer
62
256
370
-1
100
AcDbLine
10
-26.1036
20
22.5
11
-23.5008
21
22.184
0
LINE
5
4C
100
AcDbEntity
8
0
6
ByLayer
62
256
370
-1
100
AcDbLine
10
-23.5008
20
22.184
11
-20.196
21
12
0
ELLIPSE
5
4D
100
AcDbEntity
8
0
6
ByLayer
62
256
370
-1
100
AcDbEllipse
10
-14.3840217765
20
15.4947277937
30
0
11
6.92996946471
21
0
31
0
40
0.925925925926
41
3.71754685649
42
4.31023835905
0
LINE
5
4E
100
AcDbEntity
8
0
6
ByLayer
62
256
370
-1
100
AcDbLine
10
-17.0964
20
9.59
11
-17.8092
21
0.52
0
ELLIPSE
5
4F
100
AcDbEntity
8
0
6
ByLayer
62
256
370
-1
100
AcDbEllipse
10
-25.8088276995
20
-59.0592965152
30
0
11
64.8410013862
21
0
31
0
40
0.925925925926
41
1.44710820695
42
1.63368028902
0
ELLIPSE
5
50
100
AcDbEntity
8
0
6
ByLayer
62
256
370
-1
100
AcDbEllipse
10
409.788501297
20
21.4270999106
30
0
11
440.232836563
21
0
31
0
40
0.925925925926
41
3.1625132641
42
3.19207026843
0
ELLIPSE
5
51
100
AcDbEntity
8
0
6
ByLayer
62
256
370
-1
100
AcDbEllipse
10
17.8441463415
20
16.1711382114
30
0
11
48.3214636744
21
0
31
0
40
0.925925925926
41
3.0424438244
42
3.21476891693
0
ELLIPSE
5
52
100
AcDbEntity
8
0
6
ByLayer
62
256
370
-1
100
AcDbEllipse
10
-22.7718
20
19.9338461538
30
0
11
7.50277375431
21
0
31
0
40
0.925925925926
41
2.97000895314
42
3.0455543991
0
MTEXT
5
53
100
AcDbEntity
8
0
6
ByLayer
62
256
370
-1
100
AcDbMText
10
-29.592
20
9.5
30
0
40
0.864
41
11.3280004443
71
1
72
5
1
Inside Canvas Shell\PBack Panel \PCut out 2 of these
7
iso
210
0
220
0
230
1
50
0
73
1
44
0.96
0
ELLIPSE
5
54
100
AcDbEntity
8
0
6
ByLayer
62
256
370
-1
100
AcDbEllipse
10
-166.650202569
20
9.89932568807
30
0
11
163.211487548
21
0
31
0
40
0.925925925926
41
6.22611869781
42
6.26863145663
0
ELLIPSE
5
55
100
AcDbEntity
8
0
6
ByLayer
62
256
370
-1
100
AcDbEllipse
10
-3.87544215938
20
-75.1344834809
30
0
11
82.5278194054
21
0
31
0
40
0.925925925926
41
1.56872378589
42
1.71196588559
0
LINE
5
56
100
AcDbEntity
8
0
6
ByLayer
62
256
370
-1
100
AcDbLine
10
-16.2864
20
9.57
11
-15.4872
21
0.52
0
MTEXT
5
57
100
AcDbEntity
8
0
6
ByLayer
62
256
370
-1
100
AcDbMText
10
-15.228
20
9.5
30
0
40
0.864
41
11.3280004443
71
1
72
5
1
Inside Canvas Shell\PFront Panel\PCut out 2 of these
7
iso
210
0
220
0
230
1
50
0
73
1
44
0.96
0
ELLIPSE
5
58
100
AcDbEntity
8
0
6
ByLayer
62
256
370
-1
100
AcDbEllipse
10
8.74727377248
20
21.9522693951
30
0
11
25.1049019856
21
0
31
0
40
0.925925925926
41
4.49782898655
42
4.98732139403
0
MTEXT
5
59
100
AcDbEntity
8
0
6
ByLayer
62
256
370
-1
100
AcDbMText
10
5.4
20
-3
30
0
40
0.54
41
10.0800002777
71
1
72
5
1
Outside Leather Shell\PFauld Panel\P\PCut out 4 of these, 2 with \Pthe pattern face up and 2\Pwith it face down.
7
iso
210
0
220
0
230
1
50
0
73
1
44
0.96
0
ELLIPSE
5
5A
100
AcDbEntity
8
0
6
ByLayer
62
256
370
-1
100
AcDbEllipse
10
-18724.9077
20
-67.7424999999
30
0
11
18728.7062369
21
0
31
0
40
0.925925925926
41
0.00397734341363
42
0.00439080859053
0
ELLIPSE
5
5B
100
AcDbEntity
8
0
6
ByLayer
62
256
370
-1
100
AcDbEllipse
10
2.95866510245
20
-61.8407161057
30
0
11
68.1198856543
21
0
31
0
40
0.925925925926
41
1.38179051267
42
1.56064148317
0
LINE
5
5C
100
AcDbEntity
8
0
6
ByLayer
62
256
370
-1
100
AcDbLine
10
25.1748
20
22.63
11
25.5312
21
22.86
0
LINE
5
5D
100
AcDbEntity
8
0
6
ByLayer
62
256
370
-1
100
AcDbLine
10
25.5312
20
22.86
11
27.7344
21
23.16
0
ELLIPSE
5
5E
100
AcDbEntity
8
0
6
ByLayer
62
256
370
-1
100
AcDbEllipse
10
32.6650595745
20
27.8764893617
30
0
11
7.089308075
21
0
31
0
40
0.925925925926
41
3.94326445189
42
4.42582353814
0
ELLIPSE
5
5F
100
AcDbEntity
8
0
6
ByLayer
62
256
370
-1
100
AcDbEllipse
10
33.6101142857
20
32.3833333333
30
0
11
12.0344914818
21
0
31
0
40
0.925925925926
41
4.46482953071
42
4.59270377772
0
ELLIPSE
5
60
100
AcDbEntity
8
0
6
ByLayer
62
256
370
-1
100
AcDbEllipse
10
-39.2192572529
20
14.6128690629
30
0
11
71.7590005697
21
0
31
0
40
0.925925925926
41
0.0168140338222
42
0.10111707469
0
ELLIPSE
5
61
100
AcDbEntity
8
0
6
ByLayer
62
256
370
-1
100
AcDbEllipse
10
-394.471698684
20
23.5126038927
30
0
11
427.08401594
21
0
31
0
40
0.925925925926
41
6.22468004085
42
6.2635035711
0
ELLIPSE
5
62
100
AcDbEntity
8
0
6
ByLayer
62
256
370
-1
100
AcDbEllipse
10
27.1015490024
20
-52.7480667565
30
0
11
57.5878379071
21
0
31
0
40
0.925925925926
41
1.48769619398
42
1.70423305069
0
LINE
5
63
100
AcDbEntity
8
0
6
ByLayer
62
256
370
-1
100
AcDbLine
10
25.1748
20
22.63
11
21.5784
21
11.96
0
LINE
5
64
100
AcDbEntity
8
0
6
ByLayer
62
256
370
-1
100
AcDbLine
10
19.44
20
0.1
11
18.4356
21
9.29
0
ELLIPSE
5
65
100
AcDbEntity
8
0
6
ByLayer
62
256
370
-1
100
AcDbEllipse
10
12.6291876923
20
19.1258461538
30
0
11
12.1060511045
21
0
31
0
40
0.925925925926
41
5.21262075549
42
5.49276966825
0
ELLIPSE
5
66
100
AcDbEntity
8
0
6
ByLayer
62
256
370
-1
100
AcDbEllipse
10
17.064
20
13.55
30
0
11
4.82996720486
21
0
31
0
40
0.925925925926
41
5.71937153329
42
5.91970386307
0
MTEXT
5
67
100
AcDbEntity
8
0
6
ByLayer
62
256
370
-1
100
AcDbMText
10
5.4
20
9
30
0
40
0.54
41
9.90000027772
71
1
72
5
1
Outside Leather Shell\PFront Panel\P\PCut out 2 of these, 1 with \Pthe pattern face up and 1\Pwith it face down.
7
iso
210
0
220
0
230
1
50
0
73
1
44
0.96
0
MTEXT
5
68
100
AcDbEntity
8
0
6
ByLayer
62
256
370
-1
100
AcDbMText
10
21.6
20
9
30
0
40
0.54
41
9.90000027772
71
1
72
5
1
Outside Leather Shell\PBack Panel\P\PCut out 2 of these, 1 with \Pthe pattern face up and 1\Pwith it face down.
7
iso
210
0
220
0
230
1
50
0
73
1
44
0.96
0
LINE
5
69
100
AcDbEntity
8
0
6
ByLayer
62
256
370
-1
100
AcDbLine
10
17.9712
20
-12.4
11
15.5628
21
-0.42
0
LINE
5
6A
100
AcDbEntity
8
0
6
ByLayer
62
256
370
-1
100
AcDbLine
10
3.402
20
-0.76
11
0.9288
21
-12.8
0
ELLIPSE
5
6B
100
AcDbEntity
8
0
6
ByLayer
62
256
370
-1
100
AcDbEllipse
10
8.32929230769
20
28.3369615385
30
0
11
45.0400624469
21
0
31
0
40
0.925925925926
41
4.54733142535
42
4.92813276607
0
LINE
5
6C
100
AcDbEntity
8
0
6
ByLayer
62
256
370
-1
100
AcDbLine
10
-0.7236
20
-11.9
11
-3.672
21
-0.55
0
LINE
5
6D
100
AcDbEntity
8
0
6
ByLayer
62
256
370
-1
100
AcDbLine
10
-15.3036
20
-0.74
11
-16.9128
21
-12.1
0
ELLIPSE
5
6E
100
AcDbEntity
8
0
6
ByLayer
62
256
370
-1
100
AcDbEllipse
10
-9.19797645094
20
14.3557824052
30
0
11
29.5954673319
21
0
31
0
40
0.925925925926
41
4.44866679208
42
5.00279404176
0
ARC
5
6F
100
AcDbEntity
8
0
6
ByLayer
62
256
370
-1
100
AcDbCircle
10
60.1698848597
20
10.8313848298
40
56.6041281067
100
AcDbArc
50
171.702632318
51
182.461851601
0
LINE
5
70
100
AcDbEntity
8
0
6
ByLayer
62
256
370
-1
100
AcDbLine
10
-8.1
20
18.3
11
-3.47
21
18.3
0
ARC
5
71
100
AcDbEntity
8
0
6
ByLayer
62
256
370
-1
100
AcDbCircle
10
-89.5864036053
20
12.8862521087
40
86.2864047005
100
AcDbArc
50
356.55415514
51
3.59719211365
0
LINE
5
72
100
AcDbEntity
8
0
6
ByLayer
62
256
370
-1
100
AcDbLine
10
15.7572
20
0.11
11
17.45
21
9.71
0
ARC
5
73
100
AcDbEntity
8
0
6
ByLayer
62
256
370
-1
100
AcDbCircle
10
-17.8519208212
20
19.2413633597
40
9.79725087345
100
AcDbArc
50
279.194814538
51
354.486260828
0
ARC
5
74
100
AcDbEntity
8
0
6
ByLayer
62
256
370
-1
100
AcDbCircle
10
19.0726123731
20
19.3877691515
40
9.81285313564
100
AcDbArc
50
185.190648339
51
260.482094629
0
LINE
5
75
100
AcDbEntity
8
0
6
ByLayer
62
256
370
-1
100
AcDbLine
10
8.9
20
19
11
4.15826498505
21
18.9999684124
0
LINE
5
76
100
AcDbEntity
8
0
6
ByLayer
62
256
370
-1
100
AcDbLine
10
9.3
20
18.5
11
8.9
21
19
0
MTEXT
5
77
100
AcDbEntity
8
0
6
ByLayer
62
256
370
-1
100
AcDbMText
10
-4
20
24
30
0
40
1
41
9
71
1
72
1
1
June 07, 2015
7
unicode
210
0
220
0
230
1
50
0
73
2
44
1
0
ENDSEC
0
SECTION
2
OBJECTS
0
DICTIONARY
5
C
330
0
100
AcDbDictionary
281
1
3
ACAD_GROUP
350
D
0
DICTIONARY
5
D
330
C
100
AcDbDictionary
281
1
0
ENDSEC
0
EOF
