999
dxfrw 0.5.11
0
SECTION
2
HEADER
9
$ACADVER
1
AC1021
9
$HANDSEED
5
20000
9
$DWGCODEPAGE
3
ANSI_1252
9
$INSBASE
10
0
20
0
30
0
9
$EXTMIN
10
-37.8151085679
20
1.10075999998
30
0
9
$EXTMAX
10
38.513113606
20
60.0975279983
30
0
9
$LIMMIN
10
0
20
0
9
$LIMMAX
10
420
20
297
9
$ORTHOMODE
70
0
9
$LTSCALE
40
1
9
$TEXTSTYLE
7
STANDARD
9
$CLAYER
8
0
9
$DIMASZ
40
0.1
9
$DIMLFAC
40
1
9
$DIMSCALE
40
1
9
$DIMEXO
40
0.025
9
$DIMEXE
40
0.05
9
$DIMTXT
40
0.1
9
$DIMTSZ
40
0
9
$DIMAUNIT
70
0
9
$DIMADEC
70
2
9
$DIMLUNIT
70
2
9
$DIMSTYLE
2
Standard
9
$DIMGAP
40
0.025
9
$DIMTIH
70
0
9
$LUNITS
70
2
9
$LUPREC
70
4
9
$AUNITS
70
0
9
$AUPREC
70
2
9
$SPLINESEGS
70
8
9
$GRIDMODE
70
1
9
$SNAPSTYLE
70
0
9
$GRIDUNIT
10
0
20
0
9
$PINSBASE
10
3.50655873791
20
-25.7668892264
30
0
9
$PLIMMIN
10
0
20
0
9
$PLIMMAX
10
17.9921259843
20
12.0078740157
9
$INSUNITS
70
1
9
$PSVPSCALE
40
1
0
ENDSEC
0
SECTION
2
CLASSES
0
ENDSEC
0
SECTION
2
TABLES
0
TABLE
2
VPORT
5
8
330
0
100
AcDbSymbolTable
70
1
0
VPORT
5
31
330
2
100
AcDbSymbolTableRecord
100
AcDbViewportTableRecord
2
*ACTIVE
70
0
10
0
20
0
11
1
21
1
12
15.8255357709
22
44.2196368903
13
0
23
0
14
10
24
10
15
10
25
10
16
0
26
0
36
1
17
0
27
0
37
0
40
85.1823033581
41
1.16470588235
42
50
43
0
44
0
50
0
51
0
71
0
72
100
73
1
74
3
75
0
76
1
77
0
78
0
281
0
65
1
110
0
120
0
130
0
111
1
121
0
131
0
112
0
122
1
132
0
79
0
146
0
348
10020
60
7
61
5
292
1
282
1
141
0
142
0
63
250
421
3358443
0
ENDTAB
0
TABLE
2
LTYPE
5
5
330
0
100
AcDbSymbolTable
70
4
0
LTYPE
5
14
330
5
100
AcDbSymbolTableRecord
100
AcDbLinetypeTableRecord
2
ByBlock
70
0
3

72
65
73
0
40
0
0
LTYPE
5
15
330
5
100
AcDbSymbolTableRecord
100
AcDbLinetypeTableRecord
2
ByLayer
70
0
3

72
65
73
0
40
0
0
LTYPE
5
16
330
5
100
AcDbSymbolTableRecord
100
AcDbLinetypeTableRecord
2
Continuous
70
0
3
Solid line
72
65
73
0
40
0
0
LTYPE
5
32
330
5
100
AcDbSymbolTableRecord
100
AcDbLinetypeTableRecord
2
DOT
70
0
3
Dot . . . . . . . . . . . . . . . . . . . . . .
72
65
73
2
40
6.35
49
0
74
0
49
-6.35
74
0
0
LTYPE
5
33
330
5
100
AcDbSymbolTableRecord
100
AcDbLinetypeTableRecord
2
DOT2
70
0
3
Dot (.5x) .....................................
72
65
73
2
40
3.175
49
0
74
0
49
-3.175
74
0
0
LTYPE
5
34
330
5
100
AcDbSymbolTableRecord
100
AcDbLinetypeTableRecord
2
DOTX2
70
0
3
Dot (2x) .  .  .  .  .  .  .  .  .  .  .  .  .
72
65
73
2
40
12.7
49
0
74
0
49
-12.7
74
0
0
LTYPE
5
35
330
5
100
AcDbSymbolTableRecord
100
AcDbLinetypeTableRecord
2
DASHED
70
0
3
Dot . . . . . . . . . . . . . . . . . . . . . .
72
65
73
2
40
19.05
49
12.7
74
0
49
-6.35
74
0
0
LTYPE
5
36
330
5
100
AcDbSymbolTableRecord
100
AcDbLinetypeTableRecord
2
DASHED2
70
0
3
Dashed (.5x) _ _ _ _ _ _ _ _ _ _ _ _ _ _ _ _ _
72
65
73
2
40
9.525
49
6.35
74
0
49
-3.175
74
0
0
LTYPE
5
37
330
5
100
AcDbSymbolTableRecord
100
AcDbLinetypeTableRecord
2
DASHEDX2
70
0
3
Dashed (2x) ____  ____  ____  ____  ____  ___
72
65
73
2
40
38.1
49
25.4
74
0
49
-12.7
74
0
0
LTYPE
5
38
330
5
100
AcDbSymbolTableRecord
100
AcDbLinetypeTableRecord
2
DASHDOT
70
0
3
Dash dot __ . __ . __ . __ . __ . __ . __ . __
72
65
73
4
40
25.4
49
12.7
74
0
49
-6.35
74
0
49
0
74
0
49
-6.35
74
0
0
LTYPE
5
39
330
5
100
AcDbSymbolTableRecord
100
AcDbLinetypeTableRecord
2
DASHDOT2
70
0
3
Dash dot (.5x) _._._._._._._._._._._._._._._.
72
65
73
4
40
12.7
49
6.35
74
0
49
-3.175
74
0
49
0
74
0
49
-3.175
74
0
0
LTYPE
5
3A
330
5
100
AcDbSymbolTableRecord
100
AcDbLinetypeTableRecord
2
DASHDOTX2
70
0
3
Dash dot (2x) ____  .  ____  .  ____  .  ___
72
65
73
4
40
50.8
49
25.4
74
0
49
-12.7
74
0
49
0
74
0
49
-12.7
74
0
0
LTYPE
5
3B
330
5
100
AcDbSymbolTableRecord
100
AcDbLinetypeTableRecord
2
DIVIDE
70
0
3
Divide ____ . . ____ . . ____ . . ____ . . ____
72
65
73
6
40
31.75
49
12.7
74
0
49
-6.35
74
0
49
0
74
0
49
-6.35
74
0
49
0
74
0
49
-6.35
74
0
0
LTYPE
5
3C
330
5
100
AcDbSymbolTableRecord
100
AcDbLinetypeTableRecord
2
DIVIDE2
70
0
3
Divide (.5x) __..__..__..__..__..__..__..__.._
72
65
73
6
40
15.875
49
6.35
74
0
49
-3.175
74
0
49
0
74
0
49
-3.175
74
0
49
0
74
0
49
-3.175
74
0
0
LTYPE
5
3D
330
5
100
AcDbSymbolTableRecord
100
AcDbLinetypeTableRecord
2
DIVIDEX2
70
0
3
Divide (2x) ________  .  .  ________  .  .  _
72
65
73
6
40
63.5
49
25.4
74
0
49
-12.7
74
0
49
0
74
0
49
-12.7
74
0
49
0
74
0
49
-12.7
74
0
0
LTYPE
5
3E
330
5
100
AcDbSymbolTableRecord
100
AcDbLinetypeTableRecord
2
BORDER
70
0
3
Border __ __ . __ __ . __ __ . __ __ . __ __ .
72
65
73
6
40
44.45
49
12.7
74
0
49
-6.35
74
0
49
12.7
74
0
49
-6.35
74
0
49
0
74
0
49
-6.35
74
0
0
LTYPE
5
3F
330
5
100
AcDbSymbolTableRecord
100
AcDbLinetypeTableRecord
2
BORDER2
70
0
3
Border (.5x) __.__.__.__.__.__.__.__.__.__.__.
72
65
73
6
40
22.225
49
6.35
74
0
49
-3.175
74
0
49
6.35
74
0
49
-3.175
74
0
49
0
74
0
49
-3.175
74
0
0
LTYPE
5
40
330
5
100
AcDbSymbolTableRecord
100
AcDbLinetypeTableRecord
2
BORDERX2
70
0
3
Border (2x) ____  ____  .  ____  ____  .  ___
72
65
73
6
40
88.9
49
25.4
74
0
49
-12.7
74
0
49
25.4
74
0
49
-12.7
74
0
49
0
74
0
49
-12.7
74
0
0
LTYPE
5
41
330
5
100
AcDbSymbolTableRecord
100
AcDbLinetypeTableRecord
2
CENTER
70
0
3
Center ____ _ ____ _ ____ _ ____ _ ____ _ ____
72
65
73
4
40
50.8
49
31.75
74
0
49
-6.35
74
0
49
6.35
74
0
49
-6.35
74
0
0
LTYPE
5
42
330
5
100
AcDbSymbolTableRecord
100
AcDbLinetypeTableRecord
2
CENTER2
70
0
3
Center (.5x) ___ _ ___ _ ___ _ ___ _ ___ _ ___
72
65
73
4
40
28.575
49
19.05
74
0
49
-3.175
74
0
49
3.175
74
0
49
-3.175
74
0
0
LTYPE
5
43
330
5
100
AcDbSymbolTableRecord
100
AcDbLinetypeTableRecord
2
CENTERX2
70
0
3
Center (2x) ________  __  ________  __  _____
72
65
73
4
40
101.6
49
63.5
74
0
49
-12.7
74
0
49
12.7
74
0
49
-12.7
74
0
0
ENDTAB
0
TABLE
2
LAYER
5
2
330
0
100
AcDbSymbolTable
70
1
0
LAYER
5
10
330
2
100
AcDbSymbolTableRecord
100
AcDbLayerTableRecord
2
0
70
0
62
7
6
CONTINUOUS
370
0
390
F
0
ENDTAB
0
TABLE
2
STYLE
5
3
330
0
100
AcDbSymbolTable
70
3
0
STYLE
5
44
330
2
100
AcDbSymbolTableRecord
100
AcDbTextStyleTableRecord
2
unicode
70
0
40
0
41
1
50
0
71
0
42
1
3
unicode
4

0
STYLE
5
45
330
2
100
AcDbSymbolTableRecord
100
AcDbTextStyleTableRecord
2
iso
70
0
40
0
41
1
50
0
71
0
42
1
3
iso
4

0
STYLE
5
46
330
2
100
AcDbSymbolTableRecord
100
AcDbTextStyleTableRecord
2
Standard
70
0
40
0
41
1
50
0
71
0
42
1
3
txt
4

0
ENDTAB
0
TABLE
2
VIEW
5
6
330
0
100
AcDbSymbolTable
70
0
0
ENDTAB
0
TABLE
2
UCS
5
7
330
0
100
AcDbSymbolTable
70
0
0
ENDTAB
0
TABLE
2
APPID
5
9
330
0
100
AcDbSymbolTable
70
1
0
APPID
5
12
330
9
100
AcDbSymbolTableRecord
100
AcDbRegAppTableRecord
2
ACAD
70
0
0
ENDTAB
0
TABLE
2
DIMSTYLE
5
A
330
0
100
AcDbSymbolTable
70
1
100
AcDbDimStyleTable
71
1
0
DIMSTYLE
105
47
330
A
100
AcDbSymbolTableRecord
100
AcDbDimStyleTableRecord
2
Standard
70
0
40
1
41
0.1
42
0.025
43
0.38
44
0.05
45
0
46
0
47
0
48
0
140
0.1
141
0.09
142
0
143
25.4
144
1
145
0
146
1
147
0.025
148
0
71
0
72
0
73
0
74
1
75
0
76
0
77
0
78
0
79
0
170
0
171
2
172
0
173
0
174
0
175
0
176
0
177
0
178
0
179
0
271
4
272
4
273
2
274
2
275
0
276
0
277
2
278
46
279
0
280
0
281
0
282
0
283
1
284
0
285
0
286
0
288
0
289
3
340
Standard
341

371
-2
372
-2
0
ENDTAB
0
TABLE
2
BLOCK_RECORD
5
1
330
0
100
AcDbSymbolTable
70
2
0
BLOCK_RECORD
5
1F
330
1
100
AcDbSymbolTableRecord
100
AcDbBlockTableRecord
2
*Model_Space
70
0
280
1
281
0
0
BLOCK_RECORD
5
1E
330
1
100
AcDbSymbolTableRecord
100
AcDbBlockTableRecord
2
*Paper_Space
70
0
280
1
281
0
0
ENDTAB
0
ENDSEC
0
SECTION
2
BLOCKS
0
BLOCK
5
20
330
1F
100
AcDbEntity
8
0
100
AcDbBlockBegin
2
*Model_Space
70
0
10
0
20
0
30
0
3
*Model_Space
1

0
ENDBLK
5
21
330
1F
100
AcDbEntity
8
0
100
AcDbBlockEnd
0
BLOCK
5
1C
330
1B
100
AcDbEntity
8
0
100
AcDbBlockBegin
2
*Paper_Space
70
0
10
0
20
0
30
0
3
*Paper_Space
1

0
ENDBLK
5
1D
330
1F
100
AcDbEntity
8
0
100
AcDbBlockEnd
0
ENDSEC
0
SECTION
2
ENTITIES
0
ELLIPSE
5
48
100
AcDbEntity
8
0
6
ByLayer
62
256
370
0
100
AcDbEllipse
10
-10.5619518707
20
19.9206579268
30
0
11
0.460653461826
21
0
31
0
40
0.881834215168
41
0.287579763809
42
1.56701067219
0
ELLIPSE
5
49
100
AcDbEntity
8
0
6
ByLayer
62
256
370
0
100
AcDbEllipse
10
-22
20
62.1135751008
30
0
11
48.7474410815
21
0
31
0
40
0.881834215168
41
4.47550505238
42
4.94927290839
0
MTEXT
5
4A
100
AcDbEntity
8
0
6
ByLayer
62
256
370
0
100
AcDbMText
10
-22.7692532101
20
17.834546363
30
0
40
0.109998
41
1.6163595
71
1
72
5
1
Lower Front Plate #1\PSize L
7
iso
210
0
220
0
230
1
50
0
73
2
44
1
0
MTEXT
5
4B
100
AcDbEntity
8
0
6
ByLayer
62
256
370
0
100
AcDbMText
10
-22.8570484135
20
34.4800214204
30
0
40
0.109998
41
1.6285815
71
1
72
5
1
Upper Front Plate #2
7
iso
210
0
220
0
230
1
50
0
73
2
44
1
0
MTEXT
5
4C
100
AcDbEntity
8
0
6
ByLayer
62
256
370
0
100
AcDbMText
10
-22.6689158348
20
29.060564425
30
0
40
0.109998
41
1.6041375
71
1
72
5
1
Upper Front Plate #1
7
iso
210
0
220
0
230
1
50
0
73
2
44
1
0
LINE
5
4D
100
AcDbEntity
8
0
6
ByLayer
62
256
370
-1
100
AcDbLine
10
-32.79028
20
24.197
11
-11.20972
21
24.197
0
ELLIPSE
5
4E
100
AcDbEntity
8
0
6
ByLayer
62
256
370
-1
100
AcDbEllipse
10
-11.2198885309
20
23.9776456901
30
0
11
0.237120785247
21
0
31
0
40
0.925925925926
41
0.101992588919
42
1.52789983368
0
ELLIPSE
5
4F
100
AcDbEntity
8
0
6
ByLayer
62
256
370
-1
100
AcDbEllipse
10
-32.7801114691
20
23.9776456901
30
0
11
0.237120785247
21
0
31
0
40
0.925925925926
41
1.61369281991
42
3.03960006467
0
ELLIPSE
5
50
100
AcDbEntity
8
0
6
ByLayer
62
256
370
-1
100
AcDbEllipse
10
-11.2198885309
20
22.2223543099
30
0
11
0.237120785247
21
0
31
0
40
0.925925925926
41
4.75528547349
42
6.18119271825
0
ELLIPSE
5
51
100
AcDbEntity
8
0
6
ByLayer
62
256
370
-1
100
AcDbEllipse
10
-32.7801114691
20
22.2223543099
30
0
11
0.237120785247
21
0
31
0
40
0.925925925926
41
3.24358524251
42
4.66949248728
0
LINE
5
52
100
AcDbEntity
8
0
6
ByLayer
62
256
370
-1
100
AcDbLine
10
-32.79028
20
22.003
11
-11.20972
21
22.003
0
LINE
5
53
100
AcDbEntity
8
0
6
ByLayer
62
256
370
-1
100
AcDbLine
10
-33.016
20
24
11
-33.016
21
22.2
0
LINE
5
54
100
AcDbEntity
8
0
6
ByLayer
62
256
370
-1
100
AcDbLine
10
-10.984
20
24
11
-10.984
21
22.2
0
MTEXT
5
55
100
AcDbEntity
8
0
6
ByLayer
62
256
370
0
100
AcDbMText
10
-22.6149158348
20
23.750689425
30
0
40
0.109998
41
1.33830905657
71
1
72
5
1
Front Waist Plate
7
iso
210
0
220
0
230
1
50
0
73
2
44
1
0
ELLIPSE
5
56
100
AcDbEntity
8
0
6
ByLayer
62
256
370
0
100
AcDbEllipse
10
-22
20
52.1058126906
30
0
11
49.0706721811
21
0
31
0
40
0.881834215168
41
4.43071777289
42
4.99406018788
0
ELLIPSE
5
57
100
AcDbEntity
8
0
6
ByLayer
62
256
370
0
100
AcDbEllipse
10
-35.746880487
20
10.2738119565
30
0
11
0.319101466045
21
0
31
0
40
0.881834215168
41
1.22842769428
42
2.70274719871
0
MTEXT
5
58
100
AcDbEntity
8
0
6
ByLayer
62
256
370
0
100
AcDbMText
10
-22.7692532101
20
12.6487286697
30
0
40
0.109998
41
1.6408035
71
1
72
5
1
Lower Front Plate #2
7
iso
210
0
220
0
230
1
50
0
73
2
44
1
0
MTEXT
5
59
100
AcDbEntity
8
0
6
ByLayer
62
256
370
0
100
AcDbMText
10
-22.7759423685
20
7.39296139581
30
0
40
0.109998
41
1.6408035
71
1
72
5
1
Lower Front Plate #3
7
iso
210
0
220
0
230
1
50
0
73
2
44
1
0
ELLIPSE
5
5A
100
AcDbEntity
8
0
6
ByLayer
62
256
370
-1
100
AcDbEllipse
10
-33.8807517446
20
12.8017398898
30
0
11
0.447318956325
21
0
31
0
40
0.925925925926
41
4.58333483404
42
5.55792834148
0
ELLIPSE
5
5B
100
AcDbEntity
8
0
6
ByLayer
62
256
370
0
100
AcDbEllipse
10
-32.7383931052
20
12.3151315789
30
0
11
0.842596780545
21
0
31
0
40
0.881834215168
41
6.26180352395
42
2.85243924432
0
ELLIPSE
5
5C
100
AcDbEntity
8
0
6
ByLayer
62
256
370
-1
100
AcDbEllipse
10
-31.3729571728
20
12.4255599186
30
0
11
0.540529855396
21
0
31
0
40
0.925925925926
41
3.39673304706
42
4.4675150452
0
ELLIPSE
5
5D
100
AcDbEntity
8
0
6
ByLayer
62
256
370
-1
100
AcDbEllipse
10
-21.9463765789
20
62.4081578947
30
0
11
55.3372365076
21
0
31
0
40
0.925925925926
41
4.53880258426
42
4.71141995062
0
ELLIPSE
5
5E
100
AcDbEntity
8
0
6
ByLayer
62
256
370
-1
100
AcDbEllipse
10
-10.1192482554
20
12.8017398898
30
0
11
0.447318956325
21
0
31
0
40
0.925925925926
41
3.86684961929
42
4.84144312673
0
ELLIPSE
5
5F
100
AcDbEntity
8
0
6
ByLayer
62
256
370
0
100
AcDbEllipse
10
-11.2616068948
20
12.3151315789
30
0
11
-0.842596780545
21
4.38867487115e-15
31
0
40
0.881834215168
41
3.43074606286
42
0.0213817832284
0
ELLIPSE
5
60
100
AcDbEntity
8
0
6
ByLayer
62
256
370
-1
100
AcDbEllipse
10
-12.6270428272
20
12.4255599186
30
0
11
0.540529855396
21
0
31
0
40
0.925925925926
41
4.95726291557
42
6.02804491371
0
ELLIPSE
5
61
100
AcDbEntity
8
0
6
ByLayer
62
256
370
-1
100
AcDbEllipse
10
-22.0536234211
20
62.4081578947
30
0
11
55.3372365076
21
0
31
0
40
0.925925925926
41
4.71335801015
42
4.88597537651
0
CIRCLE
5
62
100
AcDbEntity
8
0
6
ByLayer
62
256
370
-1
100
AcDbCircle
10
-32.730205
20
9.60755
40
0.07
0
CIRCLE
5
63
100
AcDbEntity
8
0
6
ByLayer
62
256
370
-1
100
AcDbCircle
10
-22.824985
20
47.797275
40
0.065
0
MTEXT
5
64
100
AcDbEntity
8
0
6
ByLayer
62
256
370
0
100
AcDbMText
10
-22.3
20
28.6
30
0
40
0.109998
41
0.9869265
71
1
72
5
1
Height: 180cm\PWeight: 100kg
7
iso
210
0
220
0
230
1
50
0
73
2
44
1
0
MTEXT
5
65
100
AcDbEntity
8
0
6
ByLayer
62
256
370
0
100
AcDbMText
10
-22.5
20
23
30
0
40
0.109998
41
0.9869265
71
1
72
5
1
Height: 180cm\PWeight: 100kg
7
iso
210
0
220
0
230
1
50
0
73
2
44
1
0
MTEXT
5
66
100
AcDbEntity
8
0
6
ByLayer
62
256
370
0
100
AcDbMText
10
-22.4
20
17
30
0
40
0.109998
41
0.9869265
71
1
72
5
1
Height: 180cm\PWeight: 100kg
7
iso
210
0
220
0
230
1
50
0
73
2
44
1
0
MTEXT
5
67
100
AcDbEntity
8
0
6
ByLayer
62
256
370
0
100
AcDbMText
10
-22.4
20
12.1
30
0
40
0.109998
41
0.9869265
71
1
72
5
1
Height: 180cm\PWeight: 100kg
7
iso
210
0
220
0
230
1
50
0
73
2
44
1
0
MTEXT
5
68
100
AcDbEntity
8
0
6
ByLayer
62
256
370
0
100
AcDbMText
10
-22.4
20
6.7
30
0
40
0.109998
41
0.9869265
71
1
72
5
1
Height: 180cm\PWeight: 100kg
7
iso
210
0
220
0
230
1
50
0
73
2
44
1
0
CIRCLE
5
69
100
AcDbEntity
8
0
6
ByLayer
62
256
370
-1
100
AcDbCircle
10
-29.424865
20
27.068375
40
0.065
0
CIRCLE
5
6A
100
AcDbEntity
8
0
6
ByLayer
62
256
370
-1
100
AcDbCircle
10
-24.474955
20
27.504875
40
0.065
0
CIRCLE
5
6B
100
AcDbEntity
8
0
6
ByLayer
62
256
370
-1
100
AcDbCircle
10
-22.824985
20
27.563075
40
0.065
0
CIRCLE
5
6C
100
AcDbEntity
8
0
6
ByLayer
62
256
370
-1
100
AcDbCircle
10
-32.724805
20
26.515475
40
0.065
0
CIRCLE
5
6D
100
AcDbEntity
8
0
6
ByLayer
62
256
370
-1
100
AcDbCircle
10
-27.774895
20
27.262375
40
0.065
0
CIRCLE
5
6E
100
AcDbEntity
8
0
6
ByLayer
62
256
370
-1
100
AcDbCircle
10
-31.074835
20
26.816175
40
0.065
0
CIRCLE
5
6F
100
AcDbEntity
8
0
6
ByLayer
62
256
370
-1
100
AcDbCircle
10
-26.124925
20
27.417575
40
0.065
0
CIRCLE
5
70
100
AcDbEntity
8
0
6
ByLayer
62
256
370
-1
100
AcDbCircle
10
-29.1054
20
23.099875
40
0.065
0
CIRCLE
5
71
100
AcDbEntity
8
0
6
ByLayer
62
256
370
-1
100
AcDbCircle
10
-24.3652
20
23.1
40
0.065
0
CIRCLE
5
72
100
AcDbEntity
8
0
6
ByLayer
62
256
370
-1
100
AcDbCircle
10
-22.7884
20
23.1
40
0.065
0
CIRCLE
5
73
100
AcDbEntity
8
0
6
ByLayer
62
256
370
-1
100
AcDbCircle
10
-32.2492
20
23.1
40
0.065
0
CIRCLE
5
74
100
AcDbEntity
8
0
6
ByLayer
62
256
370
-1
100
AcDbCircle
10
-27.5188
20
23.1
40
0.065
0
CIRCLE
5
75
100
AcDbEntity
8
0
6
ByLayer
62
256
370
-1
100
AcDbCircle
10
-25.942
20
23.1
40
0.065
0
CIRCLE
5
76
100
AcDbEntity
8
0
6
ByLayer
62
256
370
-1
100
AcDbCircle
10
-14.8946
20
23.099875
40
0.065
0
CIRCLE
5
77
100
AcDbEntity
8
0
6
ByLayer
62
256
370
-1
100
AcDbCircle
10
-19.6348
20
23.1
40
0.065
0
CIRCLE
5
78
100
AcDbEntity
8
0
6
ByLayer
62
256
370
-1
100
AcDbCircle
10
-21.2116
20
23.1
40
0.065
0
CIRCLE
5
79
100
AcDbEntity
8
0
6
ByLayer
62
256
370
-1
100
AcDbCircle
10
-11.7508
20
23.1
40
0.065
0
CIRCLE
5
7A
100
AcDbEntity
8
0
6
ByLayer
62
256
370
-1
100
AcDbCircle
10
-16.4812
20
23.1
40
0.065
0
CIRCLE
5
7B
100
AcDbEntity
8
0
6
ByLayer
62
256
370
-1
100
AcDbCircle
10
-18.058
20
23.1
40
0.065
0
LINE
5
7C
100
AcDbEntity
8
0
6
ByLayer
62
256
370
0
100
AcDbLine
10
15.95011
20
59.598
11
14.740132
21
57.367
0
ELLIPSE
5
7D
100
AcDbEntity
8
0
6
ByLayer
62
256
370
0
100
AcDbEllipse
10
15.1211965
20
57.1556785714
30
0
11
0.450151934176
21
0
31
0
40
0.881834215168
41
2.58021813722
42
4.34646827873
0
ELLIPSE
5
7E
100
AcDbEntity
8
0
6
ByLayer
62
256
370
0
100
AcDbEllipse
10
22
20
85.2735802198
30
0
11
33.0641900307
21
0
31
0
40
0.881834215168
41
4.49783126909
42
4.92694669168
0
LINE
5
7F
100
AcDbEntity
8
0
6
ByLayer
62
256
370
0
100
AcDbLine
10
28.04989
20
59.598
11
29.259868
21
57.367
0
ELLIPSE
5
80
100
AcDbEntity
8
0
6
ByLayer
62
256
370
0
100
AcDbEllipse
10
28.8788035
20
57.1556785714
30
0
11
0.450151934176
21
0
31
0
40
0.881834215168
41
5.07830968203
42
0.56137451636
0
ELLIPSE
5
81
100
AcDbEntity
8
0
6
ByLayer
62
256
370
0
100
AcDbEllipse
10
26.9566445714
20
58.8378367347
30
0
11
1.39221870193
21
0
31
0
40
0.881834215168
41
0.667689938453
42
2.36873659192
0
ELLIPSE
5
82
100
AcDbEntity
8
0
6
ByLayer
62
256
370
0
100
AcDbEllipse
10
17.0366208571
20
58.9288979592
30
0
11
1.32522646432
21
0
31
0
40
0.881834215168
41
0.830930221236
42
2.5319768747
0
ELLIPSE
5
83
100
AcDbEntity
8
0
6
ByLayer
62
256
370
0
100
AcDbEllipse
10
21.9830955455
20
62.1957943723
30
0
11
4.88441704015
21
0
31
0
40
0.881834215168
41
3.73366461698
42
5.66371779705
0
LINE
5
84
100
AcDbEntity
8
0
6
ByLayer
62
256
370
0
100
AcDbLine
10
15.180124
20
54.748
11
20.680024
21
54.166
0
LINE
5
85
100
AcDbEntity
8
0
6
ByLayer
62
256
370
0
100
AcDbLine
10
14.630134
20
54.457
11
13.640152
21
52.226
0
ELLIPSE
5
86
100
AcDbEntity
8
0
6
ByLayer
62
256
370
0
100
AcDbEllipse
10
22
20
82.9943080569
30
0
11
36.1496060568
21
0
31
0
40
0.881834215168
41
4.48527018353
42
4.93950777724
0
ELLIPSE
5
87
100
AcDbEntity
8
0
6
ByLayer
62
256
370
0
100
AcDbEllipse
10
15.235123
20
54.1175
30
0
11
0.717099226168
21
0
31
0
40
0.881834215168
41
1.64756821806
42
2.57486343606
0
ELLIPSE
5
88
100
AcDbEntity
8
0
6
ByLayer
62
256
370
0
100
AcDbEllipse
10
13.915147
20
52.1775
30
0
11
0.280440974227
21
0
31
0
40
0.881834215168
41
2.94419709374
42
4.51499342054
0
LINE
5
89
100
AcDbEntity
8
0
6
ByLayer
62
256
370
0
100
AcDbLine
10
28.819876
20
54.748
11
23.319976
21
54.166
0
LINE
5
8A
100
AcDbEntity
8
0
6
ByLayer
62
256
370
0
100
AcDbLine
10
29.369866
20
54.457
11
30.359848
21
52.226
0
ELLIPSE
5
8B
100
AcDbEntity
8
0
6
ByLayer
62
256
370
0
100
AcDbEllipse
10
28.764877
20
54.1175
30
0
11
0.717099226168
21
0
31
0
40
0.881834215168
41
0.566729217523
42
1.49402443553
0
ELLIPSE
5
8C
100
AcDbEntity
8
0
6
ByLayer
62
256
370
0
100
AcDbEllipse
10
30.084853
20
52.1775
30
0
11
0.280440974227
21
0
31
0
40
0.881834215168
41
4.90978454023
42
0.19739555985
0
ELLIPSE
5
8D
100
AcDbEntity
8
0
6
ByLayer
62
256
370
0
100
AcDbEllipse
10
22
20
68.10975
30
0
11
15.8672115
21
0
31
0
40
0.881834215168
41
4.62910382218
42
4.79567413859
0
ELLIPSE
5
8E
100
AcDbEntity
8
0
6
ByLayer
62
256
370
0
100
AcDbEllipse
10
22
20
-132.58325
30
0
11
206.3287485
21
0
31
0
40
0.881834215168
41
1.53080165885
42
1.61079099474
0
ELLIPSE
5
8F
100
AcDbEntity
8
0
6
ByLayer
62
256
370
0
100
AcDbEllipse
10
22
20
-124.799
30
0
11
194.14647
21
0
31
0
40
0.881834215168
41
1.52318627442
42
1.61840637916
0
ELLIPSE
5
90
100
AcDbEntity
8
0
6
ByLayer
62
256
370
0
100
AcDbEllipse
10
13.805149
20
48.831
30
0
11
0.443416113899
21
0
31
0
40
0.881834215168
41
1.69515132134
42
2.62244653934
0
LINE
5
91
100
AcDbEntity
8
0
6
ByLayer
62
256
370
0
100
AcDbLine
10
13.420156
20
49.025
11
12.3641752
21
46.6
0
ELLIPSE
5
92
100
AcDbEntity
8
0
6
ByLayer
62
256
370
0
100
AcDbEllipse
10
12.7452829496
20
46.5508770642
30
0
11
0.385157382601
21
0
31
0
40
0.881834215168
41
2.99645336857
42
4.77964557921
0
ELLIPSE
5
93
100
AcDbEntity
8
0
6
ByLayer
62
256
370
0
100
AcDbEllipse
10
30.194851
20
48.831
30
0
11
0.443416113899
21
0
31
0
40
0.881834215168
41
0.519146114246
42
1.44644133225
0
LINE
5
94
100
AcDbEntity
8
0
6
ByLayer
62
256
370
0
100
AcDbLine
10
30.579844
20
49.025
11
31.6358248
21
46.6
0
ELLIPSE
5
95
100
AcDbEntity
8
0
6
ByLayer
62
256
370
0
100
AcDbEllipse
10
31.2547170504
20
46.5508770642
30
0
11
0.385157382601
21
0
31
0
40
0.881834215168
41
4.64513238156
42
0.145139285022
0
ELLIPSE
5
96
100
AcDbEntity
8
0
6
ByLayer
62
256
370
0
100
AcDbEllipse
10
22
20
-125.978935714
30
0
11
193.790579118
21
0
31
0
40
0.881834215168
41
1.5219622245
42
1.61963042909
0
ELLIPSE
5
97
100
AcDbEntity
8
0
6
ByLayer
62
256
370
0
100
AcDbEllipse
10
12.5528640769
20
44.3992192308
30
0
11
0.350953968742
21
0
31
0
40
0.881834215168
41
1.60696872057
42
2.92410048541
0
ELLIPSE
5
98
100
AcDbEntity
8
0
6
ByLayer
62
256
370
0
100
AcDbEllipse
10
22
20
-88.0784742424
30
0
11
147.44548579
21
0
31
0
40
0.881834215168
41
1.50061238429
42
1.6409802693
0
LINE
5
99
100
AcDbEntity
8
0
6
ByLayer
62
256
370
0
100
AcDbLine
10
12.210178
20
44.466
11
11.440192
21
41.944
0
ELLIPSE
5
9A
100
AcDbEntity
8
0
6
ByLayer
62
256
370
0
100
AcDbEllipse
10
11.6845447
20
41.8557551948
30
0
11
0.264049557206
21
0
31
0
40
0.881834215168
41
2.75289838491
42
4.62001475317
0
ELLIPSE
5
9B
100
AcDbEntity
8
0
6
ByLayer
62
256
370
0
100
AcDbEllipse
10
31.4471359231
20
44.3992192308
30
0
11
0.350953968742
21
0
31
0
40
0.881834215168
41
0.217492168174
42
1.53462393302
0
ELLIPSE
5
9C
100
AcDbEntity
8
0
6
ByLayer
62
256
370
0
100
AcDbEllipse
10
32.3154553
20
41.8557551948
30
0
11
0.264049557206
21
0
31
0
40
0.881834215168
41
4.8047632076
42
0.388694268678
0
ELLIPSE
5
9D
100
AcDbEntity
8
0
6
ByLayer
62
256
370
0
100
AcDbEllipse
10
22
20
-110.936194828
30
0
11
171.320178135
21
0
31
0
40
0.881834215168
41
1.50976264871
42
1.63183000488
0
ELLIPSE
5
9E
100
AcDbEntity
8
0
6
ByLayer
62
256
370
0
100
AcDbEllipse
10
22
20
-66.2923853659
30
0
11
117.317159605
21
0
31
0
40
0.881834215168
41
1.44671335255
42
1.69487930104
0
LINE
5
9F
100
AcDbEntity
8
0
6
ByLayer
62
256
370
0
100
AcDbLine
10
7.040272
20
37.385
11
7.260268
21
36.512
0
ELLIPSE
5
A0
100
AcDbEntity
8
0
6
ByLayer
62
256
370
0
100
AcDbEllipse
10
5.9256256
20
43.4852222222
30
0
11
6.72149598385
21
0
31
0
40
0.881834215168
41
4.91228079066
42
5.59333617065
0
ELLIPSE
5
A1
100
AcDbEntity
8
0
6
ByLayer
62
256
370
0
100
AcDbEllipse
10
7.3317667
20
37.4238
30
0
11
0.294796692194
21
0
31
0
40
0.881834215168
41
1.81577498992
42
3.29140511016
0
ELLIPSE
5
A2
100
AcDbEntity
8
0
6
ByLayer
62
256
370
0
100
AcDbEllipse
10
7.46101435
20
36.54595
30
0
11
0.204404728758
21
0
31
0
40
0.881834215168
41
3.33107281147
42
4.80670293171
0
LINE
5
A3
100
AcDbEntity
8
0
6
ByLayer
62
256
370
0
100
AcDbLine
10
36.959728
20
37.385
11
36.739732
21
36.512
0
ELLIPSE
5
A4
100
AcDbEntity
8
0
6
ByLayer
62
256
370
0
100
AcDbEllipse
10
38.0743744
20
43.4852222222
30
0
11
6.72149598385
21
0
31
0
40
0.881834215168
41
3.83144179012
42
4.51249717011
0
ELLIPSE
5
A5
100
AcDbEntity
8
0
6
ByLayer
62
256
370
0
100
AcDbEllipse
10
36.6682333
20
37.4238
30
0
11
0.294796692194
21
0
31
0
40
0.881834215168
41
6.13337285061
42
1.32581766367
0
ELLIPSE
5
A6
100
AcDbEntity
8
0
6
ByLayer
62
256
370
0
100
AcDbEllipse
10
36.53898565
20
36.54595
30
0
11
0.204404728758
21
0
31
0
40
0.881834215168
41
4.61807502906
42
6.0937051493
0
ELLIPSE
5
A7
100
AcDbEntity
8
0
6
ByLayer
62
256
370
0
100
AcDbEllipse
10
32.451847
20
39.2732067901
30
0
11
0.663725625824
21
0
31
0
40
0.881834215168
41
0.850185942181
42
1.57386537087
0
ELLIPSE
5
A8
100
AcDbEntity
8
0
6
ByLayer
62
256
370
0
100
AcDbEllipse
10
11.548153
20
39.2732067901
30
0
11
0.663725625824
21
0
31
0
40
0.881834215168
41
1.56772728272
42
2.29140671141
0
LWPOLYLINE
5
A9
100
AcDbEntity
8
0
6
ByLayer
62
256
370
0
100
AcDbPolyline
90
2
70
0
43
0
10
7.71247857784
20
34.45490451
10
7.71248187778
20
34.45490451
0
ELLIPSE
5
AA
100
AcDbEntity
8
0
6
ByLayer
62
256
370
0
100
AcDbEllipse
10
22
20
-67.88425
30
0
11
116.6253795
21
0
31
0
40
0.881834215168
41
1.44787441503
42
1.69371823856
0
LINE
5
AB
100
AcDbEntity
8
0
6
ByLayer
62
256
370
0
100
AcDbLine
10
7.2932674
20
33.699
11
7.6562608
21
31.371
0
ELLIPSE
5
AC
100
AcDbEntity
8
0
6
ByLayer
62
256
370
0
100
AcDbEllipse
10
7.78985047638
20
33.7502440789
30
0
11
0.499971614273
21
0
31
0
40
0.881834215168
41
1.75096053435
42
3.25808411428
0
ELLIPSE
5
AD
100
AcDbEntity
8
0
6
ByLayer
62
256
370
0
100
AcDbEllipse
10
22
20
-61.5413738095
30
0
11
106.0666191
21
0
31
0
40
0.881834215168
41
1.4387052589
42
1.70288739469
0
ELLIPSE
5
AE
100
AcDbEntity
8
0
6
ByLayer
62
256
370
0
100
AcDbEllipse
10
7.97238548698
20
31.4675782609
30
0
11
0.334558504401
21
0
31
0
40
0.881834215168
41
3.47509673543
42
4.88623309082
0
LINE
5
AF
100
AcDbEntity
8
0
6
ByLayer
62
256
370
0
100
AcDbLine
10
36.7067326
20
33.699
11
36.3437392
21
31.371
0
ELLIPSE
5
B0
100
AcDbEntity
8
0
6
ByLayer
62
256
370
0
100
AcDbEllipse
10
36.2101495236
20
33.7502440789
30
0
11
0.499971614273
21
0
31
0
40
0.881834215168
41
6.16669384649
42
1.39063211925
0
ELLIPSE
5
B1
100
AcDbEntity
8
0
6
ByLayer
62
256
370
0
100
AcDbEllipse
10
36.027614513
20
31.4675782609
30
0
11
0.334558504401
21
0
31
0
40
0.881834215168
41
4.53854486995
42
5.94968122534
0
ELLIPSE
5
B2
100
AcDbEntity
8
0
6
ByLayer
62
256
370
0
100
AcDbEllipse
10
22
20
57.9987652174
30
0
11
49.8635281566
21
0
31
0
40
0.881834215168
41
4.46500966309
42
4.95976829768
0
ELLIPSE
5
B3
100
AcDbEntity
8
0
6
ByLayer
62
256
370
0
100
AcDbEllipse
10
22
20
62.2937001008
30
0
11
48.7474410815
21
0
31
0
40
0.881834215168
41
4.47550505238
42
4.94927290839
0
ELLIPSE
5
B4
100
AcDbEntity
8
0
6
ByLayer
62
256
370
0
100
AcDbEllipse
10
14.465137
20
32.2925
30
0
11
13.9235484043
21
0
31
0
40
0.881834215168
41
4.31060921726
42
4.42812086267
0
ELLIPSE
5
B5
100
AcDbEntity
8
0
6
ByLayer
62
256
370
0
100
AcDbEllipse
10
8.855239
20
20.7495
30
0
11
0.320696523265
21
0
31
0
40
0.881834215168
41
1.03037682652
42
2.60117315332
0
ELLIPSE
5
B6
100
AcDbEntity
8
0
6
ByLayer
62
256
370
0
100
AcDbEllipse
10
29.534863
20
32.2925
30
0
11
13.9235484043
21
0
31
0
40
0.881834215168
41
4.9966570981
42
5.11416874351
0
ELLIPSE
5
B7
100
AcDbEntity
8
0
6
ByLayer
62
256
370
0
100
AcDbEllipse
10
35.144761
20
20.7495
30
0
11
0.320696523265
21
0
31
0
40
0.881834215168
41
0.540419500271
42
2.11121582706
0
ELLIPSE
5
B8
100
AcDbEntity
8
0
6
ByLayer
62
256
370
0
100
AcDbEllipse
10
14.7128362
20
28.2501148148
30
0
11
15.4175665936
21
0
31
0
40
0.881834215168
41
4.25615091918
42
4.38741295419
0
ELLIPSE
5
B9
100
AcDbEntity
8
0
6
ByLayer
62
256
370
0
100
AcDbEllipse
10
7.75281459993
20
15.8111222222
30
0
11
0.313650907374
21
0
31
0
40
0.881834215168
41
1.00765346568
42
2.62389651417
0
ELLIPSE
5
BA
100
AcDbEntity
8
0
6
ByLayer
62
256
370
0
100
AcDbEllipse
10
29.2871638
20
28.2501148148
30
0
11
15.4175665936
21
0
31
0
40
0.881834215168
41
5.03736500658
42
5.16862704158
0
ELLIPSE
5
BB
100
AcDbEntity
8
0
6
ByLayer
62
256
370
0
100
AcDbEllipse
10
36.2471854001
20
15.8111222222
30
0
11
0.313650907374
21
0
31
0
40
0.881834215168
41
0.517696139429
42
2.13393918791
0
ELLIPSE
5
BC
100
AcDbEntity
8
0
6
ByLayer
62
256
370
0
100
AcDbEllipse
10
22
20
-48.98865
30
0
11
89.2578771
21
0
31
0
40
0.881834215168
41
1.41364026642
42
1.72795238716
0
ELLIPSE
5
BD
100
AcDbEntity
8
0
6
ByLayer
62
256
370
0
100
AcDbEllipse
10
8.085253
20
28.4125
30
0
11
0.388901658585
21
0
31
0
40
0.881834215168
41
1.7126933814
42
2.99969559899
0
LINE
5
BE
100
AcDbEntity
8
0
6
ByLayer
62
256
370
0
100
AcDbLine
10
8.030254
20
26.23
11
7.70026
21
28.461
0
ELLIPSE
5
BF
100
AcDbEntity
8
0
6
ByLayer
62
256
370
0
100
AcDbEllipse
10
35.914747
20
28.4125
30
0
11
0.388901658585
21
0
31
0
40
0.881834215168
41
0.141897054604
42
1.42889927219
0
LINE
5
C0
100
AcDbEntity
8
0
6
ByLayer
62
256
370
0
100
AcDbLine
10
35.969746
20
26.23
11
36.29974
21
28.461
0
ELLIPSE
5
C1
100
AcDbEntity
8
0
6
ByLayer
62
256
370
0
100
AcDbEllipse
10
35.4400952529
20
26.2429943396
30
0
11
0.529855689154
21
0
31
0
40
0.881834215168
41
4.98891311128
42
6.25537116538
0
ELLIPSE
5
C2
100
AcDbEntity
8
0
6
ByLayer
62
256
370
0
100
AcDbEllipse
10
22
20
-63.6534333333
30
0
11
102.3384726
21
0
31
0
40
0.881834215168
41
1.43765999924
42
1.70393265435
0
ELLIPSE
5
C3
100
AcDbEntity
8
0
6
ByLayer
62
256
370
0
100
AcDbEllipse
10
8.55990474707
20
26.2429943396
30
0
11
0.529855689154
21
0
31
0
40
0.881834215168
41
3.16940679539
42
4.43586484949
0
MTEXT
5
C4
100
AcDbEntity
8
0
6
ByLayer
62
256
370
0
100
AcDbMText
10
21.3101805453
20
57.0323464941
30
0
40
0.109998
41
1.5674715
71
1
72
5
1
Upper Back Plate #7
7
iso
210
0
220
0
230
1
50
0
73
2
44
1
0
MTEXT
5
C5
100
AcDbEntity
8
0
6
ByLayer
62
256
370
0
100
AcDbMText
10
21.2307467899
20
52.9622236894
30
0
40
0.109998
41
1.5674715
71
1
72
5
1
Upper Back Plate #6
7
iso
210
0
220
0
230
1
50
0
73
2
44
1
0
MTEXT
5
C6
100
AcDbEntity
8
0
6
ByLayer
62
256
370
0
100
AcDbMText
10
21.2294089583
20
48.1612483984
30
0
40
0.109998
41
1.5674715
71
1
72
5
1
Upper Back Plate #5
7
iso
210
0
220
0
230
1
50
0
73
2
44
1
0
MTEXT
5
C7
100
AcDbEntity
8
0
6
ByLayer
62
256
370
0
100
AcDbMText
10
21.2892769255
20
43.7417733863
30
0
40
0.109998
41
1.5796935
71
1
72
5
1
Upper Back Plate #4
7
iso
210
0
220
0
230
1
50
0
73
2
44
1
0
MTEXT
5
C8
100
AcDbEntity
8
0
6
ByLayer
62
256
370
0
100
AcDbMText
10
21.3101805453
20
39.1149580603
30
0
40
0.109998
41
1.5674715
71
1
72
5
1
Upper Back Plate #3
7
iso
210
0
220
0
230
1
50
0
73
2
44
1
0
MTEXT
5
C9
100
AcDbEntity
8
0
6
ByLayer
62
256
370
0
100
AcDbMText
10
21.1638552064
20
33.9351369184
30
0
40
0.109998
41
1.5674715
71
1
72
5
1
Upper Back Plate #2
7
iso
210
0
220
0
230
1
50
0
73
2
44
1
0
MTEXT
5
CA
100
AcDbEntity
8
0
6
ByLayer
62
256
370
0
100
AcDbMText
10
21.2056624461
20
28.6262810862
30
0
40
0.109998
41
1.5430275
71
1
72
5
1
Upper Back Plate #1
7
iso
210
0
220
0
230
1
50
0
73
2
44
1
0
MTEXT
5
CB
100
AcDbEntity
8
0
6
ByLayer
62
256
370
0
100
AcDbMText
10
21.1865983448
20
17.7917616482
30
0
40
0.109998
41
1.5552495
71
1
72
5
1
Lower Back Plate #1
7
iso
210
0
220
0
230
1
50
0
73
2
44
1
0
MTEXT
5
CC
100
AcDbEntity
8
0
6
ByLayer
62
256
370
0
100
AcDbMText
10
21.3101805453
20
12.5522453719
30
0
40
0.109998
41
1.5796935
71
1
72
5
1
Lower Back Plate #2
7
iso
210
0
220
0
230
1
50
0
73
2
44
1
0
ELLIPSE
5
CD
100
AcDbEntity
8
0
6
ByLayer
62
256
370
-1
100
AcDbEllipse
10
9.48216853091
20
24.3306456901
30
0
11
0.237120785247
21
0
31
0
40
0.925925925926
41
1.61369281991
42
3.03960006467
0
ELLIPSE
5
CE
100
AcDbEntity
8
0
6
ByLayer
62
256
370
-1
100
AcDbEllipse
10
9.48216853091
20
22.5753543099
30
0
11
0.237120785247
21
0
31
0
40
0.925925925926
41
3.24358524251
42
4.66949248728
0
LINE
5
CF
100
AcDbEntity
8
0
6
ByLayer
62
256
370
-1
100
AcDbLine
10
9.24628
20
24.353
11
9.24628
21
22.553
0
ELLIPSE
5
D0
100
AcDbEntity
8
0
6
ByLayer
62
256
370
-1
100
AcDbEllipse
10
34.5178314691
20
24.3306456901
30
0
11
0.237120785247
21
0
31
0
40
0.925925925926
41
0.101992588919
42
1.52789983368
0
ELLIPSE
5
D1
100
AcDbEntity
8
0
6
ByLayer
62
256
370
-1
100
AcDbEllipse
10
34.5178314691
20
22.5753543099
30
0
11
0.237120785247
21
0
31
0
40
0.925925925926
41
4.75528547349
42
6.18119271825
0
LINE
5
D2
100
AcDbEntity
8
0
6
ByLayer
62
256
370
-1
100
AcDbLine
10
34.75372
20
24.353
11
34.75372
21
22.553
0
LINE
5
D3
100
AcDbEntity
8
0
6
ByLayer
62
256
370
-1
100
AcDbLine
10
9.472
20
22.35
11
34.528
21
22.356
0
LINE
5
D4
100
AcDbEntity
8
0
6
ByLayer
62
256
370
-1
100
AcDbLine
10
9.472
20
24.55
11
34.528
21
24.55
0
MTEXT
5
D5
100
AcDbEntity
8
0
6
ByLayer
62
256
370
0
100
AcDbMText
10
21.3850841652
20
24.100689425
30
0
40
0.109998
41
1.33830905657
71
1
72
5
1
Front Waist Plate
7
iso
210
0
220
0
230
1
50
0
73
2
44
1
0
LINE
5
D6
100
AcDbEntity
8
0
6
ByLayer
62
256
370
0
100
AcDbLine
10
31.789822
20
44.466
11
32.559808
21
41.944
0
ELLIPSE
5
D7
100
AcDbEntity
8
0
6
ByLayer
62
256
370
0
100
AcDbEllipse
10
36.7894399306
20
5.81731939953
30
0
11
0.319101466045
21
0
31
0
40
0.881834215168
41
0.438845454876
42
1.91316495931
0
ELLIPSE
5
D8
100
AcDbEntity
8
0
6
ByLayer
62
256
370
0
100
AcDbEllipse
10
22
20
47.3721976906
30
0
11
49.0706721811
21
0
31
0
40
0.881834215168
41
4.71238898038
42
5.0162509407
0
ELLIPSE
5
D9
100
AcDbEntity
8
0
6
ByLayer
62
256
370
0
100
AcDbEllipse
10
6.52353966003
20
11.045813344
30
0
11
-0.319101466045
21
0
31
0
40
0.881834215168
41
4.37002034787
42
5.8443398523
0
ELLIPSE
5
DA
100
AcDbEntity
8
0
6
ByLayer
62
256
370
-1
100
AcDbEllipse
10
22.1358114255
20
57.4712951298
30
0
11
52.2087753846
21
0
31
0
40
0.925925925926
41
4.41085694351
42
4.70978766332
0
ELLIPSE
5
DB
100
AcDbEntity
8
0
6
ByLayer
62
256
370
-1
100
AcDbEllipse
10
21.8641885745
20
57.4712951298
30
0
11
52.2087753846
21
0
31
0
40
0.925925925926
41
4.71499029745
42
5.01392101726
0
MTEXT
5
DC
100
AcDbEntity
8
0
6
ByLayer
62
256
370
0
100
AcDbMText
10
22.7759423685
20
7.69296139581
30
0
40
0.109998
41
1.5796935
71
3
72
5
1
Lower Back Plate #3
7
iso
210
0
220
0
230
1
50
360
73
2
44
1
0
MTEXT
5
DD
100
AcDbEntity
8
0
6
ByLayer
62
256
370
0
100
AcDbMText
10
22.7759423685
20
2.65934639578
30
0
40
0.109998
41
1.5919155
71
3
72
5
1
Lower Back Plate #4
7
iso
210
0
220
0
230
1
50
360
73
2
44
1
0
ELLIPSE
5
DE
100
AcDbEntity
8
0
6
ByLayer
62
256
370
-1
100
AcDbEllipse
10
10.1192482554
20
12.6818648898
30
0
11
0.447318956325
21
0
31
0
40
0.925925925926
41
4.58333483404
42
5.55792834148
0
ELLIPSE
5
DF
100
AcDbEntity
8
0
6
ByLayer
62
256
370
0
100
AcDbEllipse
10
11.2616068948
20
12.1952565789
30
0
11
0.842596780545
21
0
31
0
40
0.881834215168
41
6.26180352395
42
2.85243924432
0
ELLIPSE
5
E0
100
AcDbEntity
8
0
6
ByLayer
62
256
370
-1
100
AcDbEllipse
10
12.6270428272
20
12.3056849185
30
0
11
0.540529855396
21
0
31
0
40
0.925925925926
41
3.39673304706
42
4.4675150452
0
ELLIPSE
5
E1
100
AcDbEntity
8
0
6
ByLayer
62
256
370
-1
100
AcDbEllipse
10
25.5297400445
20
75.2893557783
30
0
11
69.7952876709
21
0
31
0
40
0.925925925926
41
4.46383991665
42
4.48891309382
0
ELLIPSE
5
E2
100
AcDbEntity
8
0
6
ByLayer
62
256
370
-1
100
AcDbEllipse
10
22.0536234211
20
62.2882828947
30
0
11
55.3372365076
21
0
31
0
40
0.925925925926
41
4.53880258426
42
4.71141995062
0
ELLIPSE
5
E3
100
AcDbEntity
8
0
6
ByLayer
62
256
370
-1
100
AcDbEllipse
10
33.8807517446
20
12.6818648898
30
0
11
0.447318956325
21
0
31
0
40
0.925925925926
41
3.86684961929
42
4.84144312673
0
ELLIPSE
5
E4
100
AcDbEntity
8
0
6
ByLayer
62
256
370
0
100
AcDbEllipse
10
32.7383931052
20
12.1952565789
30
0
11
-0.842596780545
21
4.38867487115e-15
31
0
40
0.881834215168
41
3.43074606286
42
0.0213817832284
0
ELLIPSE
5
E5
100
AcDbEntity
8
0
6
ByLayer
62
256
370
-1
100
AcDbEllipse
10
31.3729571728
20
12.3056849185
30
0
11
0.540529855396
21
0
31
0
40
0.925925925926
41
4.95726291557
42
6.02804491371
0
ELLIPSE
5
E6
100
AcDbEntity
8
0
6
ByLayer
62
256
370
-1
100
AcDbEllipse
10
18.4702599555
20
75.2893557783
30
0
11
69.7952876709
21
0
31
0
40
0.925925925926
41
4.93586486695
42
4.96093804412
0
ELLIPSE
5
E7
100
AcDbEntity
8
0
6
ByLayer
62
256
370
-1
100
AcDbEllipse
10
21.9463765789
20
62.2882828947
30
0
11
55.3372365076
21
0
31
0
40
0.925925925926
41
4.71335801015
42
4.88597537651
0
ELLIPSE
5
E8
100
AcDbEntity
8
0
6
ByLayer
62
256
370
-1
100
AcDbEllipse
10
21.8272074862
20
60.4202474592
30
0
11
47.6716454122
21
0
31
0
40
0.925925925926
41
4.4499673596
42
4.7160136275
0
ELLIPSE
5
E9
100
AcDbEntity
8
0
6
ByLayer
62
256
370
-1
100
AcDbEllipse
10
22.1727925138
20
60.4202474592
30
0
11
47.6716454122
21
0
31
0
40
0.925925925926
41
4.70876433327
42
4.97481060117
0
MTEXT
5
EA
100
AcDbEntity
8
0
6
ByLayer
62
256
370
0
100
AcDbMText
10
21.6
20
56.7
30
0
40
0.109998
41
0.9869265
71
1
72
5
1
Height: 180cm\PWeight: 100kg
7
iso
210
0
220
0
230
1
50
0
73
2
44
1
0
MTEXT
5
EB
100
AcDbEntity
8
0
6
ByLayer
62
256
370
0
100
AcDbMText
10
21.5
20
52.4
30
0
40
0.109998
41
0.9869265
71
1
72
5
1
Height: 180cm\PWeight: 100kg
7
iso
210
0
220
0
230
1
50
0
73
2
44
1
0
MTEXT
5
EC
100
AcDbEntity
8
0
6
ByLayer
62
256
370
0
100
AcDbMText
10
21.5
20
47.4
30
0
40
0.109998
41
0.9869265
71
1
72
5
1
Height: 180cm\PWeight: 100kg
7
iso
210
0
220
0
230
1
50
0
73
2
44
1
0
MTEXT
5
ED
100
AcDbEntity
8
0
6
ByLayer
62
256
370
0
100
AcDbMText
10
21.4
20
43.2
30
0
40
0.109998
41
0.9869265
71
1
72
5
1
Height: 180cm\PWeight: 100kg
7
iso
210
0
220
0
230
1
50
0
73
2
44
1
0
MTEXT
5
EE
100
AcDbEntity
8
0
6
ByLayer
62
256
370
0
100
AcDbMText
10
21.4
20
38.6
30
0
40
0.109998
41
0.9869265
71
1
72
5
1
Height: 180cm\PWeight: 100kg
7
iso
210
0
220
0
230
1
50
0
73
2
44
1
0
MTEXT
5
EF
100
AcDbEntity
8
0
6
ByLayer
62
256
370
0
100
AcDbMText
10
21.4
20
33.4
30
0
40
0.109998
41
0.9869265
71
1
72
5
1
Height: 180cm\PWeight: 100kg
7
iso
210
0
220
0
230
1
50
0
73
2
44
1
0
MTEXT
5
F0
100
AcDbEntity
8
0
6
ByLayer
62
256
370
0
100
AcDbMText
10
21.5
20
28.1
30
0
40
0.109998
41
0.9869265
71
1
72
5
1
Height: 180cm\PWeight: 100kg
7
iso
210
0
220
0
230
1
50
0
73
2
44
1
0
MTEXT
5
F1
100
AcDbEntity
8
0
6
ByLayer
62
256
370
0
100
AcDbMText
10
21.6
20
23.4
30
0
40
0.109998
41
0.9869265
71
1
72
5
1
Height: 180cm\PWeight: 100kg
7
iso
210
0
220
0
230
1
50
0
73
2
44
1
0
MTEXT
5
F2
100
AcDbEntity
8
0
6
ByLayer
62
256
370
0
100
AcDbMText
10
21.5
20
17.2
30
0
40
0.109998
41
0.9869265
71
1
72
5
1
Height: 180cm\PWeight: 100kg
7
iso
210
0
220
0
230
1
50
0
73
2
44
1
0
MTEXT
5
F3
100
AcDbEntity
8
0
6
ByLayer
62
256
370
0
100
AcDbMText
10
21.6
20
11.9
30
0
40
0.109998
41
0.9869265
71
1
72
5
1
Height: 180cm\PWeight: 100kg
7
iso
210
0
220
0
230
1
50
0
73
2
44
1
0
MTEXT
5
F4
100
AcDbEntity
8
0
6
ByLayer
62
256
370
0
100
AcDbMText
10
21.5
20
7.1
30
0
40
0.109998
41
0.9869265
71
1
72
5
1
Height: 180cm\PWeight: 100kg
7
iso
210
0
220
0
230
1
50
0
73
2
44
1
0
MTEXT
5
F5
100
AcDbEntity
8
0
6
ByLayer
62
256
370
0
100
AcDbMText
10
21.5
20
2.2
30
0
40
0.109998
41
0.9869265
71
1
72
5
1
Height: 180cm\PWeight: 100kg
7
iso
210
0
220
0
230
1
50
0
73
2
44
1
0
CIRCLE
5
F6
100
AcDbEntity
8
0
6
ByLayer
62
256
370
-1
100
AcDbCircle
10
12.925165
20
37.8215
40
0.07
0
CIRCLE
5
F7
100
AcDbEntity
8
0
6
ByLayer
62
256
370
-1
100
AcDbCircle
10
17.05009
20
59.21
40
0.07
0
CIRCLE
5
F8
100
AcDbEntity
8
0
6
ByLayer
62
256
370
-1
100
AcDbCircle
10
-31.074835
20
19.609075
40
0.065
0
CIRCLE
5
F9
100
AcDbEntity
8
0
6
ByLayer
62
256
370
-1
100
AcDbCircle
10
-26.124925
20
19.007675
40
0.065
0
CIRCLE
5
FA
100
AcDbEntity
8
0
6
ByLayer
62
256
370
-1
100
AcDbCircle
10
-24.474955
20
18.910675
40
0.065
0
CIRCLE
5
FB
100
AcDbEntity
8
0
6
ByLayer
62
256
370
-1
100
AcDbCircle
10
-33.54979
20
20.045575
40
0.065
0
CIRCLE
5
FC
100
AcDbEntity
8
0
6
ByLayer
62
256
370
-1
100
AcDbCircle
10
-29.424865
20
19.356875
40
0.065
0
CIRCLE
5
FD
100
AcDbEntity
8
0
6
ByLayer
62
256
370
-1
100
AcDbCircle
10
-32.724805
20
19.909775
40
0.065
0
CIRCLE
5
FE
100
AcDbEntity
8
0
6
ByLayer
62
256
370
-1
100
AcDbCircle
10
-27.774895
20
19.162875
40
0.065
0
CIRCLE
5
FF
100
AcDbEntity
8
0
6
ByLayer
62
256
370
-1
100
AcDbCircle
10
-22.824985
20
18.833075
40
0.065
0
CIRCLE
5
100
100
AcDbEntity
8
0
6
ByLayer
62
256
370
-1
100
AcDbCircle
10
-12.925165
20
19.609075
40
0.065
0
CIRCLE
5
101
100
AcDbEntity
8
0
6
ByLayer
62
256
370
-1
100
AcDbCircle
10
-17.875075
20
19.007675
40
0.065
0
CIRCLE
5
102
100
AcDbEntity
8
0
6
ByLayer
62
256
370
-1
100
AcDbCircle
10
-19.525045
20
18.910675
40
0.065
0
CIRCLE
5
103
100
AcDbEntity
8
0
6
ByLayer
62
256
370
-1
100
AcDbCircle
10
-10.45021
20
20.045575
40
0.065
0
CIRCLE
5
104
100
AcDbEntity
8
0
6
ByLayer
62
256
370
-1
100
AcDbCircle
10
-14.575135
20
19.356875
40
0.065
0
CIRCLE
5
105
100
AcDbEntity
8
0
6
ByLayer
62
256
370
-1
100
AcDbCircle
10
-11.275195
20
19.909775
40
0.065
0
CIRCLE
5
106
100
AcDbEntity
8
0
6
ByLayer
62
256
370
-1
100
AcDbCircle
10
-16.225105
20
19.162875
40
0.065
0
CIRCLE
5
107
100
AcDbEntity
8
0
6
ByLayer
62
256
370
-1
100
AcDbCircle
10
-21.175015
20
18.833075
40
0.065
0
CIRCLE
5
108
100
AcDbEntity
8
0
6
ByLayer
62
256
370
-1
100
AcDbCircle
10
-32.724805
20
14.903875
40
0.065
0
CIRCLE
5
109
100
AcDbEntity
8
0
6
ByLayer
62
256
370
-1
100
AcDbCircle
10
-27.774895
20
14.176375
40
0.065
0
CIRCLE
5
10A
100
AcDbEntity
8
0
6
ByLayer
62
256
370
-1
100
AcDbCircle
10
-26.124925
20
14.030875
40
0.065
0
CIRCLE
5
10B
100
AcDbEntity
8
0
6
ByLayer
62
256
370
-1
100
AcDbCircle
10
-31.074835
20
14.612875
40
0.065
0
CIRCLE
5
10C
100
AcDbEntity
8
0
6
ByLayer
62
256
370
-1
100
AcDbCircle
10
-34.3637752
20
15.243375
40
0.065
0
CIRCLE
5
10D
100
AcDbEntity
8
0
6
ByLayer
62
256
370
-1
100
AcDbCircle
10
-29.424865
20
14.370375
40
0.065
0
CIRCLE
5
10E
100
AcDbEntity
8
0
6
ByLayer
62
256
370
-1
100
AcDbCircle
10
-24.474955
20
13.933875
40
0.065
0
CIRCLE
5
10F
100
AcDbEntity
8
0
6
ByLayer
62
256
370
-1
100
AcDbCircle
10
-22.824985
20
13.885375
40
0.065
0
CIRCLE
5
110
100
AcDbEntity
8
0
6
ByLayer
62
256
370
-1
100
AcDbCircle
10
-30.6724
20
23.1
40
0.07
0
CIRCLE
5
111
100
AcDbEntity
8
0
6
ByLayer
62
256
370
-1
100
AcDbCircle
10
-13.3276
20
23.1
40
0.07
0
CIRCLE
5
112
100
AcDbEntity
8
0
6
ByLayer
62
256
370
-1
100
AcDbCircle
10
-11.275195
20
14.903875
40
0.065
0
CIRCLE
5
113
100
AcDbEntity
8
0
6
ByLayer
62
256
370
-1
100
AcDbCircle
10
-16.225105
20
14.176375
40
0.065
0
CIRCLE
5
114
100
AcDbEntity
8
0
6
ByLayer
62
256
370
-1
100
AcDbCircle
10
-17.875075
20
14.030875
40
0.065
0
CIRCLE
5
115
100
AcDbEntity
8
0
6
ByLayer
62
256
370
-1
100
AcDbCircle
10
-12.925165
20
14.612875
40
0.065
0
CIRCLE
5
116
100
AcDbEntity
8
0
6
ByLayer
62
256
370
-1
100
AcDbCircle
10
-9.6362248
20
15.243375
40
0.065
0
CIRCLE
5
117
100
AcDbEntity
8
0
6
ByLayer
62
256
370
-1
100
AcDbCircle
10
-14.575135
20
14.370375
40
0.065
0
CIRCLE
5
118
100
AcDbEntity
8
0
6
ByLayer
62
256
370
-1
100
AcDbCircle
10
-19.525045
20
13.933875
40
0.065
0
CIRCLE
5
119
100
AcDbEntity
8
0
6
ByLayer
62
256
370
-1
100
AcDbCircle
10
-21.175015
20
13.885375
40
0.065
0
CIRCLE
5
11A
100
AcDbEntity
8
0
6
ByLayer
62
256
370
-1
100
AcDbCircle
10
-34.374775
20
9.966575
40
0.065
0
CIRCLE
5
11B
100
AcDbEntity
8
0
6
ByLayer
62
256
370
-1
100
AcDbCircle
10
-29.424865
20
9.054775
40
0.065
0
CIRCLE
5
11C
100
AcDbEntity
8
0
6
ByLayer
62
256
370
-1
100
AcDbCircle
10
-27.774895
20
8.860775
40
0.065
0
CIRCLE
5
11D
100
AcDbEntity
8
0
6
ByLayer
62
256
370
-1
100
AcDbCircle
10
-35.74975
20
10.286675
40
0.065
0
CIRCLE
5
11E
100
AcDbEntity
8
0
6
ByLayer
62
256
370
-1
100
AcDbCircle
10
-31.074835
20
9.306975
40
0.065
0
CIRCLE
5
11F
100
AcDbEntity
8
0
6
ByLayer
62
256
370
-1
100
AcDbCircle
10
-26.124925
20
8.715275
40
0.065
0
CIRCLE
5
120
100
AcDbEntity
8
0
6
ByLayer
62
256
370
-1
100
AcDbCircle
10
-24.474955
20
8.618275
40
0.065
0
CIRCLE
5
121
100
AcDbEntity
8
0
6
ByLayer
62
256
370
-1
100
AcDbCircle
10
-22.824985
20
8.569775
40
0.065
0
CIRCLE
5
122
100
AcDbEntity
8
0
6
ByLayer
62
256
370
-1
100
AcDbCircle
10
-11.269795
20
9.60755
40
0.07
0
CIRCLE
5
123
100
AcDbEntity
8
0
6
ByLayer
62
256
370
-1
100
AcDbCircle
10
-9.625225
20
9.966575
40
0.065
0
CIRCLE
5
124
100
AcDbEntity
8
0
6
ByLayer
62
256
370
-1
100
AcDbCircle
10
-14.575135
20
9.054775
40
0.065
0
CIRCLE
5
125
100
AcDbEntity
8
0
6
ByLayer
62
256
370
-1
100
AcDbCircle
10
-16.225105
20
8.860775
40
0.065
0
CIRCLE
5
126
100
AcDbEntity
8
0
6
ByLayer
62
256
370
-1
100
AcDbCircle
10
-8.25025
20
10.286675
40
0.065
0
CIRCLE
5
127
100
AcDbEntity
8
0
6
ByLayer
62
256
370
-1
100
AcDbCircle
10
-12.925165
20
9.306975
40
0.065
0
CIRCLE
5
128
100
AcDbEntity
8
0
6
ByLayer
62
256
370
-1
100
AcDbCircle
10
-17.875075
20
8.715275
40
0.065
0
CIRCLE
5
129
100
AcDbEntity
8
0
6
ByLayer
62
256
370
-1
100
AcDbCircle
10
-19.525045
20
8.618275
40
0.065
0
CIRCLE
5
12A
100
AcDbEntity
8
0
6
ByLayer
62
256
370
-1
100
AcDbCircle
10
-21.175015
20
8.569775
40
0.065
0
CIRCLE
5
12B
100
AcDbEntity
8
0
6
ByLayer
62
256
370
-1
100
AcDbCircle
10
34.374775
20
5.23295999997
40
0.065
0
CIRCLE
5
12C
100
AcDbEntity
8
0
6
ByLayer
62
256
370
-1
100
AcDbCircle
10
36.796
20
5.83638499997
40
0.065
0
CIRCLE
5
12D
100
AcDbEntity
8
0
6
ByLayer
62
256
370
-1
100
AcDbCircle
10
24.474955
20
3.88465999997
40
0.065
0
CIRCLE
5
12E
100
AcDbEntity
8
0
6
ByLayer
62
256
370
-1
100
AcDbCircle
10
26.124925
20
3.98165999997
40
0.065
0
CIRCLE
5
12F
100
AcDbEntity
8
0
6
ByLayer
62
256
370
-1
100
AcDbCircle
10
27.774895
20
4.12715999997
40
0.065
0
CIRCLE
5
130
100
AcDbEntity
8
0
6
ByLayer
62
256
370
-1
100
AcDbCircle
10
29.424865
20
4.32115999997
40
0.065
0
CIRCLE
5
131
100
AcDbEntity
8
0
6
ByLayer
62
256
370
-1
100
AcDbCircle
10
31.074835
20
4.57335999997
40
0.065
0
CIRCLE
5
132
100
AcDbEntity
8
0
6
ByLayer
62
256
370
-1
100
AcDbCircle
10
22.824985
20
3.83615999997
40
0.065
0
CIRCLE
5
133
100
AcDbEntity
8
0
6
ByLayer
62
256
370
-1
100
AcDbCircle
10
35.74975
20
5.55305999997
40
0.065
0
CIRCLE
5
134
100
AcDbEntity
8
0
6
ByLayer
62
256
370
-1
100
AcDbCircle
10
32.724805
20
4.87405999997
40
0.065
0
CIRCLE
5
135
100
AcDbEntity
8
0
6
ByLayer
62
256
370
-1
100
AcDbCircle
10
26.124925
20
1.51785999997
40
0.065
0
CIRCLE
5
136
100
AcDbEntity
8
0
6
ByLayer
62
256
370
-1
100
AcDbCircle
10
27.774895
20
1.65365999997
40
0.065
0
CIRCLE
5
137
100
AcDbEntity
8
0
6
ByLayer
62
256
370
-1
100
AcDbCircle
10
29.424865
20
1.84765999997
40
0.065
0
CIRCLE
5
138
100
AcDbEntity
8
0
6
ByLayer
62
256
370
-1
100
AcDbCircle
10
31.074835
20
2.08045999997
40
0.065
0
CIRCLE
5
139
100
AcDbEntity
8
0
6
ByLayer
62
256
370
-1
100
AcDbCircle
10
32.724805
20
2.37145999997
40
0.065
0
CIRCLE
5
13A
100
AcDbEntity
8
0
6
ByLayer
62
256
370
-1
100
AcDbCircle
10
24.474955
20
1.42085999997
40
0.065
0
CIRCLE
5
13B
100
AcDbEntity
8
0
6
ByLayer
62
256
370
-1
100
AcDbCircle
10
22.824985
20
1.37235999997
40
0.065
0
CIRCLE
5
13C
100
AcDbEntity
8
0
6
ByLayer
62
256
370
-1
100
AcDbCircle
10
11.269795
20
9.90755
40
0.07
0
CIRCLE
5
13D
100
AcDbEntity
8
0
6
ByLayer
62
256
370
-1
100
AcDbCircle
10
9.625225
20
10.266575
40
0.065
0
CIRCLE
5
13E
100
AcDbEntity
8
0
6
ByLayer
62
256
370
-1
100
AcDbCircle
10
14.575135
20
9.354775
40
0.065
0
CIRCLE
5
13F
100
AcDbEntity
8
0
6
ByLayer
62
256
370
-1
100
AcDbCircle
10
16.225105
20
9.160775
40
0.065
0
CIRCLE
5
140
100
AcDbEntity
8
0
6
ByLayer
62
256
370
-1
100
AcDbCircle
10
8.25025
20
10.586675
40
0.065
0
CIRCLE
5
141
100
AcDbEntity
8
0
6
ByLayer
62
256
370
-1
100
AcDbCircle
10
12.925165
20
9.606975
40
0.065
0
CIRCLE
5
142
100
AcDbEntity
8
0
6
ByLayer
62
256
370
-1
100
AcDbCircle
10
17.875075
20
9.015275
40
0.065
0
CIRCLE
5
143
100
AcDbEntity
8
0
6
ByLayer
62
256
370
-1
100
AcDbCircle
10
19.525045
20
8.918275
40
0.065
0
CIRCLE
5
144
100
AcDbEntity
8
0
6
ByLayer
62
256
370
-1
100
AcDbCircle
10
21.175015
20
8.869775
40
0.065
0
CIRCLE
5
145
100
AcDbEntity
8
0
6
ByLayer
62
256
370
-1
100
AcDbCircle
10
32.730205
20
9.90755
40
0.07
0
CIRCLE
5
146
100
AcDbEntity
8
0
6
ByLayer
62
256
370
-1
100
AcDbCircle
10
34.374775
20
10.266575
40
0.065
0
CIRCLE
5
147
100
AcDbEntity
8
0
6
ByLayer
62
256
370
-1
100
AcDbCircle
10
29.424865
20
9.354775
40
0.065
0
CIRCLE
5
148
100
AcDbEntity
8
0
6
ByLayer
62
256
370
-1
100
AcDbCircle
10
27.774895
20
9.160775
40
0.065
0
CIRCLE
5
149
100
AcDbEntity
8
0
6
ByLayer
62
256
370
-1
100
AcDbCircle
10
35.74975
20
10.586675
40
0.065
0
CIRCLE
5
14A
100
AcDbEntity
8
0
6
ByLayer
62
256
370
-1
100
AcDbCircle
10
31.074835
20
9.606975
40
0.065
0
CIRCLE
5
14B
100
AcDbEntity
8
0
6
ByLayer
62
256
370
-1
100
AcDbCircle
10
26.124925
20
9.015275
40
0.065
0
CIRCLE
5
14C
100
AcDbEntity
8
0
6
ByLayer
62
256
370
-1
100
AcDbCircle
10
24.474955
20
8.918275
40
0.065
0
CIRCLE
5
14D
100
AcDbEntity
8
0
6
ByLayer
62
256
370
-1
100
AcDbCircle
10
22.824985
20
8.869775
40
0.065
0
CIRCLE
5
14E
100
AcDbEntity
8
0
6
ByLayer
62
256
370
-1
100
AcDbCircle
10
11.275195
20
14.784
40
0.065
0
CIRCLE
5
14F
100
AcDbEntity
8
0
6
ByLayer
62
256
370
-1
100
AcDbCircle
10
16.225105
20
14.0565
40
0.065
0
CIRCLE
5
150
100
AcDbEntity
8
0
6
ByLayer
62
256
370
-1
100
AcDbCircle
10
17.875075
20
13.911
40
0.065
0
CIRCLE
5
151
100
AcDbEntity
8
0
6
ByLayer
62
256
370
-1
100
AcDbCircle
10
12.925165
20
14.493
40
0.065
0
CIRCLE
5
152
100
AcDbEntity
8
0
6
ByLayer
62
256
370
-1
100
AcDbCircle
10
9.6362248
20
15.1235
40
0.065
0
CIRCLE
5
153
100
AcDbEntity
8
0
6
ByLayer
62
256
370
-1
100
AcDbCircle
10
14.575135
20
14.2505
40
0.065
0
CIRCLE
5
154
100
AcDbEntity
8
0
6
ByLayer
62
256
370
-1
100
AcDbCircle
10
19.525045
20
13.814
40
0.065
0
CIRCLE
5
155
100
AcDbEntity
8
0
6
ByLayer
62
256
370
-1
100
AcDbCircle
10
21.175015
20
13.7655
40
0.065
0
CIRCLE
5
156
100
AcDbEntity
8
0
6
ByLayer
62
256
370
-1
100
AcDbCircle
10
32.724805
20
14.784
40
0.065
0
CIRCLE
5
157
100
AcDbEntity
8
0
6
ByLayer
62
256
370
-1
100
AcDbCircle
10
27.774895
20
14.0565
40
0.065
0
CIRCLE
5
158
100
AcDbEntity
8
0
6
ByLayer
62
256
370
-1
100
AcDbCircle
10
26.124925
20
13.911
40
0.065
0
CIRCLE
5
159
100
AcDbEntity
8
0
6
ByLayer
62
256
370
-1
100
AcDbCircle
10
31.074835
20
14.493
40
0.065
0
CIRCLE
5
15A
100
AcDbEntity
8
0
6
ByLayer
62
256
370
-1
100
AcDbCircle
10
34.3637752
20
15.1235
40
0.065
0
CIRCLE
5
15B
100
AcDbEntity
8
0
6
ByLayer
62
256
370
-1
100
AcDbCircle
10
29.424865
20
14.2505
40
0.065
0
CIRCLE
5
15C
100
AcDbEntity
8
0
6
ByLayer
62
256
370
-1
100
AcDbCircle
10
24.474955
20
13.814
40
0.065
0
CIRCLE
5
15D
100
AcDbEntity
8
0
6
ByLayer
62
256
370
-1
100
AcDbCircle
10
22.824985
20
13.7655
40
0.065
0
CIRCLE
5
15E
100
AcDbEntity
8
0
6
ByLayer
62
256
370
-1
100
AcDbCircle
10
12.925165
20
19.7892
40
0.065
0
CIRCLE
5
15F
100
AcDbEntity
8
0
6
ByLayer
62
256
370
-1
100
AcDbCircle
10
17.875075
20
19.1878
40
0.065
0
CIRCLE
5
160
100
AcDbEntity
8
0
6
ByLayer
62
256
370
-1
100
AcDbCircle
10
19.525045
20
19.0908
40
0.065
0
CIRCLE
5
161
100
AcDbEntity
8
0
6
ByLayer
62
256
370
-1
100
AcDbCircle
10
10.45021
20
20.2257
40
0.065
0
CIRCLE
5
162
100
AcDbEntity
8
0
6
ByLayer
62
256
370
-1
100
AcDbCircle
10
14.575135
20
19.537
40
0.065
0
CIRCLE
5
163
100
AcDbEntity
8
0
6
ByLayer
62
256
370
-1
100
AcDbCircle
10
11.275195
20
20.0899
40
0.065
0
CIRCLE
5
164
100
AcDbEntity
8
0
6
ByLayer
62
256
370
-1
100
AcDbCircle
10
16.225105
20
19.343
40
0.065
0
CIRCLE
5
165
100
AcDbEntity
8
0
6
ByLayer
62
256
370
-1
100
AcDbCircle
10
21.175015
20
19.0132
40
0.065
0
CIRCLE
5
166
100
AcDbEntity
8
0
6
ByLayer
62
256
370
-1
100
AcDbCircle
10
31.074835
20
19.7892
40
0.065
0
CIRCLE
5
167
100
AcDbEntity
8
0
6
ByLayer
62
256
370
-1
100
AcDbCircle
10
26.124925
20
19.1878
40
0.065
0
CIRCLE
5
168
100
AcDbEntity
8
0
6
ByLayer
62
256
370
-1
100
AcDbCircle
10
24.474955
20
19.0908
40
0.065
0
CIRCLE
5
169
100
AcDbEntity
8
0
6
ByLayer
62
256
370
-1
100
AcDbCircle
10
33.54979
20
20.2257
40
0.065
0
CIRCLE
5
16A
100
AcDbEntity
8
0
6
ByLayer
62
256
370
-1
100
AcDbCircle
10
29.424865
20
19.537
40
0.065
0
CIRCLE
5
16B
100
AcDbEntity
8
0
6
ByLayer
62
256
370
-1
100
AcDbCircle
10
32.724805
20
20.0899
40
0.065
0
CIRCLE
5
16C
100
AcDbEntity
8
0
6
ByLayer
62
256
370
-1
100
AcDbCircle
10
27.774895
20
19.343
40
0.065
0
CIRCLE
5
16D
100
AcDbEntity
8
0
6
ByLayer
62
256
370
-1
100
AcDbCircle
10
22.824985
20
19.0132
40
0.065
0
CIRCLE
5
16E
100
AcDbEntity
8
0
6
ByLayer
62
256
370
-1
100
AcDbCircle
10
14.8946
20
23.449875
40
0.065
0
CIRCLE
5
16F
100
AcDbEntity
8
0
6
ByLayer
62
256
370
-1
100
AcDbCircle
10
19.6348
20
23.45
40
0.065
0
CIRCLE
5
170
100
AcDbEntity
8
0
6
ByLayer
62
256
370
-1
100
AcDbCircle
10
21.2116
20
23.45
40
0.065
0
CIRCLE
5
171
100
AcDbEntity
8
0
6
ByLayer
62
256
370
-1
100
AcDbCircle
10
11.7508
20
23.45
40
0.065
0
CIRCLE
5
172
100
AcDbEntity
8
0
6
ByLayer
62
256
370
-1
100
AcDbCircle
10
16.4812
20
23.45
40
0.065
0
CIRCLE
5
173
100
AcDbEntity
8
0
6
ByLayer
62
256
370
-1
100
AcDbCircle
10
18.058
20
23.45
40
0.065
0
CIRCLE
5
174
100
AcDbEntity
8
0
6
ByLayer
62
256
370
-1
100
AcDbCircle
10
29.1054
20
23.449875
40
0.065
0
CIRCLE
5
175
100
AcDbEntity
8
0
6
ByLayer
62
256
370
-1
100
AcDbCircle
10
24.3652
20
23.45
40
0.065
0
CIRCLE
5
176
100
AcDbEntity
8
0
6
ByLayer
62
256
370
-1
100
AcDbCircle
10
22.7884
20
23.45
40
0.065
0
CIRCLE
5
177
100
AcDbEntity
8
0
6
ByLayer
62
256
370
-1
100
AcDbCircle
10
32.2492
20
23.45
40
0.065
0
CIRCLE
5
178
100
AcDbEntity
8
0
6
ByLayer
62
256
370
-1
100
AcDbCircle
10
27.5188
20
23.45
40
0.065
0
CIRCLE
5
179
100
AcDbEntity
8
0
6
ByLayer
62
256
370
-1
100
AcDbCircle
10
25.942
20
23.45
40
0.065
0
CIRCLE
5
17A
100
AcDbEntity
8
0
6
ByLayer
62
256
370
-1
100
AcDbCircle
10
13.3276
20
23.45
40
0.07
0
CIRCLE
5
17B
100
AcDbEntity
8
0
6
ByLayer
62
256
370
-1
100
AcDbCircle
10
30.6724
20
23.45
40
0.07
0
CIRCLE
5
17C
100
AcDbEntity
8
0
6
ByLayer
62
256
370
-1
100
AcDbCircle
10
10.45021
20
26.2882
40
0.065
0
CIRCLE
5
17D
100
AcDbEntity
8
0
6
ByLayer
62
256
370
-1
100
AcDbCircle
10
11.275195
20
26.3612393257
40
0.065
0
CIRCLE
5
17E
100
AcDbEntity
8
0
6
ByLayer
62
256
370
-1
100
AcDbCircle
10
12.925165
20
26.5228229357
40
0.065
0
CIRCLE
5
17F
100
AcDbEntity
8
0
6
ByLayer
62
256
370
-1
100
AcDbCircle
10
14.575135
20
26.6346609824
40
0.065
0
CIRCLE
5
180
100
AcDbEntity
8
0
6
ByLayer
62
256
370
-1
100
AcDbCircle
10
16.225105
20
26.7321149358
40
0.065
0
CIRCLE
5
181
100
AcDbEntity
8
0
6
ByLayer
62
256
370
-1
100
AcDbCircle
10
17.875075
20
26.8566798081
40
0.065
0
CIRCLE
5
182
100
AcDbEntity
8
0
6
ByLayer
62
256
370
-1
100
AcDbCircle
10
19.525045
20
26.8510417941
40
0.065
0
CIRCLE
5
183
100
AcDbEntity
8
0
6
ByLayer
62
256
370
-1
100
AcDbCircle
10
21.175015
20
26.889307612
40
0.065
0
CIRCLE
5
184
100
AcDbEntity
8
0
6
ByLayer
62
256
370
-1
100
AcDbCircle
10
33.54979
20
26.2882
40
0.065
0
CIRCLE
5
185
100
AcDbEntity
8
0
6
ByLayer
62
256
370
-1
100
AcDbCircle
10
32.724805
20
26.3612393257
40
0.065
0
CIRCLE
5
186
100
AcDbEntity
8
0
6
ByLayer
62
256
370
-1
100
AcDbCircle
10
31.074835
20
26.5228229357
40
0.065
0
CIRCLE
5
187
100
AcDbEntity
8
0
6
ByLayer
62
256
370
-1
100
AcDbCircle
10
29.424865
20
26.6346609824
40
0.065
0
CIRCLE
5
188
100
AcDbEntity
8
0
6
ByLayer
62
256
370
-1
100
AcDbCircle
10
27.774895
20
26.7321149358
40
0.065
0
CIRCLE
5
189
100
AcDbEntity
8
0
6
ByLayer
62
256
370
-1
100
AcDbCircle
10
26.124925
20
26.8566798081
40
0.065
0
CIRCLE
5
18A
100
AcDbEntity
8
0
6
ByLayer
62
256
370
-1
100
AcDbCircle
10
24.474955
20
26.8510417941
40
0.065
0
CIRCLE
5
18B
100
AcDbEntity
8
0
6
ByLayer
62
256
370
-1
100
AcDbCircle
10
22.824985
20
26.889307612
40
0.065
0
CIRCLE
5
18C
100
AcDbEntity
8
0
6
ByLayer
62
256
370
-1
100
AcDbCircle
10
9.90022
20
31.6329
40
0.065
0
CIRCLE
5
18D
100
AcDbEntity
8
0
6
ByLayer
62
256
370
-1
100
AcDbCircle
10
11.275195
20
31.78
40
0.065
0
CIRCLE
5
18E
100
AcDbEntity
8
0
6
ByLayer
62
256
370
-1
100
AcDbCircle
10
12.925165
20
31.93
40
0.065
0
CIRCLE
5
18F
100
AcDbEntity
8
0
6
ByLayer
62
256
370
-1
100
AcDbCircle
10
14.575135
20
32.04
40
0.065
0
CIRCLE
5
190
100
AcDbEntity
8
0
6
ByLayer
62
256
370
-1
100
AcDbCircle
10
17.875075
20
32.19
40
0.065
0
CIRCLE
5
191
100
AcDbEntity
8
0
6
ByLayer
62
256
370
-1
100
AcDbCircle
10
16.225105
20
32.14
40
0.065
0
CIRCLE
5
192
100
AcDbEntity
8
0
6
ByLayer
62
256
370
-1
100
AcDbCircle
10
19.525045
20
32.24
40
0.065
0
CIRCLE
5
193
100
AcDbEntity
8
0
6
ByLayer
62
256
370
-1
100
AcDbCircle
10
21.175015
20
32.26
40
0.065
0
CIRCLE
5
194
100
AcDbEntity
8
0
6
ByLayer
62
256
370
-1
100
AcDbCircle
10
34.09978
20
31.6329
40
0.065
0
CIRCLE
5
195
100
AcDbEntity
8
0
6
ByLayer
62
256
370
-1
100
AcDbCircle
10
32.724805
20
31.78
40
0.065
0
CIRCLE
5
196
100
AcDbEntity
8
0
6
ByLayer
62
256
370
-1
100
AcDbCircle
10
31.074835
20
31.93
40
0.065
0
CIRCLE
5
197
100
AcDbEntity
8
0
6
ByLayer
62
256
370
-1
100
AcDbCircle
10
29.424865
20
32.04
40
0.065
0
CIRCLE
5
198
100
AcDbEntity
8
0
6
ByLayer
62
256
370
-1
100
AcDbCircle
10
26.124925
20
32.19
40
0.065
0
CIRCLE
5
199
100
AcDbEntity
8
0
6
ByLayer
62
256
370
-1
100
AcDbCircle
10
27.774895
20
32.14
40
0.065
0
CIRCLE
5
19A
100
AcDbEntity
8
0
6
ByLayer
62
256
370
-1
100
AcDbCircle
10
24.474955
20
32.24
40
0.065
0
CIRCLE
5
19B
100
AcDbEntity
8
0
6
ByLayer
62
256
370
-1
100
AcDbCircle
10
22.824985
20
32.26
40
0.065
0
CIRCLE
5
19C
100
AcDbEntity
8
0
6
ByLayer
62
256
370
-1
100
AcDbCircle
10
9.625225
20
36.8515
40
0.065
0
CIRCLE
5
19D
100
AcDbEntity
8
0
6
ByLayer
62
256
370
-1
100
AcDbCircle
10
11.275195
20
36.997
40
0.065
0
CIRCLE
5
19E
100
AcDbEntity
8
0
6
ByLayer
62
256
370
-1
100
AcDbCircle
10
12.925165
20
37.1231
40
0.065
0
CIRCLE
5
19F
100
AcDbEntity
8
0
6
ByLayer
62
256
370
-1
100
AcDbCircle
10
14.575135
20
37.2201
40
0.065
0
CIRCLE
5
1A0
100
AcDbEntity
8
0
6
ByLayer
62
256
370
-1
100
AcDbCircle
10
17.875075
20
37.3656
40
0.065
0
CIRCLE
5
1A1
100
AcDbEntity
8
0
6
ByLayer
62
256
370
-1
100
AcDbCircle
10
16.225105
20
37.3268
40
0.065
0
CIRCLE
5
1A2
100
AcDbEntity
8
0
6
ByLayer
62
256
370
-1
100
AcDbCircle
10
19.525045
20
37.4238
40
0.065
0
CIRCLE
5
1A3
100
AcDbEntity
8
0
6
ByLayer
62
256
370
-1
100
AcDbCircle
10
21.175015
20
37.4238
40
0.065
0
CIRCLE
5
1A4
100
AcDbEntity
8
0
6
ByLayer
62
256
370
-1
100
AcDbCircle
10
31.074835
20
37.8215
40
0.07
0
CIRCLE
5
1A5
100
AcDbEntity
8
0
6
ByLayer
62
256
370
-1
100
AcDbCircle
10
34.374775
20
36.8515
40
0.065
0
CIRCLE
5
1A6
100
AcDbEntity
8
0
6
ByLayer
62
256
370
-1
100
AcDbCircle
10
32.724805
20
36.997
40
0.065
0
CIRCLE
5
1A7
100
AcDbEntity
8
0
6
ByLayer
62
256
370
-1
100
AcDbCircle
10
31.074835
20
37.1231
40
0.065
0
CIRCLE
5
1A8
100
AcDbEntity
8
0
6
ByLayer
62
256
370
-1
100
AcDbCircle
10
29.424865
20
37.2201
40
0.065
0
CIRCLE
5
1A9
100
AcDbEntity
8
0
6
ByLayer
62
256
370
-1
100
AcDbCircle
10
26.124925
20
37.3656
40
0.065
0
CIRCLE
5
1AA
100
AcDbEntity
8
0
6
ByLayer
62
256
370
-1
100
AcDbCircle
10
27.774895
20
37.3268
40
0.065
0
CIRCLE
5
1AB
100
AcDbEntity
8
0
6
ByLayer
62
256
370
-1
100
AcDbCircle
10
24.474955
20
37.4238
40
0.065
0
CIRCLE
5
1AC
100
AcDbEntity
8
0
6
ByLayer
62
256
370
-1
100
AcDbCircle
10
22.824985
20
37.4238
40
0.065
0
CIRCLE
5
1AD
100
AcDbEntity
8
0
6
ByLayer
62
256
370
-1
100
AcDbCircle
10
11.7261868
20
41.8955
40
0.065
0
CIRCLE
5
1AE
100
AcDbEntity
8
0
6
ByLayer
62
256
370
-1
100
AcDbCircle
10
12.925165
20
41.9731
40
0.065
0
CIRCLE
5
1AF
100
AcDbEntity
8
0
6
ByLayer
62
256
370
-1
100
AcDbCircle
10
14.575135
20
42.0507
40
0.065
0
CIRCLE
5
1B0
100
AcDbEntity
8
0
6
ByLayer
62
256
370
-1
100
AcDbCircle
10
17.875075
20
42.1671
40
0.065
0
CIRCLE
5
1B1
100
AcDbEntity
8
0
6
ByLayer
62
256
370
-1
100
AcDbCircle
10
16.225105
20
42.1186
40
0.065
0
CIRCLE
5
1B2
100
AcDbEntity
8
0
6
ByLayer
62
256
370
-1
100
AcDbCircle
10
19.525045
20
42.1962
40
0.065
0
CIRCLE
5
1B3
100
AcDbEntity
8
0
6
ByLayer
62
256
370
-1
100
AcDbCircle
10
21.175015
20
42.2156
40
0.065
0
CIRCLE
5
1B4
100
AcDbEntity
8
0
6
ByLayer
62
256
370
-1
100
AcDbCircle
10
32.2738132
20
41.8955
40
0.065
0
CIRCLE
5
1B5
100
AcDbEntity
8
0
6
ByLayer
62
256
370
-1
100
AcDbCircle
10
31.074835
20
41.9731
40
0.065
0
CIRCLE
5
1B6
100
AcDbEntity
8
0
6
ByLayer
62
256
370
-1
100
AcDbCircle
10
29.424865
20
42.0507
40
0.065
0
CIRCLE
5
1B7
100
AcDbEntity
8
0
6
ByLayer
62
256
370
-1
100
AcDbCircle
10
26.124925
20
42.1671
40
0.065
0
CIRCLE
5
1B8
100
AcDbEntity
8
0
6
ByLayer
62
256
370
-1
100
AcDbCircle
10
27.774895
20
42.1186
40
0.065
0
CIRCLE
5
1B9
100
AcDbEntity
8
0
6
ByLayer
62
256
370
-1
100
AcDbCircle
10
24.474955
20
42.1962
40
0.065
0
CIRCLE
5
1BA
100
AcDbEntity
8
0
6
ByLayer
62
256
370
-1
100
AcDbCircle
10
22.824985
20
42.2156
40
0.065
0
CIRCLE
5
1BB
100
AcDbEntity
8
0
6
ByLayer
62
256
370
-1
100
AcDbCircle
10
12.925165
20
46.4933
40
0.065
0
CIRCLE
5
1BC
100
AcDbEntity
8
0
6
ByLayer
62
256
370
-1
100
AcDbCircle
10
14.575135
20
46.5515
40
0.065
0
CIRCLE
5
1BD
100
AcDbEntity
8
0
6
ByLayer
62
256
370
-1
100
AcDbCircle
10
17.875075
20
46.6388
40
0.065
0
CIRCLE
5
1BE
100
AcDbEntity
8
0
6
ByLayer
62
256
370
-1
100
AcDbCircle
10
16.225105
20
46.6
40
0.065
0
CIRCLE
5
1BF
100
AcDbEntity
8
0
6
ByLayer
62
256
370
-1
100
AcDbCircle
10
19.525045
20
46.6582
40
0.065
0
CIRCLE
5
1C0
100
AcDbEntity
8
0
6
ByLayer
62
256
370
-1
100
AcDbCircle
10
21.175015
20
46.6776
40
0.065
0
CIRCLE
5
1C1
100
AcDbEntity
8
0
6
ByLayer
62
256
370
-1
100
AcDbCircle
10
31.074835
20
46.4933
40
0.065
0
CIRCLE
5
1C2
100
AcDbEntity
8
0
6
ByLayer
62
256
370
-1
100
AcDbCircle
10
29.424865
20
46.5515
40
0.065
0
CIRCLE
5
1C3
100
AcDbEntity
8
0
6
ByLayer
62
256
370
-1
100
AcDbCircle
10
26.124925
20
46.6388
40
0.065
0
CIRCLE
5
1C4
100
AcDbEntity
8
0
6
ByLayer
62
256
370
-1
100
AcDbCircle
10
27.774895
20
46.6
40
0.065
0
CIRCLE
5
1C5
100
AcDbEntity
8
0
6
ByLayer
62
256
370
-1
100
AcDbCircle
10
24.474955
20
46.6582
40
0.065
0
CIRCLE
5
1C6
100
AcDbEntity
8
0
6
ByLayer
62
256
370
-1
100
AcDbCircle
10
22.824985
20
46.6776
40
0.065
0
CIRCLE
5
1C7
100
AcDbEntity
8
0
6
ByLayer
62
256
370
-1
100
AcDbCircle
10
14.575135
20
52.0611
40
0.065
0
CIRCLE
5
1C8
100
AcDbEntity
8
0
6
ByLayer
62
256
370
-1
100
AcDbCircle
10
17.875075
20
51.5955
40
0.065
0
CIRCLE
5
1C9
100
AcDbEntity
8
0
6
ByLayer
62
256
370
-1
100
AcDbCircle
10
16.225105
20
51.7992
40
0.065
0
CIRCLE
5
1CA
100
AcDbEntity
8
0
6
ByLayer
62
256
370
-1
100
AcDbCircle
10
21.175015
20
51.3918
40
0.065
0
CIRCLE
5
1CB
100
AcDbEntity
8
0
6
ByLayer
62
256
370
-1
100
AcDbCircle
10
19.525045
20
51.4985
40
0.065
0
CIRCLE
5
1CC
100
AcDbEntity
8
0
6
ByLayer
62
256
370
-1
100
AcDbCircle
10
29.424865
20
52.0611
40
0.065
0
CIRCLE
5
1CD
100
AcDbEntity
8
0
6
ByLayer
62
256
370
-1
100
AcDbCircle
10
26.124925
20
51.5955
40
0.065
0
CIRCLE
5
1CE
100
AcDbEntity
8
0
6
ByLayer
62
256
370
-1
100
AcDbCircle
10
27.774895
20
51.7992
40
0.065
0
CIRCLE
5
1CF
100
AcDbEntity
8
0
6
ByLayer
62
256
370
-1
100
AcDbCircle
10
22.824985
20
51.3918
40
0.065
0
CIRCLE
5
1D0
100
AcDbEntity
8
0
6
ByLayer
62
256
370
-1
100
AcDbCircle
10
24.474955
20
51.4985
40
0.065
0
CIRCLE
5
1D1
100
AcDbEntity
8
0
6
ByLayer
62
256
370
-1
100
AcDbCircle
10
14.9931274
20
57.0566
40
0.065
0
CIRCLE
5
1D2
100
AcDbEntity
8
0
6
ByLayer
62
256
370
-1
100
AcDbCircle
10
17.875075
20
56.6201
40
0.065
0
CIRCLE
5
1D3
100
AcDbEntity
8
0
6
ByLayer
62
256
370
-1
100
AcDbCircle
10
16.225105
20
56.8335
40
0.065
0
CIRCLE
5
1D4
100
AcDbEntity
8
0
6
ByLayer
62
256
370
-1
100
AcDbCircle
10
21.175015
20
56.397
40
0.065
0
CIRCLE
5
1D5
100
AcDbEntity
8
0
6
ByLayer
62
256
370
-1
100
AcDbCircle
10
19.525045
20
56.4746
40
0.065
0
CIRCLE
5
1D6
100
AcDbEntity
8
0
6
ByLayer
62
256
370
-1
100
AcDbCircle
10
16.170106
20
59.404
40
0.065
0
CIRCLE
5
1D7
100
AcDbEntity
8
0
6
ByLayer
62
256
370
-1
100
AcDbCircle
10
18.3040672
20
58.9675
40
0.065
0
CIRCLE
5
1D8
100
AcDbEntity
8
0
6
ByLayer
62
256
370
-1
100
AcDbCircle
10
17.3140852
20
59.7726
40
0.065
0
CIRCLE
5
1D9
100
AcDbEntity
8
0
6
ByLayer
62
256
370
-1
100
AcDbCircle
10
21.175015
20
57.6774
40
0.065
0
CIRCLE
5
1DA
100
AcDbEntity
8
0
6
ByLayer
62
256
370
-1
100
AcDbCircle
10
19.525045
20
58.1624
40
0.065
0
CIRCLE
5
1DB
100
AcDbEntity
8
0
6
ByLayer
62
256
370
-1
100
AcDbCircle
10
15.565117
20
58.24
40
0.065
0
CIRCLE
5
1DC
100
AcDbEntity
8
0
6
ByLayer
62
256
370
-1
100
AcDbCircle
10
26.94991
20
59.21
40
0.07
0
CIRCLE
5
1DD
100
AcDbEntity
8
0
6
ByLayer
62
256
370
-1
100
AcDbCircle
10
29.0068726
20
57.0566
40
0.065
0
CIRCLE
5
1DE
100
AcDbEntity
8
0
6
ByLayer
62
256
370
-1
100
AcDbCircle
10
26.124925
20
56.6201
40
0.065
0
CIRCLE
5
1DF
100
AcDbEntity
8
0
6
ByLayer
62
256
370
-1
100
AcDbCircle
10
27.774895
20
56.8335
40
0.065
0
CIRCLE
5
1E0
100
AcDbEntity
8
0
6
ByLayer
62
256
370
-1
100
AcDbCircle
10
22.824985
20
56.397
40
0.065
0
CIRCLE
5
1E1
100
AcDbEntity
8
0
6
ByLayer
62
256
370
-1
100
AcDbCircle
10
24.474955
20
56.4746
40
0.065
0
CIRCLE
5
1E2
100
AcDbEntity
8
0
6
ByLayer
62
256
370
-1
100
AcDbCircle
10
27.829894
20
59.404
40
0.065
0
CIRCLE
5
1E3
100
AcDbEntity
8
0
6
ByLayer
62
256
370
-1
100
AcDbCircle
10
25.6959328
20
58.9675
40
0.065
0
CIRCLE
5
1E4
100
AcDbEntity
8
0
6
ByLayer
62
256
370
-1
100
AcDbCircle
10
26.6859148
20
59.7726
40
0.065
0
CIRCLE
5
1E5
100
AcDbEntity
8
0
6
ByLayer
62
256
370
-1
100
AcDbCircle
10
22.824985
20
57.6774
40
0.065
0
CIRCLE
5
1E6
100
AcDbEntity
8
0
6
ByLayer
62
256
370
-1
100
AcDbCircle
10
24.474955
20
58.1624
40
0.065
0
CIRCLE
5
1E7
100
AcDbEntity
8
0
6
ByLayer
62
256
370
-1
100
AcDbCircle
10
28.434883
20
58.24
40
0.065
0
ELLIPSE
5
1E8
100
AcDbEntity
8
0
6
ByLayer
62
256
370
0
100
AcDbEllipse
10
22
20
46.266385
30
0
11
51.21781875
21
0
31
0
40
0.881834215168
41
4.71238898038
42
5.0222475253
0
LINE
5
1E9
100
AcDbEntity
8
0
6
ByLayer
62
256
370
0
100
AcDbLine
10
37.8
20
3.7
11
37.0783042437
21
5.93688244301
0
ARC
5
1EA
100
AcDbEntity
8
0
6
ByLayer
62
256
370
-1
100
AcDbCircle
10
37.4229154512
20
3.59219144806
40
0.392193116718
100
AcDbArc
50
299.751677368
51
15.9552441547
0
CIRCLE
5
1EB
100
AcDbEntity
8
0
6
ByLayer
62
256
370
-1
100
AcDbCircle
10
34.374775
20
2.70125999997
40
0.065
0
CIRCLE
5
1EC
100
AcDbEntity
8
0
6
ByLayer
62
256
370
-1
100
AcDbCircle
10
36
20
3.1
40
0.065
0
CIRCLE
5
1ED
100
AcDbEntity
8
0
6
ByLayer
62
256
370
-1
100
AcDbCircle
10
37.5
20
3.5
40
0.065
0
ELLIPSE
5
1EE
100
AcDbEntity
8
0
6
ByLayer
62
256
370
-1
100
AcDbEllipse
10
7.21056006895
20
5.81731939963
30
0
11
-0.319101466045
21
2.14228634832e-12
31
0
40
0.881834215168
41
4.37002034787
42
5.8443398523
0
ELLIPSE
5
1EF
100
AcDbEntity
8
0
6
ByLayer
62
256
370
-1
100
AcDbEllipse
10
21.9999999998
20
47.3721976906
30
0
11
-49.0706721811
21
3.29464455717e-10
31
0
40
0.881834215168
41
1.26693436648
42
1.5707963268
0
CIRCLE
5
1F0
100
AcDbEntity
8
0
6
ByLayer
62
256
370
-1
100
AcDbCircle
10
9.62522499955
20
5.23296000005
40
0.065
0
CIRCLE
5
1F1
100
AcDbEntity
8
0
6
ByLayer
62
256
370
-1
100
AcDbCircle
10
7.20399999955
20
5.83638500007
40
0.065
0
CIRCLE
5
1F2
100
AcDbEntity
8
0
6
ByLayer
62
256
370
-1
100
AcDbCircle
10
19.5250449995
20
3.88465999999
40
0.065
0
CIRCLE
5
1F3
100
AcDbEntity
8
0
6
ByLayer
62
256
370
-1
100
AcDbCircle
10
17.8750749995
20
3.98166
40
0.065
0
CIRCLE
5
1F4
100
AcDbEntity
8
0
6
ByLayer
62
256
370
-1
100
AcDbCircle
10
16.2251049995
20
4.12716000001
40
0.065
0
CIRCLE
5
1F5
100
AcDbEntity
8
0
6
ByLayer
62
256
370
-1
100
AcDbCircle
10
14.5751349995
20
4.32116000002
40
0.065
0
CIRCLE
5
1F6
100
AcDbEntity
8
0
6
ByLayer
62
256
370
-1
100
AcDbCircle
10
12.9251649995
20
4.57336000003
40
0.065
0
CIRCLE
5
1F7
100
AcDbEntity
8
0
6
ByLayer
62
256
370
-1
100
AcDbCircle
10
21.1750149995
20
3.83615999998
40
0.065
0
CIRCLE
5
1F8
100
AcDbEntity
8
0
6
ByLayer
62
256
370
-1
100
AcDbCircle
10
8.25024999955
20
5.55306000006
40
0.065
0
CIRCLE
5
1F9
100
AcDbEntity
8
0
6
ByLayer
62
256
370
-1
100
AcDbCircle
10
11.2751949995
20
4.87406000004
40
0.065
0
CIRCLE
5
1FA
100
AcDbEntity
8
0
6
ByLayer
62
256
370
-1
100
AcDbCircle
10
17.8750749995
20
1.51786
40
0.065
0
CIRCLE
5
1FB
100
AcDbEntity
8
0
6
ByLayer
62
256
370
-1
100
AcDbCircle
10
16.2251049995
20
1.65366000001
40
0.065
0
CIRCLE
5
1FC
100
AcDbEntity
8
0
6
ByLayer
62
256
370
-1
100
AcDbCircle
10
14.5751349995
20
1.84766000002
40
0.065
0
CIRCLE
5
1FD
100
AcDbEntity
8
0
6
ByLayer
62
256
370
-1
100
AcDbCircle
10
12.9251649995
20
2.08046000003
40
0.065
0
CIRCLE
5
1FE
100
AcDbEntity
8
0
6
ByLayer
62
256
370
-1
100
AcDbCircle
10
11.2751949995
20
2.37146000004
40
0.065
0
CIRCLE
5
1FF
100
AcDbEntity
8
0
6
ByLayer
62
256
370
-1
100
AcDbCircle
10
19.5250449995
20
1.42085999999
40
0.065
0
CIRCLE
5
200
100
AcDbEntity
8
0
6
ByLayer
62
256
370
-1
100
AcDbCircle
10
21.1750149995
20
1.37235999998
40
0.065
0
ELLIPSE
5
201
100
AcDbEntity
8
0
6
ByLayer
62
256
370
-1
100
AcDbEllipse
10
21.9999999998
20
46.266385
30
0
11
-51.21781875
21
3.43888473253e-10
31
0
40
0.881834215168
41
1.26093778188
42
1.5707963268
0
LINE
5
202
100
AcDbEntity
8
0
6
ByLayer
62
256
370
-1
100
AcDbLine
10
6.19999999954
20
3.70000000011
11
6.92169575585
21
5.93688244311
0
ARC
5
203
100
AcDbEntity
8
0
6
ByLayer
62
256
370
-1
100
AcDbCircle
10
6.57708454832
20
3.59219144816
40
0.392193116718
100
AcDbArc
50
164.044755845
51
240.248322632
0
CIRCLE
5
204
100
AcDbEntity
8
0
6
ByLayer
62
256
370
-1
100
AcDbCircle
10
9.62522499953
20
2.70126000005
40
0.065
0
CIRCLE
5
205
100
AcDbEntity
8
0
6
ByLayer
62
256
370
-1
100
AcDbCircle
10
7.99999999953
20
3.10000000009
40
0.065
0
CIRCLE
5
206
100
AcDbEntity
8
0
6
ByLayer
62
256
370
-1
100
AcDbCircle
10
6.49999999954
20
3.5000000001
40
0.065
0
ELLIPSE
5
207
100
AcDbEntity
8
0
6
ByLayer
62
256
370
-1
100
AcDbEllipse
10
-36.7894399306
20
5.81731939953
30
0
11
-0.319101466045
21
0
31
0
40
0.881834215168
41
4.37002034787
42
5.8443398523
0
ELLIPSE
5
208
100
AcDbEntity
8
0
6
ByLayer
62
256
370
-1
100
AcDbEllipse
10
-22
20
47.3721976906
30
0
11
-49.0706721811
21
0
31
0
40
0.881834215168
41
1.26693436648
42
1.5707963268
0
CIRCLE
5
209
100
AcDbEntity
8
0
6
ByLayer
62
256
370
-1
100
AcDbCircle
10
-34.374775
20
5.23295999997
40
0.065
0
CIRCLE
5
20A
100
AcDbEntity
8
0
6
ByLayer
62
256
370
-1
100
AcDbCircle
10
-36.796
20
5.83638499997
40
0.065
0
CIRCLE
5
20B
100
AcDbEntity
8
0
6
ByLayer
62
256
370
-1
100
AcDbCircle
10
-24.474955
20
3.88465999997
40
0.065
0
CIRCLE
5
20C
100
AcDbEntity
8
0
6
ByLayer
62
256
370
-1
100
AcDbCircle
10
-26.124925
20
3.98165999997
40
0.065
0
CIRCLE
5
20D
100
AcDbEntity
8
0
6
ByLayer
62
256
370
-1
100
AcDbCircle
10
-27.774895
20
4.12715999997
40
0.065
0
CIRCLE
5
20E
100
AcDbEntity
8
0
6
ByLayer
62
256
370
-1
100
AcDbCircle
10
-29.424865
20
4.32115999997
40
0.065
0
CIRCLE
5
20F
100
AcDbEntity
8
0
6
ByLayer
62
256
370
-1
100
AcDbCircle
10
-31.074835
20
4.57335999997
40
0.065
0
CIRCLE
5
210
100
AcDbEntity
8
0
6
ByLayer
62
256
370
-1
100
AcDbCircle
10
-22.824985
20
3.83615999997
40
0.065
0
CIRCLE
5
211
100
AcDbEntity
8
0
6
ByLayer
62
256
370
-1
100
AcDbCircle
10
-35.74975
20
5.55305999997
40
0.065
0
CIRCLE
5
212
100
AcDbEntity
8
0
6
ByLayer
62
256
370
-1
100
AcDbCircle
10
-32.724805
20
4.87405999997
40
0.065
0
CIRCLE
5
213
100
AcDbEntity
8
0
6
ByLayer
62
256
370
-1
100
AcDbCircle
10
-26.124925
20
1.51785999997
40
0.065
0
CIRCLE
5
214
100
AcDbEntity
8
0
6
ByLayer
62
256
370
-1
100
AcDbCircle
10
-27.774895
20
1.65365999997
40
0.065
0
CIRCLE
5
215
100
AcDbEntity
8
0
6
ByLayer
62
256
370
-1
100
AcDbCircle
10
-29.424865
20
1.84765999997
40
0.065
0
CIRCLE
5
216
100
AcDbEntity
8
0
6
ByLayer
62
256
370
-1
100
AcDbCircle
10
-31.074835
20
2.08045999997
40
0.065
0
CIRCLE
5
217
100
AcDbEntity
8
0
6
ByLayer
62
256
370
-1
100
AcDbCircle
10
-32.724805
20
2.37145999997
40
0.065
0
CIRCLE
5
218
100
AcDbEntity
8
0
6
ByLayer
62
256
370
-1
100
AcDbCircle
10
-24.474955
20
1.42085999997
40
0.065
0
CIRCLE
5
219
100
AcDbEntity
8
0
6
ByLayer
62
256
370
-1
100
AcDbCircle
10
-22.824985
20
1.37235999997
40
0.065
0
ELLIPSE
5
21A
100
AcDbEntity
8
0
6
ByLayer
62
256
370
-1
100
AcDbEllipse
10
-22
20
46.266385
30
0
11
-51.21781875
21
0
31
0
40
0.881834215168
41
1.26093778188
42
1.5707963268
0
LINE
5
21B
100
AcDbEntity
8
0
6
ByLayer
62
256
370
-1
100
AcDbLine
10
-37.8
20
3.7
11
-37.0783042437
21
5.93688244301
0
ARC
5
21C
100
AcDbEntity
8
0
6
ByLayer
62
256
370
-1
100
AcDbCircle
10
-37.4229154512
20
3.59219144806
40
0.392193116718
100
AcDbArc
50
164.044755845
51
240.248322632
0
CIRCLE
5
21D
100
AcDbEntity
8
0
6
ByLayer
62
256
370
-1
100
AcDbCircle
10
-34.374775
20
2.70125999997
40
0.065
0
CIRCLE
5
21E
100
AcDbEntity
8
0
6
ByLayer
62
256
370
-1
100
AcDbCircle
10
-36
20
3.1
40
0.065
0
CIRCLE
5
21F
100
AcDbEntity
8
0
6
ByLayer
62
256
370
-1
100
AcDbCircle
10
-37.5
20
3.5
40
0.065
0
ELLIPSE
5
220
100
AcDbEntity
8
0
6
ByLayer
62
256
370
-1
100
AcDbEllipse
10
-7.21056006895
20
5.81731939963
30
0
11
0.319101466045
21
2.14228634832e-12
31
0
40
0.881834215168
41
0.438845454876
42
1.91316495931
0
ELLIPSE
5
221
100
AcDbEntity
8
0
6
ByLayer
62
256
370
-1
100
AcDbEllipse
10
-21.9999999998
20
47.3721976906
30
0
11
49.0706721811
21
3.29464455717e-10
31
0
40
0.881834215168
41
4.71238898038
42
5.0162509407
0
CIRCLE
5
222
100
AcDbEntity
8
0
6
ByLayer
62
256
370
-1
100
AcDbCircle
10
-9.62522499955
20
5.23296000005
40
0.065
0
CIRCLE
5
223
100
AcDbEntity
8
0
6
ByLayer
62
256
370
-1
100
AcDbCircle
10
-7.20399999955
20
5.83638500007
40
0.065
0
CIRCLE
5
224
100
AcDbEntity
8
0
6
ByLayer
62
256
370
-1
100
AcDbCircle
10
-19.5250449995
20
3.88465999999
40
0.065
0
CIRCLE
5
225
100
AcDbEntity
8
0
6
ByLayer
62
256
370
-1
100
AcDbCircle
10
-17.8750749995
20
3.98166
40
0.065
0
CIRCLE
5
226
100
AcDbEntity
8
0
6
ByLayer
62
256
370
-1
100
AcDbCircle
10
-16.2251049995
20
4.12716000001
40
0.065
0
CIRCLE
5
227
100
AcDbEntity
8
0
6
ByLayer
62
256
370
-1
100
AcDbCircle
10
-14.5751349995
20
4.32116000002
40
0.065
0
CIRCLE
5
228
100
AcDbEntity
8
0
6
ByLayer
62
256
370
-1
100
AcDbCircle
10
-12.9251649995
20
4.57336000003
40
0.065
0
CIRCLE
5
229
100
AcDbEntity
8
0
6
ByLayer
62
256
370
-1
100
AcDbCircle
10
-21.1750149995
20
3.83615999998
40
0.065
0
CIRCLE
5
22A
100
AcDbEntity
8
0
6
ByLayer
62
256
370
-1
100
AcDbCircle
10
-8.25024999955
20
5.55306000006
40
0.065
0
CIRCLE
5
22B
100
AcDbEntity
8
0
6
ByLayer
62
256
370
-1
100
AcDbCircle
10
-11.2751949995
20
4.87406000004
40
0.065
0
CIRCLE
5
22C
100
AcDbEntity
8
0
6
ByLayer
62
256
370
-1
100
AcDbCircle
10
-17.8750749995
20
1.51786
40
0.065
0
CIRCLE
5
22D
100
AcDbEntity
8
0
6
ByLayer
62
256
370
-1
100
AcDbCircle
10
-16.2251049995
20
1.65366000001
40
0.065
0
CIRCLE
5
22E
100
AcDbEntity
8
0
6
ByLayer
62
256
370
-1
100
AcDbCircle
10
-14.5751349995
20
1.84766000002
40
0.065
0
CIRCLE
5
22F
100
AcDbEntity
8
0
6
ByLayer
62
256
370
-1
100
AcDbCircle
10
-12.9251649995
20
2.08046000003
40
0.065
0
CIRCLE
5
230
100
AcDbEntity
8
0
6
ByLayer
62
256
370
-1
100
AcDbCircle
10
-11.2751949995
20
2.37146000004
40
0.065
0
CIRCLE
5
231
100
AcDbEntity
8
0
6
ByLayer
62
256
370
-1
100
AcDbCircle
10
-19.5250449995
20
1.42085999999
40
0.065
0
CIRCLE
5
232
100
AcDbEntity
8
0
6
ByLayer
62
256
370
-1
100
AcDbCircle
10
-21.1750149995
20
1.37235999998
40
0.065
0
ELLIPSE
5
233
100
AcDbEntity
8
0
6
ByLayer
62
256
370
-1
100
AcDbEllipse
10
-21.9999999998
20
46.266385
30
0
11
51.21781875
21
3.43888473253e-10
31
0
40
0.881834215168
41
4.71238898038
42
5.0222475253
0
LINE
5
234
100
AcDbEntity
8
0
6
ByLayer
62
256
370
-1
100
AcDbLine
10
-6.19999999954
20
3.70000000011
11
-6.92169575585
21
5.93688244311
0
ARC
5
235
100
AcDbEntity
8
0
6
ByLayer
62
256
370
-1
100
AcDbCircle
10
-6.57708454832
20
3.59219144816
40
0.392193116718
100
AcDbArc
50
299.751677368
51
15.955244155
0
CIRCLE
5
236
100
AcDbEntity
8
0
6
ByLayer
62
256
370
-1
100
AcDbCircle
10
-9.62522499953
20
2.70126000005
40
0.065
0
CIRCLE
5
237
100
AcDbEntity
8
0
6
ByLayer
62
256
370
-1
100
AcDbCircle
10
-7.99999999953
20
3.10000000009
40
0.065
0
CIRCLE
5
238
100
AcDbEntity
8
0
6
ByLayer
62
256
370
-1
100
AcDbCircle
10
-6.49999999954
20
3.5000000001
40
0.065
0
MTEXT
5
239
100
AcDbEntity
8
0
6
ByLayer
62
256
370
0
100
AcDbMText
10
-22.8
20
2.9
30
0
40
0.109998
41
1.6530255
71
1
72
5
1
Lower Front Plate #4
7
iso
210
0
220
0
230
1
50
0
73
2
44
1
0
MTEXT
5
23A
100
AcDbEntity
8
0
6
ByLayer
62
256
370
0
100
AcDbMText
10
-22.4
20
2.4
30
0
40
0.109998
41
0.9869265
71
1
72
5
1
Height: 180cm\PWeight: 100kg
7
iso
210
0
220
0
230
1
50
0
73
2
44
1
0
CIRCLE
5
23B
100
AcDbEntity
8
0
6
ByLayer
62
256
370
-1
100
AcDbCircle
10
-31.4998
20
38.759875
40
0.07
0
ARC
5
23C
100
AcDbEntity
8
0
6
ByLayer
62
256
370
-1
100
AcDbCircle
10
-24.8807692308
20
47.5884615385
40
0.943256978671
100
AcDbArc
50
59.3567759535
51
167.040405074
0
ARC
5
23D
100
AcDbEntity
8
0
6
ByLayer
62
256
370
-1
100
AcDbCircle
10
-21.74
20
56.96
40
8.96377152766
100
AcDbArc
50
252.737489908
51
268.337865676
0
CIRCLE
5
23E
100
AcDbEntity
8
0
6
ByLayer
62
256
370
-1
100
AcDbCircle
10
-29.424865
20
37.662475
40
0.065
0
CIRCLE
5
23F
100
AcDbEntity
8
0
6
ByLayer
62
256
370
-1
100
AcDbCircle
10
-24.474955
20
38.021375
40
0.065
0
CIRCLE
5
240
100
AcDbEntity
8
0
6
ByLayer
62
256
370
-1
100
AcDbCircle
10
-22.824985
20
38.060175
40
0.065
0
CIRCLE
5
241
100
AcDbEntity
8
0
6
ByLayer
62
256
370
-1
100
AcDbCircle
10
-32.724805
20
37.206575
40
0.065
0
CIRCLE
5
242
100
AcDbEntity
8
0
6
ByLayer
62
256
370
-1
100
AcDbCircle
10
-27.774895
20
37.817675
40
0.065
0
CIRCLE
5
243
100
AcDbEntity
8
0
6
ByLayer
62
256
370
-1
100
AcDbCircle
10
-31.074835
20
37.458775
40
0.065
0
CIRCLE
5
244
100
AcDbEntity
8
0
6
ByLayer
62
256
370
-1
100
AcDbCircle
10
-26.124925
20
37.943775
40
0.065
0
CIRCLE
5
245
100
AcDbEntity
8
0
6
ByLayer
62
256
370
-1
100
AcDbCircle
10
-24.3
20
48.1
40
0.065
0
CIRCLE
5
246
100
AcDbEntity
8
0
6
ByLayer
62
256
370
-1
100
AcDbCircle
10
-33.2524215217
20
39.6554981085
40
0.065
0
CIRCLE
5
247
100
AcDbEntity
8
0
6
ByLayer
62
256
370
-1
100
AcDbCircle
10
-31.638845639
20
40.0825563148
40
0.065
0
CIRCLE
5
248
100
AcDbEntity
8
0
6
ByLayer
62
256
370
-1
100
AcDbCircle
10
-25.63
20
46.87
40
0.065
0
CIRCLE
5
249
100
AcDbEntity
8
0
6
ByLayer
62
256
370
-1
100
AcDbCircle
10
-25.28
20
48.13
40
0.065
0
MTEXT
5
24A
100
AcDbEntity
8
0
6
ByLayer
62
256
370
60
100
AcDbMText
10
-22.9
20
43
30
0
40
0.109998
41
1.84857755657
71
1
72
5
1
Front Upper Chest Plate
7
iso
210
0
220
0
230
1
50
0
73
2
44
1
0
MTEXT
5
24B
100
AcDbEntity
8
0
6
ByLayer
62
256
370
-1
100
AcDbMText
10
-22.5
20
42.6
30
0
40
0.109998
41
0.9869265
71
1
72
5
1
Height: 180cm\PWeight: 100kg
7
iso
210
0
220
0
230
1
50
360
73
2
44
1
0
CIRCLE
5
24C
100
AcDbEntity
8
0
6
ByLayer
62
256
370
-1
100
AcDbCircle
10
-25.1
20
47.8
40
0.07
0
ARC
5
24D
100
AcDbEntity
8
0
6
ByLayer
62
256
370
-1
100
AcDbCircle
10
-35.0867109634
20
49.1522425248
40
9.38464492464
100
AcDbArc
50
291.154120724
51
351.715357578
0
CIRCLE
5
24E
100
AcDbEntity
8
0
6
ByLayer
62
256
370
-1
100
AcDbCircle
10
-30.14
20
40.8
40
0.065
0
CIRCLE
5
24F
100
AcDbEntity
8
0
6
ByLayer
62
256
370
-1
100
AcDbCircle
10
-28.77
20
41.77
40
0.065
0
CIRCLE
5
250
100
AcDbEntity
8
0
6
ByLayer
62
256
370
-1
100
AcDbCircle
10
-27.66
20
42.89
40
0.065
0
CIRCLE
5
251
100
AcDbEntity
8
0
6
ByLayer
62
256
370
-1
100
AcDbCircle
10
-26.72
20
44.2
40
0.065
0
CIRCLE
5
252
100
AcDbEntity
8
0
6
ByLayer
62
256
370
-1
100
AcDbCircle
10
-26.1
20
45.5
40
0.065
0
LINE
5
253
100
AcDbEntity
8
0
6
ByLayer
62
256
370
0
100
AcDbLine
10
-36.8
20
8.2
11
-36.0357448
21
10.393375
0
ARC
5
254
100
AcDbEntity
8
0
6
ByLayer
62
256
370
-1
100
AcDbCircle
10
-36.4525186406
20
8.05508116003
40
0.376490060004
100
AcDbArc
50
157.361178974
51
247.361178974
0
ELLIPSE
5
255
100
AcDbEntity
8
0
6
ByLayer
62
256
370
-1
100
AcDbEllipse
10
-8.253119513
20
10.2738119565
30
0
11
-0.319101466045
21
0
31
0
40
0.881834215168
41
3.58043810847
42
5.0547576129
0
LINE
5
256
100
AcDbEntity
8
0
6
ByLayer
62
256
370
-1
100
AcDbLine
10
-7.2
20
8.2
11
-7.9642552
21
10.393375
0
ARC
5
257
100
AcDbEntity
8
0
6
ByLayer
62
256
370
-1
100
AcDbCircle
10
-7.54748135936
20
8.05508116003
40
0.376490060004
100
AcDbArc
50
292.638821026
51
22.6388210256
0
ELLIPSE
5
258
100
AcDbEntity
8
0
6
ByLayer
62
256
370
0
100
AcDbEllipse
10
-22
20
51
30
0
11
51.21781875
21
0
31
0
40
0.881834215168
41
4.42337523687
42
5.0014027239
0
ELLIPSE
5
259
100
AcDbEntity
8
0
6
ByLayer
62
256
370
-1
100
AcDbEllipse
10
-25.5297400445
20
75.4092307783
30
0
11
69.7952876709
21
0
31
0
40
0.925925925926
41
4.93586486695
42
4.95710281761
0
ARC
5
25A
100
AcDbEntity
8
0
6
ByLayer
62
256
370
-1
100
AcDbCircle
10
-8.72247786884
20
13.0499211834
40
0.355690352815
100
AcDbArc
50
286.773652031
51
24.956920483
0
LINE
5
25B
100
AcDbEntity
8
0
6
ByLayer
62
256
370
0
100
AcDbLine
10
-9.020236
20
15.291875
11
-8.4
21
13.2
0
ARC
5
25C
100
AcDbEntity
8
0
6
ByLayer
62
256
370
-1
100
AcDbCircle
10
-9.41731533434
20
15.1306016604
40
0.428580316651
100
AcDbArc
50
22.1044767278
51
103.052857136
0
ARC
5
25D
100
AcDbEntity
8
0
6
ByLayer
62
256
370
-1
100
AcDbCircle
10
-35.2775221312
20
13.0499211834
40
0.355690352815
100
AcDbArc
50
155.043079517
51
253.226347969
0
LINE
5
25E
100
AcDbEntity
8
0
6
ByLayer
62
256
370
-1
100
AcDbLine
10
-34.979764
20
15.291875
11
-35.6
21
13.2
0
ARC
5
25F
100
AcDbEntity
8
0
6
ByLayer
62
256
370
-1
100
AcDbCircle
10
-34.5826846657
20
15.1306016604
40
0.428580316651
100
AcDbArc
50
76.9471428641
51
157.895523272
0
ELLIPSE
5
260
100
AcDbEntity
8
0
6
ByLayer
62
256
370
0
100
AcDbEllipse
10
-22
20
58.1186402174
30
0
11
49.8635281566
21
0
31
0
40
0.881834215168
41
4.45929429202
42
4.96548366875
0
ELLIPSE
5
261
100
AcDbEntity
8
0
6
ByLayer
62
256
370
-1
100
AcDbEllipse
10
-18.4702599555
20
75.4092307783
30
0
11
69.7952876709
21
0
31
0
40
0.925925925926
41
4.46767514316
42
4.48891309382
0
LINE
5
262
100
AcDbEntity
8
0
6
ByLayer
62
256
370
0
100
AcDbLine
10
-10.120216
20
20.035875
11
-9.5
21
18
0
ELLIPSE
5
263
100
AcDbEntity
8
0
6
ByLayer
62
256
370
-1
100
AcDbEllipse
10
-21.8272074862
20
60.2401224592
30
0
11
47.6716454122
21
0
31
0
40
0.925925925926
41
4.70876433327
42
4.96988400683
0
ARC
5
264
100
AcDbEntity
8
0
6
ByLayer
62
256
370
-1
100
AcDbCircle
10
-9.8254107334
20
17.875
40
0.348593094323
100
AcDbArc
50
293.359206765
51
21.0132765835
0
ELLIPSE
5
265
100
AcDbEntity
8
0
6
ByLayer
62
256
370
-1
100
AcDbEllipse
10
-33.4380481293
20
19.9206579268
30
0
11
-0.460653461826
21
0
31
0
40
0.881834215168
41
4.71617463499
42
5.99560554337
0
LINE
5
266
100
AcDbEntity
8
0
6
ByLayer
62
256
370
-1
100
AcDbLine
10
-33.879784
20
20.035875
11
-34.5
21
18
0
ARC
5
267
100
AcDbEntity
8
0
6
ByLayer
62
256
370
-1
100
AcDbCircle
10
-34.1745892666
20
17.875
40
0.348593094323
100
AcDbArc
50
158.986723416
51
246.640793235
0
ELLIPSE
5
268
100
AcDbEntity
8
0
6
ByLayer
62
256
370
-1
100
AcDbEllipse
10
-22.1727925138
20
60.2401224592
30
0
11
47.6716454122
21
0
31
0
40
0.925925925926
41
4.45489395394
42
4.7160136275
0
ELLIPSE
5
269
100
AcDbEntity
8
0
6
ByLayer
62
256
370
-1
100
AcDbEllipse
10
22.2032040044
20
56.8927609365
30
0
11
54.8241583973
21
0
31
0
40
0.925925925926
41
4.4065322829
42
4.70868250361
0
LINE
5
26A
100
AcDbEntity
8
0
6
ByLayer
62
256
370
0
100
AcDbLine
10
5.5
20
8.9
11
6.23467534701
21
11.1653763875
0
ARC
5
26B
100
AcDbEntity
8
0
6
ByLayer
62
256
370
-1
100
AcDbCircle
10
5.83625443861
20
8.80517920552
40
0.349368044553
100
AcDbArc
50
164.252014869
51
246.167880509
0
ELLIPSE
5
26C
100
AcDbEntity
8
0
6
ByLayer
62
256
370
-1
100
AcDbEllipse
10
37.47646034
20
11.045813344
30
0
11
0.319101466045
21
0
31
0
40
0.881834215168
41
0.43884545488
42
1.91316495931
0
LINE
5
26D
100
AcDbEntity
8
0
6
ByLayer
62
256
370
-1
100
AcDbLine
10
38.5
20
8.9
11
37.765324653
21
11.1653763875
0
ARC
5
26E
100
AcDbEntity
8
0
6
ByLayer
62
256
370
-1
100
AcDbCircle
10
38.1637455614
20
8.80517920552
40
0.349368044553
100
AcDbArc
50
293.832119491
51
15.7479851309
0
ELLIPSE
5
26F
100
AcDbEntity
8
0
6
ByLayer
62
256
370
-1
100
AcDbEllipse
10
21.7967959956
20
56.8927609365
30
0
11
54.8241583973
21
0
31
0
40
0.925925925926
41
4.71609545716
42
5.01824567787
0
LINE
5
270
100
AcDbEntity
8
0
6
ByLayer
62
256
370
0
100
AcDbLine
10
7.480264
20
15.948
11
6.8
21
13.6
0
ELLIPSE
5
271
100
AcDbEntity
8
0
6
ByLayer
62
256
370
0
100
AcDbEllipse
10
22.5664897
20
45.58635
30
0
11
39.9603106157
21
0
31
0
40
0.881834215168
41
4.31306710834
42
4.34893061792
0
ARC
5
272
100
AcDbEntity
8
0
6
ByLayer
62
256
370
-1
100
AcDbCircle
10
7.20872027314
20
13.5010219292
40
0.420450523133
100
AcDbArc
50
166.33311276
51
244.871262343
0
LINE
5
273
100
AcDbEntity
8
0
6
ByLayer
62
256
370
-1
100
AcDbLine
10
36.519736
20
15.948
11
37.2
21
13.6
0
ARC
5
274
100
AcDbEntity
8
0
6
ByLayer
62
256
370
-1
100
AcDbCircle
10
36.7912797269
20
13.5010219292
40
0.420450523133
100
AcDbArc
50
295.128737657
51
13.6668872397
0
ELLIPSE
5
275
100
AcDbEntity
8
0
6
ByLayer
62
256
370
0
100
AcDbEllipse
10
21.4335103
20
45.58635
30
0
11
39.9603106157
21
0
31
0
40
0.881834215168
41
5.07584734285
42
5.11171085243
0
ARC
5
276
100
AcDbEntity
8
0
6
ByLayer
62
256
370
-1
100
AcDbCircle
10
11.4607782041
20
26.7278263568
40
9.15800559349
100
AcDbArc
50
249.14171907
51
257.382092997
0
LINE
5
277
100
AcDbEntity
8
0
6
ByLayer
62
256
370
0
100
AcDbLine
10
8.580244
20
20.895
11
7.98
21
18.62
0
ARC
5
278
100
AcDbEntity
8
0
6
ByLayer
62
256
370
-1
100
AcDbCircle
10
8.35617647059
20
18.525130719
40
0.387954787972
100
AcDbArc
50
165.845529357
51
246.261461264
0
LINE
5
279
100
AcDbEntity
8
0
6
ByLayer
62
256
370
-1
100
AcDbLine
10
35.419756
20
20.895
11
36.02
21
18.62
0
ARC
5
27A
100
AcDbEntity
8
0
6
ByLayer
62
256
370
-1
100
AcDbCircle
10
35.6438235294
20
18.525130719
40
0.387954787972
100
AcDbArc
50
293.738538736
51
14.1544706426
0
ARC
5
27B
100
AcDbEntity
8
0
6
ByLayer
62
256
370
-1
100
AcDbCircle
10
32.5392217352
20
26.727826345
40
9.15800560403
100
AcDbArc
50
282.617907384
51
290.858281311
0
ELLIPSE
5
27C
100
AcDbEntity
8
0
6
ByLayer
62
256
370
-1
100
AcDbEllipse
10
-34.0594474
20
34.1303083333
30
0
11
0.263434429413
21
0
31
0
40
0.881834215168
41
1.72450385585
42
2.98788512454
0
LINE
5
27D
100
AcDbEntity
8
0
6
ByLayer
62
256
370
-1
100
AcDbLine
10
-34.319776
20
34.165875
11
-33.879784
21
31.643875
0
ELLIPSE
5
27E
100
AcDbEntity
8
0
6
ByLayer
62
256
370
-1
100
AcDbEllipse
10
-33.6194554
20
31.6794416667
30
0
11
0.263434429413
21
0
31
0
40
0.881834215168
41
3.29530018264
42
4.55868145133
0
ELLIPSE
5
27F
100
AcDbEntity
8
0
6
ByLayer
62
256
370
-1
100
AcDbEllipse
10
-22
20
-10.2399021387
30
0
11
48.6928170323
21
0
31
0
40
0.881834215168
41
1.32899079819
42
1.8126018554
0
ELLIPSE
5
280
100
AcDbEntity
8
0
6
ByLayer
62
256
370
-1
100
AcDbEllipse
10
-10.3805446
20
31.6794416667
30
0
11
0.263434429413
21
0
31
0
40
0.881834215168
41
4.86609650944
42
6.12947777813
0
LINE
5
281
100
AcDbEntity
8
0
6
ByLayer
62
256
370
-1
100
AcDbLine
10
-9.680224
20
34.165875
11
-10.120216
21
31.643875
0
ELLIPSE
5
282
100
AcDbEntity
8
0
6
ByLayer
62
256
370
-1
100
AcDbEllipse
10
-21.9768417239
20
-10.5631474879
30
0
11
52.3653041622
21
0
31
0
40
0.881834215168
41
1.3380788613
42
1.80442288314
0
ELLIPSE
5
283
100
AcDbEntity
8
0
6
ByLayer
62
256
370
-1
100
AcDbEllipse
10
-9.94806913
20
34.1351583333
30
0
11
0.270100593584
21
0
31
0
40
0.881834215168
41
0.129322119886
42
1.39270338856
0
CIRCLE
5
284
100
AcDbEntity
8
0
6
ByLayer
62
256
370
-1
100
AcDbCircle
10
-33.54979
20
31.740875
40
0.065
0
CIRCLE
5
285
100
AcDbEntity
8
0
6
ByLayer
62
256
370
-1
100
AcDbCircle
10
-29.424865
20
32.468375
40
0.065
0
CIRCLE
5
286
100
AcDbEntity
8
0
6
ByLayer
62
256
370
-1
100
AcDbCircle
10
-24.474955
20
32.904875
40
0.065
0
CIRCLE
5
287
100
AcDbEntity
8
0
6
ByLayer
62
256
370
-1
100
AcDbCircle
10
-22.824985
20
32.963075
40
0.065
0
CIRCLE
5
288
100
AcDbEntity
8
0
6
ByLayer
62
256
370
-1
100
AcDbCircle
10
-32.724805
20
31.915475
40
0.065
0
CIRCLE
5
289
100
AcDbEntity
8
0
6
ByLayer
62
256
370
-1
100
AcDbCircle
10
-27.774895
20
32.662375
40
0.065
0
CIRCLE
5
28A
100
AcDbEntity
8
0
6
ByLayer
62
256
370
-1
100
AcDbCircle
10
-31.074835
20
32.216175
40
0.065
0
CIRCLE
5
28B
100
AcDbEntity
8
0
6
ByLayer
62
256
370
-1
100
AcDbCircle
10
-26.124925
20
32.817575
40
0.065
0
CIRCLE
5
28C
100
AcDbEntity
8
0
6
ByLayer
62
256
370
-1
100
AcDbCircle
10
-10.45021
20
31.740875
40
0.065
0
CIRCLE
5
28D
100
AcDbEntity
8
0
6
ByLayer
62
256
370
-1
100
AcDbCircle
10
-14.575135
20
32.468375
40
0.065
0
CIRCLE
5
28E
100
AcDbEntity
8
0
6
ByLayer
62
256
370
-1
100
AcDbCircle
10
-19.525045
20
32.904875
40
0.065
0
CIRCLE
5
28F
100
AcDbEntity
8
0
6
ByLayer
62
256
370
-1
100
AcDbCircle
10
-21.175015
20
32.963075
40
0.065
0
CIRCLE
5
290
100
AcDbEntity
8
0
6
ByLayer
62
256
370
-1
100
AcDbCircle
10
-11.275195
20
31.915475
40
0.065
0
CIRCLE
5
291
100
AcDbEntity
8
0
6
ByLayer
62
256
370
-1
100
AcDbCircle
10
-16.225105
20
32.662375
40
0.065
0
CIRCLE
5
292
100
AcDbEntity
8
0
6
ByLayer
62
256
370
-1
100
AcDbCircle
10
-12.925165
20
32.216175
40
0.065
0
CIRCLE
5
293
100
AcDbEntity
8
0
6
ByLayer
62
256
370
-1
100
AcDbCircle
10
-17.875075
20
32.817575
40
0.065
0
MTEXT
5
294
100
AcDbEntity
8
0
6
ByLayer
62
256
370
-1
100
AcDbMText
10
-22.5
20
34
30
0
40
0.109998
41
0.9869265
71
1
72
5
1
Height: 180cm\PWeight: 100kg
7
iso
210
0
220
0
230
1
50
0
73
2
44
1
0
ELLIPSE
5
295
100
AcDbEntity
8
0
6
ByLayer
62
256
370
-1
100
AcDbEllipse
10
-33.2596674
20
26.3595666667
30
0
11
0.263434429413
21
0
31
0
40
0.881834215168
41
3.29530018264
42
4.55868145133
0
CIRCLE
5
296
100
AcDbEntity
8
0
6
ByLayer
62
256
370
-1
100
AcDbCircle
10
-33.190002
20
26.421
40
0.065
0
LINE
5
297
100
AcDbEntity
8
0
6
ByLayer
62
256
370
-1
100
AcDbLine
10
-33.95
20
28.8
11
-33.519996
21
26.324
0
ARC
5
298
100
AcDbEntity
8
0
6
ByLayer
62
256
370
-1
100
AcDbCircle
10
-33.7285055193
20
28.8154377452
40
0.222031819659
100
AcDbArc
50
114.18501298
51
183.986959528
0
ARC
5
299
100
AcDbEntity
8
0
6
ByLayer
62
256
370
-1
100
AcDbCircle
10
-22.0306948103
20
-28.4630735017
40
58.6774815301
100
AcDbArc
50
89.9700279712
51
101.590059651
0
ARC
5
29A
100
AcDbEntity
8
0
6
ByLayer
62
256
370
-1
100
AcDbCircle
10
-22.0228400821
20
-27.4882580715
40
54.7882628323
100
AcDbArc
50
89.9761145859
51
101.877326173
0
CIRCLE
5
29B
100
AcDbEntity
8
0
6
ByLayer
62
256
370
-1
100
AcDbCircle
10
-14.575135
20
27.068375
40
0.065
0
CIRCLE
5
29C
100
AcDbEntity
8
0
6
ByLayer
62
256
370
-1
100
AcDbCircle
10
-19.525045
20
27.504875
40
0.065
0
CIRCLE
5
29D
100
AcDbEntity
8
0
6
ByLayer
62
256
370
-1
100
AcDbCircle
10
-21.175015
20
27.563075
40
0.065
0
CIRCLE
5
29E
100
AcDbEntity
8
0
6
ByLayer
62
256
370
-1
100
AcDbCircle
10
-11.275195
20
26.515475
40
0.065
0
CIRCLE
5
29F
100
AcDbEntity
8
0
6
ByLayer
62
256
370
-1
100
AcDbCircle
10
-16.225105
20
27.262375
40
0.065
0
CIRCLE
5
2A0
100
AcDbEntity
8
0
6
ByLayer
62
256
370
-1
100
AcDbCircle
10
-12.925165
20
26.816175
40
0.065
0
CIRCLE
5
2A1
100
AcDbEntity
8
0
6
ByLayer
62
256
370
-1
100
AcDbCircle
10
-17.875075
20
27.417575
40
0.065
0
ELLIPSE
5
2A2
100
AcDbEntity
8
0
6
ByLayer
62
256
370
-1
100
AcDbEllipse
10
-10.7403326
20
26.3595666667
30
0
11
-0.263434429413
21
0
31
0
40
0.881834215168
41
1.72450385585
42
2.98788512454
0
CIRCLE
5
2A3
100
AcDbEntity
8
0
6
ByLayer
62
256
370
-1
100
AcDbCircle
10
-10.809998
20
26.421
40
0.065
0
LINE
5
2A4
100
AcDbEntity
8
0
6
ByLayer
62
256
370
-1
100
AcDbLine
10
-10.05
20
28.8
11
-10.480004
21
26.324
0
ARC
5
2A5
100
AcDbEntity
8
0
6
ByLayer
62
256
370
-1
100
AcDbCircle
10
-10.2714944807
20
28.8154377452
40
0.222031819659
100
AcDbArc
50
356.013040472
51
65.8149870196
0
ARC
5
2A6
100
AcDbEntity
8
0
6
ByLayer
62
256
370
-1
100
AcDbCircle
10
-21.9693051897
20
-28.4630735017
40
58.6774815301
100
AcDbArc
50
78.4099403485
51
90.0299720288
0
ARC
5
2A7
100
AcDbEntity
8
0
6
ByLayer
62
256
370
-1
100
AcDbCircle
10
-21.9771599179
20
-27.4882580715
40
54.7882628323
100
AcDbArc
50
78.1226738273
51
90.0238854141
0
ARC
5
2A8
100
AcDbEntity
8
0
6
ByLayer
62
256
370
-1
100
AcDbCircle
10
-34.2194285714
20
39.1924285714
40
0.466908307216
100
AcDbArc
50
119.451338126
51
195.201305428
0
LINE
5
2A9
100
AcDbEntity
8
0
6
ByLayer
62
256
370
-1
100
AcDbLine
10
-34.67
20
39.07
11
-34.27
21
37.07
0
ARC
5
2AA
100
AcDbEntity
8
0
6
ByLayer
62
256
370
-1
100
AcDbCircle
10
-33.9260090361
20
37.152876506
40
0.35383371584
100
AcDbArc
50
193.545910933
51
274.215407368
0
CIRCLE
5
2AB
100
AcDbEntity
8
0
6
ByLayer
62
256
370
-1
100
AcDbCircle
10
-33.97
20
37.01
40
0.065
0
CIRCLE
5
2AC
100
AcDbEntity
8
0
6
ByLayer
62
256
370
-1
100
AcDbCircle
10
-34.21
20
38.13
40
0.065
0
CIRCLE
5
2AD
100
AcDbEntity
8
0
6
ByLayer
62
256
370
-1
100
AcDbCircle
10
-34.46
20
39.29
40
0.065
0
ARC
5
2AE
100
AcDbEntity
8
0
6
ByLayer
62
256
370
-1
100
AcDbCircle
10
-42.5069655186
20
72.3713448298
40
33.7484428373
100
AcDbArc
50
283.813693587
51
288.676300237
0
ARC
5
2AF
100
AcDbEntity
8
0
6
ByLayer
62
256
370
-1
100
AcDbCircle
10
-22.3246355685
20
-29.6418367359
40
67.4426180584
100
AcDbArc
50
89.724205253
51
99.882766265
0
CIRCLE
5
2B0
100
AcDbEntity
8
0
6
ByLayer
62
256
370
-1
100
AcDbCircle
10
-21.175015
20
47.797275
40
0.065
0
CIRCLE
5
2B1
100
AcDbEntity
8
0
6
ByLayer
62
256
370
-1
100
AcDbCircle
10
-12.5002
20
38.759875
40
0.07
0
ARC
5
2B2
100
AcDbEntity
8
0
6
ByLayer
62
256
370
-1
100
AcDbCircle
10
-19.1192307692
20
47.5884615385
40
0.943256978671
100
AcDbArc
50
12.959594926
51
120.643224047
0
ARC
5
2B3
100
AcDbEntity
8
0
6
ByLayer
62
256
370
-1
100
AcDbCircle
10
-22.26
20
56.96
40
8.96377152766
100
AcDbArc
50
271.662134324
51
287.262510092
0
CIRCLE
5
2B4
100
AcDbEntity
8
0
6
ByLayer
62
256
370
-1
100
AcDbCircle
10
-14.575135
20
37.662475
40
0.065
0
CIRCLE
5
2B5
100
AcDbEntity
8
0
6
ByLayer
62
256
370
-1
100
AcDbCircle
10
-19.525045
20
38.021375
40
0.065
0
CIRCLE
5
2B6
100
AcDbEntity
8
0
6
ByLayer
62
256
370
-1
100
AcDbCircle
10
-21.175015
20
38.060175
40
0.065
0
CIRCLE
5
2B7
100
AcDbEntity
8
0
6
ByLayer
62
256
370
-1
100
AcDbCircle
10
-11.275195
20
37.206575
40
0.065
0
CIRCLE
5
2B8
100
AcDbEntity
8
0
6
ByLayer
62
256
370
-1
100
AcDbCircle
10
-16.225105
20
37.817675
40
0.065
0
CIRCLE
5
2B9
100
AcDbEntity
8
0
6
ByLayer
62
256
370
-1
100
AcDbCircle
10
-12.925165
20
37.458775
40
0.065
0
CIRCLE
5
2BA
100
AcDbEntity
8
0
6
ByLayer
62
256
370
-1
100
AcDbCircle
10
-17.875075
20
37.943775
40
0.065
0
CIRCLE
5
2BB
100
AcDbEntity
8
0
6
ByLayer
62
256
370
-1
100
AcDbCircle
10
-19.7
20
48.1
40
0.065
0
CIRCLE
5
2BC
100
AcDbEntity
8
0
6
ByLayer
62
256
370
-1
100
AcDbCircle
10
-10.7475784783
20
39.6554981085
40
0.065
0
CIRCLE
5
2BD
100
AcDbEntity
8
0
6
ByLayer
62
256
370
-1
100
AcDbCircle
10
-12.361154361
20
40.0825563148
40
0.065
0
CIRCLE
5
2BE
100
AcDbEntity
8
0
6
ByLayer
62
256
370
-1
100
AcDbCircle
10
-18.37
20
46.87
40
0.065
0
CIRCLE
5
2BF
100
AcDbEntity
8
0
6
ByLayer
62
256
370
-1
100
AcDbCircle
10
-18.72
20
48.13
40
0.065
0
CIRCLE
5
2C0
100
AcDbEntity
8
0
6
ByLayer
62
256
370
-1
100
AcDbCircle
10
-18.9
20
47.8
40
0.07
0
ARC
5
2C1
100
AcDbEntity
8
0
6
ByLayer
62
256
370
-1
100
AcDbCircle
10
-8.9132890366
20
49.1522425248
40
9.38464492464
100
AcDbArc
50
188.284642422
51
248.845879276
0
CIRCLE
5
2C2
100
AcDbEntity
8
0
6
ByLayer
62
256
370
-1
100
AcDbCircle
10
-13.86
20
40.8
40
0.065
0
CIRCLE
5
2C3
100
AcDbEntity
8
0
6
ByLayer
62
256
370
-1
100
AcDbCircle
10
-15.23
20
41.77
40
0.065
0
CIRCLE
5
2C4
100
AcDbEntity
8
0
6
ByLayer
62
256
370
-1
100
AcDbCircle
10
-16.34
20
42.89
40
0.065
0
CIRCLE
5
2C5
100
AcDbEntity
8
0
6
ByLayer
62
256
370
-1
100
AcDbCircle
10
-17.28
20
44.2
40
0.065
0
CIRCLE
5
2C6
100
AcDbEntity
8
0
6
ByLayer
62
256
370
-1
100
AcDbCircle
10
-17.9
20
45.5
40
0.065
0
ARC
5
2C7
100
AcDbEntity
8
0
6
ByLayer
62
256
370
-1
100
AcDbCircle
10
-9.78057142856
20
39.1924285714
40
0.466908307216
100
AcDbArc
50
344.798694572
51
60.548661874
0
LINE
5
2C8
100
AcDbEntity
8
0
6
ByLayer
62
256
370
-1
100
AcDbLine
10
-9.32999999996
20
39.07
11
-9.72999999996
21
37.07
0
ARC
5
2C9
100
AcDbEntity
8
0
6
ByLayer
62
256
370
-1
100
AcDbCircle
10
-10.0739909639
20
37.152876506
40
0.35383371584
100
AcDbArc
50
265.784592632
51
346.454089067
0
CIRCLE
5
2CA
100
AcDbEntity
8
0
6
ByLayer
62
256
370
-1
100
AcDbCircle
10
-10.03
20
37.01
40
0.065
0
CIRCLE
5
2CB
100
AcDbEntity
8
0
6
ByLayer
62
256
370
-1
100
AcDbCircle
10
-9.78999999996
20
38.13
40
0.065
0
CIRCLE
5
2CC
100
AcDbEntity
8
0
6
ByLayer
62
256
370
-1
100
AcDbCircle
10
-9.53999999996
20
39.29
40
0.065
0
ARC
5
2CD
100
AcDbEntity
8
0
6
ByLayer
62
256
370
-1
100
AcDbCircle
10
-1.49303448138
20
72.3713448298
40
33.7484428373
100
AcDbArc
50
251.323699763
51
256.186306413
0
ARC
5
2CE
100
AcDbEntity
8
0
6
ByLayer
62
256
370
-1
100
AcDbCircle
10
-21.6753644315
20
-29.6418367359
40
67.4426180584
100
AcDbArc
50
80.117233735
51
90.275794747
0
TEXT
5
2CF
100
AcDbEntity
8
0
6
ByLayer
62
256
370
-1
100
AcDbText
10
-9
20
58
30
0
40
2
1
June 07, 2015
50
0
41
1
51
0
7
unicode
71
0
210
0
220
0
230
1
100
AcDbText
0
ENDSEC
0
SECTION
2
OBJECTS
0
DICTIONARY
5
C
330
0
100
AcDbDictionary
281
1
3
ACAD_GROUP
350
D
0
DICTIONARY
5
D
330
C
100
AcDbDictionary
281
1
0
ENDSEC
0
EOF
